  0
SECTION
  2
HEADER
  9
$ACADVER
  1
AC1009
  9
$DWGCODEPAGE
  3
ansi_1250
  9
$INSBASE
 10
0.0
 20
0.0
 30
0.0
  9
$EXTMIN
 10
-300.0
 20
-300.0
 30
-30.00000000000001
  9
$EXTMAX
 10
300.0
 20
300.0
 30
0.0000000000000711
  9
$LIMMIN
 10
0.0
 20
0.0
  9
$LIMMAX
 10
420.0
 20
297.0
  9
$ORTHOMODE
 70
     0
  9
$REGENMODE
 70
     1
  9
$FILLMODE
 70
     1
  9
$QTEXTMODE
 70
     0
  9
$MIRRTEXT
 70
     0
  9
$DRAGMODE
 70
     2
  9
$LTSCALE
 40
1.0
  9
$OSMODE
 70
   511
  9
$ATTMODE
 70
     1
  9
$TEXTSIZE
 40
2.5
  9
$TRACEWID
 40
1.0
  9
$TEXTSTYLE
  7
STANDARD
  9
$CLAYER
  8
0
  9
$CELTYPE
  6
BYLAYER
  9
$CECOLOR
 62
   256
  9
$DIMSCALE
 40
1.0
  9
$DIMASZ
 40
2.5
  9
$DIMEXO
 40
0.625
  9
$DIMDLI
 40
3.75
  9
$DIMRND
 40
0.0
  9
$DIMDLE
 40
0.0
  9
$DIMEXE
 40
1.25
  9
$DIMTP
 40
0.0
  9
$DIMTM
 40
0.0
  9
$DIMTXT
 40
2.5
  9
$DIMCEN
 40
-2.5
  9
$DIMTSZ
 40
0.0
  9
$DIMTOL
 70
     0
  9
$DIMLIM
 70
     0
  9
$DIMTIH
 70
     0
  9
$DIMTOH
 70
     0
  9
$DIMSE1
 70
     0
  9
$DIMSE2
 70
     0
  9
$DIMTAD
 70
     1
  9
$DIMZIN
 70
     8
  9
$DIMBLK
  1

  9
$DIMASO
 70
     1
  9
$DIMSHO
 70
     1
  9
$DIMPOST
  1

  9
$DIMAPOST
  1

  9
$DIMALT
 70
     0
  9
$DIMALTD
 70
     3
  9
$DIMALTF
 40
0.03937007874016
  9
$DIMLFAC
 40
1.0
  9
$DIMTOFL
 70
     1
  9
$DIMTVP
 40
0.0
  9
$DIMTIX
 70
     0
  9
$DIMSOXD
 70
     0
  9
$DIMSAH
 70
     0
  9
$DIMBLK1
  1

  9
$DIMBLK2
  1

  9
$DIMSTYLE
  2
ISO-25
  9
$DIMCLRD
 70
     0
  9
$DIMCLRE
 70
     0
  9
$DIMCLRT
 70
     0
  9
$DIMTFAC
 40
1.0
  9
$DIMGAP
 40
0.625
  9
$LUNITS
 70
     2
  9
$LUPREC
 70
     3
  9
$SKETCHINC
 40
1.0
  9
$FILLETRAD
 40
10.0
  9
$AUNITS
 70
     0
  9
$AUPREC
 70
     0
  9
$MENU
  1
.
  9
$ELEVATION
 40
0.0
  9
$PELEVATION
 40
0.0
  9
$THICKNESS
 40
0.0
  9
$LIMCHECK
 70
     0
  9
$CHAMFERA
 40
10.0
  9
$CHAMFERB
 40
10.0
  9
$SKPOLY
 70
     0
  9
$TDCREATE
 40
2455022.720692848
  9
$TDUPDATE
 40
2460521.495371401
  9
$TDINDWG
 40
0.1660900463
  9
$TDUSRTIMER
 40
0.1660900463
  9
$USRTIMER
 70
     1
  9
$ANGBASE
 50
0.0
  9
$ANGDIR
 70
     0
  9
$PDMODE
 70
     0
  9
$PDSIZE
 40
0.0
  9
$PLINEWID
 40
0.0
  9
$COORDS
 70
     1
  9
$SPLFRAME
 70
     0
  9
$SPLINETYPE
 70
     6
  9
$SPLINESEGS
 70
     8
  9
$ATTDIA
 70
     0
  9
$ATTREQ
 70
     1
  9
$HANDLING
 70
     1
  9
$HANDSEED
  5
8986
  9
$SURFTAB1
 70
     6
  9
$SURFTAB2
 70
     6
  9
$SURFTYPE
 70
     6
  9
$SURFU
 70
     6
  9
$SURFV
 70
     6
  9
$UCSNAME
  2

  9
$UCSORG
 10
0.0
 20
0.0
 30
0.0
  9
$UCSXDIR
 10
1.0
 20
0.0
 30
0.0
  9
$UCSYDIR
 10
0.0
 20
1.0
 30
0.0
  9
$PUCSNAME
  2

  9
$PUCSORG
 10
0.0
 20
0.0
 30
0.0
  9
$PUCSXDIR
 10
1.0
 20
0.0
 30
0.0
  9
$PUCSYDIR
 10
0.0
 20
1.0
 30
0.0
  9
$USERI1
 70
     0
  9
$USERI2
 70
     0
  9
$USERI3
 70
     0
  9
$USERI4
 70
     0
  9
$USERI5
 70
     0
  9
$USERR1
 40
0.0
  9
$USERR2
 40
0.0
  9
$USERR3
 40
0.0
  9
$USERR4
 40
0.0
  9
$USERR5
 40
0.0
  9
$WORLDVIEW
 70
     1
  9
$SHADEDGE
 70
     3
  9
$SHADEDIF
 70
    70
  9
$TILEMODE
 70
     1
  9
$MAXACTVP
 70
    64
  9
$PLIMCHECK
 70
     0
  9
$PEXTMIN
 10
1.000000000000000E+20
 20
1.000000000000000E+20
 30
1.000000000000000E+20
  9
$PEXTMAX
 10
-1.000000000000000E+20
 20
-1.000000000000000E+20
 30
-1.000000000000000E+20
  9
$PLIMMIN
 10
0.0
 20
0.0
  9
$PLIMMAX
 10
0.0
 20
0.0
  9
$UNITMODE
 70
     0
  9
$VISRETAIN
 70
     1
  9
$PLINEGEN
 70
     0
  9
$PSLTSCALE
 70
     1
  0
ENDSEC
  0
SECTION
  2
TABLES
  0
TABLE
  2
VPORT
 70
     1
  0
VPORT
  2
*ACTIVE
 70
     0
 10
0.0
 20
0.0
 11
1.0
 21
1.0
 12
-116.6110757937285
 22
90.81470093901663
 13
0.0
 23
0.0
 14
10.0
 24
10.0
 15
10.0
 25
10.0
 16
0.5773502691896262
 26
0.5773502691896262
 36
0.5773502691896262
 17
-41.66599977993164
 27
123.2469651304761
 37
-82.93435654674934
 40
770.3645241053097
 41
1.88293897882939
 42
50.0
 43
0.0
 44
0.0
 50
0.0
 51
0.0
 71
    16
 72
  1000
 73
     1
 74
     3
 75
     0
 76
     0
 77
     0
 78
     0
  0
ENDTAB
  0
TABLE
  2
LTYPE
 70
     1
  0
LTYPE
  2
CONTINUOUS
 70
     0
  3
Solid line
 72
    65
 73
     0
 40
0.0
  0
ENDTAB
  0
TABLE
  2
LAYER
 70
     1
  0
LAYER
  2
0
 70
     0
 62
     7
  6
CONTINUOUS
  0
ENDTAB
  0
TABLE
  2
STYLE
 70
     2
  0
STYLE
  2
STANDARD
 70
     0
 40
0.0
 41
1.0
 50
0.0
 71
     0
 42
2.5
  3
arial.ttf
  4

  0
STYLE
  2
ANNOTATIVE
 70
     0
 40
0.0
 41
1.0
 50
0.0
 71
     0
 42
2.5
  3
arial.ttf
  4

  0
ENDTAB
  0
TABLE
  2
VIEW
 70
     0
  0
ENDTAB
  0
TABLE
  2
UCS
 70
     0
  0
ENDTAB
  0
TABLE
  2
APPID
 70
     2
  0
APPID
  2
ACAD
 70
     0
  0
APPID
  2
ACADANNOTATIVE
 70
     0
  0
ENDTAB
  0
TABLE
  2
DIMSTYLE
 70
     2
  0
DIMSTYLE
  2
ISO-25
 70
     0
  3

  4

  5

  6

  7

 40
1.0
 41
2.5
 42
0.625
 43
3.75
 44
1.25
 45
0.0
 46
0.0
 47
0.0
 48
0.0
140
2.5
141
-2.5
142
0.0
143
0.03937007874016
144
1.0
145
0.0
146
1.0
147
0.625
 71
     0
 72
     0
 73
     0
 74
     0
 75
     0
 76
     0
 77
     1
 78
     8
170
     0
171
     3
172
     1
173
     0
174
     0
175
     0
176
     0
177
     0
178
     0
  0
DIMSTYLE
  2
ANNOTATIVE
 70
     0
  3

  4

  5

  6

  7

 40
0.0
 41
2.5
 42
0.625
 43
3.75
 44
1.25
 45
0.0
 46
0.0
 47
0.0
 48
0.0
140
2.5
141
-2.5
142
0.0
143
0.03937007874016
144
1.0
145
0.0
146
1.0
147
0.625
 71
     0
 72
     0
 73
     0
 74
     0
 75
     0
 76
     0
 77
     1
 78
     8
170
     0
171
     3
172
     1
173
     0
174
     0
175
     0
176
     0
177
     0
178
     0
  0
ENDTAB
  0
ENDSEC
  0
SECTION
  2
BLOCKS
  0
BLOCK
  8
0
  2
$MODEL_SPACE
 70
     0
 10
0.0
 20
0.0
 30
0.0
  3
$MODEL_SPACE
  1

  0
ENDBLK
  5
21
  8
0
  0
BLOCK
 67
     1
  8
0
  2
$PAPER_SPACE
 70
     0
 10
0.0
 20
0.0
 30
0.0
  3
$PAPER_SPACE
  1

  0
ENDBLK
  5
1D
 67
     1
  8
0
  0
BLOCK
  8
0
  2
*X1
 70
     1
 10
0.0
 20
0.0
 30
0.0
  3
*X1
  1

  0
POLYLINE
  5
8531
  8
0
 66
     1
 10
0.0
 20
0.0
 30
0.0
 70
    64
 71
     6
 72
     4
  0
VERTEX
  5
8532
  8
0
 10
-123.0000000000001
 20
120.0
 30
-27.0
 70
   192
  0
VERTEX
  5
8533
  8
0
 10
-157.0000000000001
 20
120.0
 30
-27.0
 70
   192
  0
VERTEX
  5
8534
  8
0
 10
-157.0000000000001
 20
120.0
 30
-20.0
 70
   192
  0
VERTEX
  5
8535
  8
0
 10
-160.0000000000001
 20
120.0
 30
-20.0
 70
   192
  0
VERTEX
  5
8536
  8
0
 10
-160.0000000000001
 20
120.0
 30
-30.0
 70
   192
  0
VERTEX
  5
8537
  8
0
 10
-123.0000000000001
 20
120.0
 30
-30.0
 70
   192
  0
VERTEX
  5
8538
  8
0
 10
0.0
 20
0.0
 30
0.0
 70
   128
 71
     6
 72
     1
 73
    -2
  0
VERTEX
  5
8539
  8
0
 10
0.0
 20
0.0
 30
0.0
 70
   128
 71
     5
 72
    -6
 73
    -2
  0
VERTEX
  5
853A
  8
0
 10
0.0
 20
0.0
 30
0.0
 70
   128
 71
     3
 72
     4
 73
    -5
  0
VERTEX
  5
853B
  8
0
 10
0.0
 20
0.0
 30
0.0
 70
   128
 71
     2
 72
    -3
 73
    -5
  0
SEQEND
  5
8943
  8
0
  0
POLYLINE
  5
853C
  8
0
 66
     1
 10
0.0
 20
0.0
 30
0.0
 70
    64
 71
     6
 72
     4
  0
VERTEX
  5
853D
  8
0
 10
-160.0000000000001
 20
85.00000000000003
 30
-17.0
 70
   192
  0
VERTEX
  5
853E
  8
0
 10
-160.0000000000001
 20
145.0
 30
-17.0
 70
   192
  0
VERTEX
  5
853F
  8
0
 10
-160.0000000000001
 20
145.0
 30
-30.0
 70
   192
  0
VERTEX
  5
8540
  8
0
 10
-160.0000000000001
 20
120.0
 30
-30.0
 70
   192
  0
VERTEX
  5
8541
  8
0
 10
-160.0000000000001
 20
120.0
 30
-20.0
 70
   192
  0
VERTEX
  5
8542
  8
0
 10
-160.0000000000001
 20
85.00000000000003
 30
-20.0
 70
   192
  0
VERTEX
  5
8543
  8
0
 10
0.0
 20
0.0
 30
0.0
 70
   128
 71
     3
 72
     4
 73
    -5
  0
VERTEX
  5
8544
  8
0
 10
0.0
 20
0.0
 30
0.0
 70
   128
 71
     2
 72
    -3
 73
    -5
  0
VERTEX
  5
8545
  8
0
 10
0.0
 20
0.0
 30
0.0
 70
   128
 71
     6
 72
     1
 73
    -2
  0
VERTEX
  5
8546
  8
0
 10
0.0
 20
0.0
 30
0.0
 70
   128
 71
     5
 72
    -6
 73
    -2
  0
SEQEND
  5
8944
  8
0
  0
POLYLINE
  5
8547
  8
0
 66
     1
 10
0.0
 20
0.0
 30
0.0
 70
    64
 71
     4
 72
     2
  0
VERTEX
  5
8548
  8
0
 10
-160.0000000000001
 20
145.0
 30
-17.0
 70
   192
  0
VERTEX
  5
8549
  8
0
 10
-160.0000000000001
 20
145.0
 30
-30.0
 70
   192
  0
VERTEX
  5
854A
  8
0
 10
-80.0000000000001
 20
145.0000000000001
 30
-30.0
 70
   192
  0
VERTEX
  5
854B
  8
0
 10
-80.0000000000001
 20
145.0000000000001
 30
-17.0
 70
   192
  0
VERTEX
  5
854C
  8
0
 10
0.0
 20
0.0
 30
0.0
 70
   128
 71
     1
 72
     4
 73
    -3
  0
VERTEX
  5
854D
  8
0
 10
0.0
 20
0.0
 30
0.0
 70
   128
 71
    -1
 72
     3
 73
     2
  0
SEQEND
  5
8945
  8
0
  0
POLYLINE
  5
854E
  8
0
 66
     1
 10
0.0
 20
0.0
 30
0.0
 70
    64
 71
     6
 72
     4
  0
VERTEX
  5
854F
  8
0
 10
-80.0000000000001
 20
145.0000000000001
 30
-17.0
 70
   192
  0
VERTEX
  5
8550
  8
0
 10
-80.0000000000001
 20
145.0000000000001
 30
-30.0
 70
   192
  0
VERTEX
  5
8551
  8
0
 10
-80.00000000000006
 20
120.0
 30
-30.0
 70
   192
  0
VERTEX
  5
8552
  8
0
 10
-80.00000000000006
 20
120.0
 30
-20.0
 70
   192
  0
VERTEX
  5
8553
  8
0
 10
-79.99999999999999
 20
85.00000000000001
 30
-20.0
 70
   192
  0
VERTEX
  5
8554
  8
0
 10
-79.99999999999999
 20
85.00000000000001
 30
-17.0
 70
   192
  0
VERTEX
  5
8555
  8
0
 10
0.0
 20
0.0
 30
0.0
 70
   128
 71
     4
 72
     3
 73
    -2
  0
VERTEX
  5
8556
  8
0
 10
0.0
 20
0.0
 30
0.0
 70
   128
 71
    -4
 72
     2
 73
    -1
  0
VERTEX
  5
8557
  8
0
 10
0.0
 20
0.0
 30
0.0
 70
   128
 71
     1
 72
     6
 73
    -5
  0
VERTEX
  5
8558
  8
0
 10
0.0
 20
0.0
 30
0.0
 70
   128
 71
    -1
 72
     5
 73
    -4
  0
SEQEND
  5
8946
  8
0
  0
POLYLINE
  5
8559
  8
0
 66
     1
 10
0.0
 20
0.0
 30
0.0
 70
    64
 71
     4
 72
     2
  0
VERTEX
  5
855A
  8
0
 10
-79.99999999999999
 20
85.00000000000001
 30
-17.0
 70
   192
  0
VERTEX
  5
855B
  8
0
 10
-160.0000000000001
 20
85.00000000000003
 30
-17.0
 70
   192
  0
VERTEX
  5
855C
  8
0
 10
-160.0000000000001
 20
85.00000000000003
 30
-20.0
 70
   192
  0
VERTEX
  5
855D
  8
0
 10
-79.99999999999999
 20
85.00000000000001
 30
-20.0
 70
   192
  0
VERTEX
  5
855E
  8
0
 10
0.0
 20
0.0
 30
0.0
 70
   128
 71
     3
 72
     4
 73
    -1
  0
VERTEX
  5
855F
  8
0
 10
0.0
 20
0.0
 30
0.0
 70
   128
 71
     2
 72
    -3
 73
     1
  0
SEQEND
  5
8947
  8
0
  0
POLYLINE
  5
8560
  8
0
 66
     1
 10
0.0
 20
0.0
 30
0.0
 70
    64
 71
     8
 72
     6
  0
VERTEX
  5
8561
  8
0
 10
-83.0000000000001
 20
142.0000000000001
 30
-20.0
 70
   192
  0
VERTEX
  5
8562
  8
0
 10
-157.0000000000001
 20
142.0
 30
-20.0
 70
   192
  0
VERTEX
  5
8563
  8
0
 10
-157.0000000000001
 20
120.0
 30
-20.0
 70
   192
  0
VERTEX
  5
8564
  8
0
 10
-160.0000000000001
 20
120.0
 30
-20.0
 70
   192
  0
VERTEX
  5
8565
  8
0
 10
-160.0000000000001
 20
85.00000000000003
 30
-20.0
 70
   192
  0
VERTEX
  5
8566
  8
0
 10
-79.99999999999999
 20
85.00000000000001
 30
-20.0
 70
   192
  0
VERTEX
  5
8567
  8
0
 10
-80.00000000000006
 20
120.0
 30
-20.0
 70
   192
  0
VERTEX
  5
8568
  8
0
 10
-83.00000000000007
 20
120.0
 30
-20.0
 70
   192
  0
VERTEX
  5
8569
  8
0
 10
0.0
 20
0.0
 30
0.0
 70
   128
 71
     8
 72
     7
 73
    -6
  0
VERTEX
  5
856A
  8
0
 10
0.0
 20
0.0
 30
0.0
 70
   128
 71
     3
 72
     2
 73
    -1
  0
VERTEX
  5
856B
  8
0
 10
0.0
 20
0.0
 30
0.0
 70
   128
 71
    -3
 72
     1
 73
    -8
  0
VERTEX
  5
856C
  8
0
 10
0.0
 20
0.0
 30
0.0
 70
   128
 71
    -8
 72
     6
 73
    -5
  0
VERTEX
  5
856D
  8
0
 10
0.0
 20
0.0
 30
0.0
 70
   128
 71
    -8
 72
    -5
 73
    -3
  0
VERTEX
  5
856E
  8
0
 10
0.0
 20
0.0
 30
0.0
 70
   128
 71
     5
 72
     4
 73
    -3
  0
SEQEND
  5
8948
  8
0
  0
POLYLINE
  5
856F
  8
0
 66
     1
 10
0.0
 20
0.0
 30
0.0
 70
    64
 71
     4
 72
     2
  0
VERTEX
  5
8570
  8
0
 10
-160.0000000000001
 20
145.0
 30
-17.0
 70
   192
  0
VERTEX
  5
8571
  8
0
 10
-160.0000000000001
 20
85.00000000000003
 30
-17.0
 70
   192
  0
VERTEX
  5
8572
  8
0
 10
-79.99999999999999
 20
85.00000000000001
 30
-17.0
 70
   192
  0
VERTEX
  5
8573
  8
0
 10
-80.0000000000001
 20
145.0000000000001
 30
-17.0
 70
   192
  0
VERTEX
  5
8574
  8
0
 10
0.0
 20
0.0
 30
0.0
 70
   128
 71
     3
 72
     4
 73
    -1
  0
VERTEX
  5
8575
  8
0
 10
0.0
 20
0.0
 30
0.0
 70
   128
 71
     2
 72
    -3
 73
     1
  0
SEQEND
  5
8949
  8
0
  0
POLYLINE
  5
8576
  8
0
 66
     1
 10
0.0
 20
0.0
 30
0.0
 70
    64
 71
     4
 72
     2
  0
VERTEX
  5
8577
  8
0
 10
-117.0000000000001
 20
140.0
 30
-27.0
 70
   192
  0
VERTEX
  5
8578
  8
0
 10
-123.0000000000001
 20
140.0
 30
-27.0
 70
   192
  0
VERTEX
  5
8579
  8
0
 10
-123.0000000000001
 20
140.0
 30
-30.0
 70
   192
  0
VERTEX
  5
857A
  8
0
 10
-117.0000000000001
 20
140.0
 30
-30.0
 70
   192
  0
VERTEX
  5
857B
  8
0
 10
0.0
 20
0.0
 30
0.0
 70
   128
 71
     3
 72
     4
 73
    -1
  0
VERTEX
  5
857C
  8
0
 10
0.0
 20
0.0
 30
0.0
 70
   128
 71
     2
 72
    -3
 73
     1
  0
SEQEND
  5
894A
  8
0
  0
POLYLINE
  5
857D
  8
0
 66
     1
 10
0.0
 20
0.0
 30
0.0
 70
    64
 71
     4
 72
     2
  0
VERTEX
  5
857E
  8
0
 10
-123.0000000000001
 20
140.0
 30
-27.0
 70
   192
  0
VERTEX
  5
857F
  8
0
 10
-123.0000000000001
 20
120.0
 30
-27.0
 70
   192
  0
VERTEX
  5
8580
  8
0
 10
-123.0000000000001
 20
120.0
 30
-30.0
 70
   192
  0
VERTEX
  5
8581
  8
0
 10
-123.0000000000001
 20
140.0
 30
-30.0
 70
   192
  0
VERTEX
  5
8582
  8
0
 10
0.0
 20
0.0
 30
0.0
 70
   128
 71
     3
 72
     4
 73
    -1
  0
VERTEX
  5
8583
  8
0
 10
0.0
 20
0.0
 30
0.0
 70
   128
 71
     2
 72
    -3
 73
     1
  0
SEQEND
  5
894B
  8
0
  0
POLYLINE
  5
8584
  8
0
 66
     1
 10
0.0
 20
0.0
 30
0.0
 70
    64
 71
     6
 72
     4
  0
VERTEX
  5
8585
  8
0
 10
-83.00000000000006
 20
120.0
 30
-20.0
 70
   192
  0
VERTEX
  5
8586
  8
0
 10
-83.00000000000006
 20
120.0
 30
-27.0
 70
   192
  0
VERTEX
  5
8587
  8
0
 10
-117.0000000000001
 20
120.0
 30
-27.0
 70
   192
  0
VERTEX
  5
8588
  8
0
 10
-117.0000000000001
 20
120.0
 30
-30.0
 70
   192
  0
VERTEX
  5
8589
  8
0
 10
-80.00000000000006
 20
120.0
 30
-30.0
 70
   192
  0
VERTEX
  5
858A
  8
0
 10
-80.00000000000006
 20
120.0
 30
-20.0
 70
   192
  0
VERTEX
  5
858B
  8
0
 10
0.0
 20
0.0
 30
0.0
 70
   128
 71
     6
 72
     1
 73
    -2
  0
VERTEX
  5
858C
  8
0
 10
0.0
 20
0.0
 30
0.0
 70
   128
 71
     5
 72
    -6
 73
    -2
  0
VERTEX
  5
858D
  8
0
 10
0.0
 20
0.0
 30
0.0
 70
   128
 71
     3
 72
     4
 73
    -5
  0
VERTEX
  5
858E
  8
0
 10
0.0
 20
0.0
 30
0.0
 70
   128
 71
     2
 72
    -3
 73
    -5
  0
SEQEND
  5
894C
  8
0
  0
POLYLINE
  5
858F
  8
0
 66
     1
 10
0.0
 20
0.0
 30
0.0
 70
    64
 71
     4
 72
     2
  0
VERTEX
  5
8590
  8
0
 10
-117.0000000000001
 20
120.0
 30
-27.0
 70
   192
  0
VERTEX
  5
8591
  8
0
 10
-117.0000000000001
 20
140.0
 30
-27.0
 70
   192
  0
VERTEX
  5
8592
  8
0
 10
-117.0000000000001
 20
140.0
 30
-30.0
 70
   192
  0
VERTEX
  5
8593
  8
0
 10
-117.0000000000001
 20
120.0
 30
-30.0
 70
   192
  0
VERTEX
  5
8594
  8
0
 10
0.0
 20
0.0
 30
0.0
 70
   128
 71
     3
 72
     4
 73
    -1
  0
VERTEX
  5
8595
  8
0
 10
0.0
 20
0.0
 30
0.0
 70
   128
 71
     2
 72
    -3
 73
     1
  0
SEQEND
  5
894D
  8
0
  0
POLYLINE
  5
8596
  8
0
 66
     1
 10
0.0
 20
0.0
 30
0.0
 70
    64
 71
     8
 72
     6
  0
VERTEX
  5
8597
  8
0
 10
-117.0000000000001
 20
140.0
 30
-30.0
 70
   192
  0
VERTEX
  5
8598
  8
0
 10
-123.0000000000001
 20
140.0
 30
-30.0
 70
   192
  0
VERTEX
  5
8599
  8
0
 10
-123.0000000000001
 20
120.0
 30
-30.0
 70
   192
  0
VERTEX
  5
859A
  8
0
 10
-160.0000000000001
 20
120.0
 30
-30.0
 70
   192
  0
VERTEX
  5
859B
  8
0
 10
-160.0000000000001
 20
145.0
 30
-30.0
 70
   192
  0
VERTEX
  5
859C
  8
0
 10
-80.0000000000001
 20
145.0000000000001
 30
-30.0
 70
   192
  0
VERTEX
  5
859D
  8
0
 10
-80.00000000000006
 20
120.0
 30
-30.0
 70
   192
  0
VERTEX
  5
859E
  8
0
 10
-117.0000000000001
 20
120.0
 30
-30.0
 70
   192
  0
VERTEX
  5
859F
  8
0
 10
0.0
 20
0.0
 30
0.0
 70
   128
 71
     7
 72
     8
 73
    -1
  0
VERTEX
  5
85A0
  8
0
 10
0.0
 20
0.0
 30
0.0
 70
   128
 71
     6
 72
    -7
 73
    -1
  0
VERTEX
  5
85A1
  8
0
 10
0.0
 20
0.0
 30
0.0
 70
   128
 71
    -6
 72
     1
 73
    -2
  0
VERTEX
  5
85A2
  8
0
 10
0.0
 20
0.0
 30
0.0
 70
   128
 71
     5
 72
    -6
 73
    -2
  0
VERTEX
  5
85A3
  8
0
 10
0.0
 20
0.0
 30
0.0
 70
   128
 71
     3
 72
     4
 73
    -5
  0
VERTEX
  5
85A4
  8
0
 10
0.0
 20
0.0
 30
0.0
 70
   128
 71
     2
 72
    -3
 73
    -5
  0
SEQEND
  5
894E
  8
0
  0
POLYLINE
  5
85A5
  8
0
 66
     1
 10
0.0
 20
0.0
 30
0.0
 70
    64
 71
     4
 72
     2
  0
VERTEX
  5
85A6
  8
0
 10
-157.0000000000001
 20
120.0
 30
-20.0
 70
   192
  0
VERTEX
  5
85A7
  8
0
 10
-157.0000000000001
 20
142.0
 30
-20.0
 70
   192
  0
VERTEX
  5
85A8
  8
0
 10
-157.0000000000001
 20
142.0
 30
-27.0
 70
   192
  0
VERTEX
  5
85A9
  8
0
 10
-157.0000000000001
 20
120.0
 30
-27.0
 70
   192
  0
VERTEX
  5
85AA
  8
0
 10
0.0
 20
0.0
 30
0.0
 70
   128
 71
     1
 72
     4
 73
    -3
  0
VERTEX
  5
85AB
  8
0
 10
0.0
 20
0.0
 30
0.0
 70
   128
 71
    -1
 72
     3
 73
     2
  0
SEQEND
  5
894F
  8
0
  0
POLYLINE
  5
85AC
  8
0
 66
     1
 10
0.0
 20
0.0
 30
0.0
 70
    64
 71
     4
 72
     2
  0
VERTEX
  5
85AD
  8
0
 10
-83.0000000000001
 20
142.0000000000001
 30
-20.0
 70
   192
  0
VERTEX
  5
85AE
  8
0
 10
-157.0000000000001
 20
142.0
 30
-20.0
 70
   192
  0
VERTEX
  5
85AF
  8
0
 10
-157.0000000000001
 20
142.0
 30
-27.0
 70
   192
  0
VERTEX
  5
85B0
  8
0
 10
-83.0000000000001
 20
142.0000000000001
 30
-27.0
 70
   192
  0
VERTEX
  5
85B1
  8
0
 10
0.0
 20
0.0
 30
0.0
 70
   128
 71
     3
 72
     4
 73
    -1
  0
VERTEX
  5
85B2
  8
0
 10
0.0
 20
0.0
 30
0.0
 70
   128
 71
     2
 72
    -3
 73
     1
  0
SEQEND
  5
8950
  8
0
  0
POLYLINE
  5
85B3
  8
0
 66
     1
 10
0.0
 20
0.0
 30
0.0
 70
    64
 71
     4
 72
     2
  0
VERTEX
  5
85B4
  8
0
 10
-83.00000000000007
 20
120.0
 30
-20.0
 70
   192
  0
VERTEX
  5
85B5
  8
0
 10
-83.0000000000001
 20
142.0000000000001
 30
-20.0
 70
   192
  0
VERTEX
  5
85B6
  8
0
 10
-83.0000000000001
 20
142.0000000000001
 30
-27.0
 70
   192
  0
VERTEX
  5
85B7
  8
0
 10
-83.00000000000006
 20
120.0
 30
-27.0
 70
   192
  0
VERTEX
  5
85B8
  8
0
 10
0.0
 20
0.0
 30
0.0
 70
   128
 71
     3
 72
     4
 73
    -1
  0
VERTEX
  5
85B9
  8
0
 10
0.0
 20
0.0
 30
0.0
 70
   128
 71
     2
 72
    -3
 73
     1
  0
SEQEND
  5
8951
  8
0
  0
POLYLINE
  5
85BA
  8
0
 66
     1
 10
0.0
 20
0.0
 30
0.0
 70
    64
 71
     8
 72
     6
  0
VERTEX
  5
85BB
  8
0
 10
-123.0000000000001
 20
140.0
 30
-27.0
 70
   192
  0
VERTEX
  5
85BC
  8
0
 10
-123.0000000000001
 20
120.0
 30
-27.0
 70
   192
  0
VERTEX
  5
85BD
  8
0
 10
-157.0000000000001
 20
120.0
 30
-27.0
 70
   192
  0
VERTEX
  5
85BE
  8
0
 10
-157.0000000000001
 20
142.0
 30
-27.0
 70
   192
  0
VERTEX
  5
85BF
  8
0
 10
-83.0000000000001
 20
142.0000000000001
 30
-27.0
 70
   192
  0
VERTEX
  5
85C0
  8
0
 10
-83.00000000000006
 20
120.0
 30
-27.0
 70
   192
  0
VERTEX
  5
85C1
  8
0
 10
-117.0000000000001
 20
120.0
 30
-27.0
 70
   192
  0
VERTEX
  5
85C2
  8
0
 10
-117.0000000000001
 20
140.0
 30
-27.0
 70
   192
  0
VERTEX
  5
85C3
  8
0
 10
0.0
 20
0.0
 30
0.0
 70
   128
 71
     8
 72
     7
 73
    -6
  0
VERTEX
  5
85C4
  8
0
 10
0.0
 20
0.0
 30
0.0
 70
   128
 71
    -8
 72
     6
 73
    -5
  0
VERTEX
  5
85C5
  8
0
 10
0.0
 20
0.0
 30
0.0
 70
   128
 71
    -5
 72
     1
 73
    -8
  0
VERTEX
  5
85C6
  8
0
 10
0.0
 20
0.0
 30
0.0
 70
   128
 71
     5
 72
    -4
 73
    -1
  0
VERTEX
  5
85C7
  8
0
 10
0.0
 20
0.0
 30
0.0
 70
   128
 71
     4
 72
     3
 73
    -2
  0
VERTEX
  5
85C8
  8
0
 10
0.0
 20
0.0
 30
0.0
 70
   128
 71
    -4
 72
     2
 73
    -1
  0
SEQEND
  5
8952
  8
0
  0
ENDBLK
  5
8942
  8
0
  0
BLOCK
  8
0
  2
*X2
 70
     1
 10
0.0
 20
0.0
 30
0.0
  3
*X2
  1

  0
POLYLINE
  5
85CA
  8
0
 66
     1
 10
0.0
 20
0.0
 30
0.0
 70
    64
 71
     8
 72
     6
  0
VERTEX
  5
85CB
  8
0
 10
79.99999999999966
 20
120.0000000000001
 30
-20.0
 70
   192
  0
VERTEX
  5
85CC
  8
0
 10
79.99999999999966
 20
85.00000000000001
 30
-20.0
 70
   192
  0
VERTEX
  5
85CD
  8
0
 10
160.0000000000003
 20
84.99999999999977
 30
-20.0
 70
   192
  0
VERTEX
  5
85CE
  8
0
 10
160.0000000000003
 20
120.0000000000001
 30
-20.0
 70
   192
  0
VERTEX
  5
85CF
  8
0
 10
157.0000000000003
 20
120.0000000000001
 30
-20.0
 70
   192
  0
VERTEX
  5
85D0
  8
0
 10
157.0000000000003
 20
142.0000000000001
 30
-20.0
 70
   192
  0
VERTEX
  5
85D1
  8
0
 10
82.99999999999966
 20
142.0000000000001
 30
-20.0
 70
   192
  0
VERTEX
  5
85D2
  8
0
 10
82.99999999999967
 20
120.0000000000001
 30
-20.0
 70
   192
  0
VERTEX
  5
85D3
  8
0
 10
0.0
 20
0.0
 30
0.0
 70
   128
 71
     5
 72
    -4
 73
    -8
  0
VERTEX
  5
85D4
  8
0
 10
0.0
 20
0.0
 30
0.0
 70
   128
 71
     8
 72
     7
 73
    -6
  0
VERTEX
  5
85D5
  8
0
 10
0.0
 20
0.0
 30
0.0
 70
   128
 71
    -8
 72
     6
 73
    -5
  0
VERTEX
  5
85D6
  8
0
 10
0.0
 20
0.0
 30
0.0
 70
   128
 71
     4
 72
     3
 73
    -2
  0
VERTEX
  5
85D7
  8
0
 10
0.0
 20
0.0
 30
0.0
 70
   128
 71
    -4
 72
    -2
 73
    -8
  0
VERTEX
  5
85D8
  8
0
 10
0.0
 20
0.0
 30
0.0
 70
   128
 71
     2
 72
     1
 73
    -8
  0
SEQEND
  5
8955
  8
0
  0
POLYLINE
  5
85D9
  8
0
 66
     1
 10
0.0
 20
0.0
 30
0.0
 70
    64
 71
     6
 72
     4
  0
VERTEX
  5
85DA
  8
0
 10
79.99999999999966
 20
85.00000000000001
 30
-17.0
 70
   192
  0
VERTEX
  5
85DB
  8
0
 10
79.99999999999966
 20
145.0000000000001
 30
-17.0
 70
   192
  0
VERTEX
  5
85DC
  8
0
 10
79.99999999999966
 20
145.0000000000001
 30
-30.0
 70
   192
  0
VERTEX
  5
85DD
  8
0
 10
79.99999999999966
 20
120.0000000000001
 30
-30.0
 70
   192
  0
VERTEX
  5
85DE
  8
0
 10
79.99999999999966
 20
120.0000000000001
 30
-20.0
 70
   192
  0
VERTEX
  5
85DF
  8
0
 10
79.99999999999966
 20
85.00000000000001
 30
-20.0
 70
   192
  0
VERTEX
  5
85E0
  8
0
 10
0.0
 20
0.0
 30
0.0
 70
   128
 71
     3
 72
     4
 73
    -5
  0
VERTEX
  5
85E1
  8
0
 10
0.0
 20
0.0
 30
0.0
 70
   128
 71
     2
 72
    -3
 73
    -5
  0
VERTEX
  5
85E2
  8
0
 10
0.0
 20
0.0
 30
0.0
 70
   128
 71
     6
 72
     1
 73
    -2
  0
VERTEX
  5
85E3
  8
0
 10
0.0
 20
0.0
 30
0.0
 70
   128
 71
     5
 72
    -6
 73
    -2
  0
SEQEND
  5
8956
  8
0
  0
POLYLINE
  5
85E4
  8
0
 66
     1
 10
0.0
 20
0.0
 30
0.0
 70
    64
 71
     4
 72
     2
  0
VERTEX
  5
85E5
  8
0
 10
79.99999999999966
 20
145.0000000000001
 30
-17.0
 70
   192
  0
VERTEX
  5
85E6
  8
0
 10
79.99999999999967
 20
145.0000000000001
 30
-30.0
 70
   192
  0
VERTEX
  5
85E7
  8
0
 10
160.0000000000003
 20
145.0000000000001
 30
-30.0
 70
   192
  0
VERTEX
  5
85E8
  8
0
 10
160.0000000000003
 20
145.0000000000001
 30
-17.0
 70
   192
  0
VERTEX
  5
85E9
  8
0
 10
0.0
 20
0.0
 30
0.0
 70
   128
 71
     1
 72
     4
 73
    -3
  0
VERTEX
  5
85EA
  8
0
 10
0.0
 20
0.0
 30
0.0
 70
   128
 71
    -1
 72
     3
 73
     2
  0
SEQEND
  5
8957
  8
0
  0
POLYLINE
  5
85EB
  8
0
 66
     1
 10
0.0
 20
0.0
 30
0.0
 70
    64
 71
     6
 72
     4
  0
VERTEX
  5
85EC
  8
0
 10
160.0000000000003
 20
145.0000000000001
 30
-17.0
 70
   192
  0
VERTEX
  5
85ED
  8
0
 10
160.0000000000003
 20
145.0000000000001
 30
-30.0
 70
   192
  0
VERTEX
  5
85EE
  8
0
 10
160.0000000000003
 20
120.0000000000001
 30
-30.0
 70
   192
  0
VERTEX
  5
85EF
  8
0
 10
160.0000000000003
 20
120.0000000000001
 30
-20.0
 70
   192
  0
VERTEX
  5
85F0
  8
0
 10
160.0000000000003
 20
84.99999999999977
 30
-20.0
 70
   192
  0
VERTEX
  5
85F1
  8
0
 10
160.0000000000003
 20
84.99999999999977
 30
-17.0
 70
   192
  0
VERTEX
  5
85F2
  8
0
 10
0.0
 20
0.0
 30
0.0
 70
   128
 71
     4
 72
     3
 73
    -2
  0
VERTEX
  5
85F3
  8
0
 10
0.0
 20
0.0
 30
0.0
 70
   128
 71
    -4
 72
     2
 73
    -1
  0
VERTEX
  5
85F4
  8
0
 10
0.0
 20
0.0
 30
0.0
 70
   128
 71
     1
 72
     6
 73
    -5
  0
VERTEX
  5
85F5
  8
0
 10
0.0
 20
0.0
 30
0.0
 70
   128
 71
    -1
 72
     5
 73
    -4
  0
SEQEND
  5
8958
  8
0
  0
POLYLINE
  5
85F6
  8
0
 66
     1
 10
0.0
 20
0.0
 30
0.0
 70
    64
 71
     4
 72
     2
  0
VERTEX
  5
85F7
  8
0
 10
160.0000000000003
 20
84.99999999999976
 30
-17.0
 70
   192
  0
VERTEX
  5
85F8
  8
0
 10
79.99999999999966
 20
85.00000000000001
 30
-17.0
 70
   192
  0
VERTEX
  5
85F9
  8
0
 10
79.99999999999966
 20
85.00000000000001
 30
-20.0
 70
   192
  0
VERTEX
  5
85FA
  8
0
 10
160.0000000000003
 20
84.99999999999976
 30
-20.0
 70
   192
  0
VERTEX
  5
85FB
  8
0
 10
0.0
 20
0.0
 30
0.0
 70
   128
 71
     3
 72
     4
 73
    -1
  0
VERTEX
  5
85FC
  8
0
 10
0.0
 20
0.0
 30
0.0
 70
   128
 71
     2
 72
    -3
 73
     1
  0
SEQEND
  5
8959
  8
0
  0
POLYLINE
  5
85FD
  8
0
 66
     1
 10
0.0
 20
0.0
 30
0.0
 70
    64
 71
     4
 72
     2
  0
VERTEX
  5
85FE
  8
0
 10
79.99999999999966
 20
145.0000000000001
 30
-17.0
 70
   192
  0
VERTEX
  5
85FF
  8
0
 10
79.99999999999966
 20
85.00000000000001
 30
-17.0
 70
   192
  0
VERTEX
  5
8600
  8
0
 10
160.0000000000003
 20
84.99999999999976
 30
-17.0
 70
   192
  0
VERTEX
  5
8601
  8
0
 10
160.0000000000003
 20
145.0000000000001
 30
-17.0
 70
   192
  0
VERTEX
  5
8602
  8
0
 10
0.0
 20
0.0
 30
0.0
 70
   128
 71
     3
 72
     4
 73
    -1
  0
VERTEX
  5
8603
  8
0
 10
0.0
 20
0.0
 30
0.0
 70
   128
 71
     2
 72
    -3
 73
     1
  0
SEQEND
  5
895A
  8
0
  0
POLYLINE
  5
8604
  8
0
 66
     1
 10
0.0
 20
0.0
 30
0.0
 70
    64
 71
     4
 72
     2
  0
VERTEX
  5
8605
  8
0
 10
117.0000000000001
 20
140.0
 30
-30.0
 70
   192
  0
VERTEX
  5
8606
  8
0
 10
117.0000000000001
 20
120.0000000000001
 30
-30.0
 70
   192
  0
VERTEX
  5
8607
  8
0
 10
117.0000000000001
 20
120.0000000000001
 30
-27.0
 70
   192
  0
VERTEX
  5
8608
  8
0
 10
117.0000000000001
 20
140.0
 30
-27.0
 70
   192
  0
VERTEX
  5
8609
  8
0
 10
0.0
 20
0.0
 30
0.0
 70
   128
 71
     1
 72
     4
 73
    -3
  0
VERTEX
  5
860A
  8
0
 10
0.0
 20
0.0
 30
0.0
 70
   128
 71
    -1
 72
     3
 73
     2
  0
SEQEND
  5
895B
  8
0
  0
POLYLINE
  5
860B
  8
0
 66
     1
 10
0.0
 20
0.0
 30
0.0
 70
    64
 71
     6
 72
     4
  0
VERTEX
  5
860C
  8
0
 10
117.0000000000001
 20
120.0000000000001
 30
-27.0
 70
   192
  0
VERTEX
  5
860D
  8
0
 10
117.0000000000001
 20
120.0000000000001
 30
-30.0
 70
   192
  0
VERTEX
  5
860E
  8
0
 10
79.99999999999966
 20
120.0000000000001
 30
-30.0
 70
   192
  0
VERTEX
  5
860F
  8
0
 10
79.99999999999967
 20
120.0000000000001
 30
-20.0
 70
   192
  0
VERTEX
  5
8610
  8
0
 10
82.99999999999966
 20
120.0000000000001
 30
-20.0
 70
   192
  0
VERTEX
  5
8611
  8
0
 10
82.99999999999967
 20
120.0000000000001
 30
-27.0
 70
   192
  0
VERTEX
  5
8612
  8
0
 10
0.0
 20
0.0
 30
0.0
 70
   128
 71
     6
 72
     5
 73
    -4
  0
VERTEX
  5
8613
  8
0
 10
0.0
 20
0.0
 30
0.0
 70
   128
 71
    -6
 72
     4
 73
    -3
  0
VERTEX
  5
8614
  8
0
 10
0.0
 20
0.0
 30
0.0
 70
   128
 71
     3
 72
     2
 73
    -1
  0
VERTEX
  5
8615
  8
0
 10
0.0
 20
0.0
 30
0.0
 70
   128
 71
    -3
 72
     1
 73
    -6
  0
SEQEND
  5
895C
  8
0
  0
POLYLINE
  5
8616
  8
0
 66
     1
 10
0.0
 20
0.0
 30
0.0
 70
    64
 71
     6
 72
     4
  0
VERTEX
  5
8617
  8
0
 10
157.0000000000003
 20
120.0000000000001
 30
-20.0
 70
   192
  0
VERTEX
  5
8618
  8
0
 10
160.0000000000003
 20
120.0000000000001
 30
-20.0
 70
   192
  0
VERTEX
  5
8619
  8
0
 10
160.0000000000003
 20
120.0000000000001
 30
-30.0
 70
   192
  0
VERTEX
  5
861A
  8
0
 10
123.0000000000001
 20
120.0000000000001
 30
-30.0
 70
   192
  0
VERTEX
  5
861B
  8
0
 10
123.0000000000001
 20
120.0
 30
-27.0
 70
   192
  0
VERTEX
  5
861C
  8
0
 10
157.0000000000003
 20
120.0000000000001
 30
-27.0
 70
   192
  0
VERTEX
  5
861D
  8
0
 10
0.0
 20
0.0
 30
0.0
 70
   128
 71
     6
 72
     5
 73
    -4
  0
VERTEX
  5
861E
  8
0
 10
0.0
 20
0.0
 30
0.0
 70
   128
 71
    -6
 72
     4
 73
    -3
  0
VERTEX
  5
861F
  8
0
 10
0.0
 20
0.0
 30
0.0
 70
   128
 71
     3
 72
     2
 73
    -1
  0
VERTEX
  5
8620
  8
0
 10
0.0
 20
0.0
 30
0.0
 70
   128
 71
    -3
 72
     1
 73
    -6
  0
SEQEND
  5
895D
  8
0
  0
POLYLINE
  5
8621
  8
0
 66
     1
 10
0.0
 20
0.0
 30
0.0
 70
    64
 71
     4
 72
     2
  0
VERTEX
  5
8622
  8
0
 10
123.0000000000001
 20
120.0000000000001
 30
-30.0
 70
   192
  0
VERTEX
  5
8623
  8
0
 10
123.0000000000001
 20
140.0
 30
-30.0
 70
   192
  0
VERTEX
  5
8624
  8
0
 10
123.0000000000001
 20
140.0
 30
-27.0
 70
   192
  0
VERTEX
  5
8625
  8
0
 10
123.0000000000001
 20
120.0000000000001
 30
-27.0
 70
   192
  0
VERTEX
  5
8626
  8
0
 10
0.0
 20
0.0
 30
0.0
 70
   128
 71
     1
 72
     4
 73
    -3
  0
VERTEX
  5
8627
  8
0
 10
0.0
 20
0.0
 30
0.0
 70
   128
 71
    -1
 72
     3
 73
     2
  0
SEQEND
  5
895E
  8
0
  0
POLYLINE
  5
8628
  8
0
 66
     1
 10
0.0
 20
0.0
 30
0.0
 70
    64
 71
     4
 72
     2
  0
VERTEX
  5
8629
  8
0
 10
123.0000000000001
 20
140.0
 30
-30.0
 70
   192
  0
VERTEX
  5
862A
  8
0
 10
117.0000000000001
 20
140.0
 30
-30.0
 70
   192
  0
VERTEX
  5
862B
  8
0
 10
117.0000000000001
 20
140.0
 30
-27.0
 70
   192
  0
VERTEX
  5
862C
  8
0
 10
123.0000000000001
 20
140.0
 30
-27.0
 70
   192
  0
VERTEX
  5
862D
  8
0
 10
0.0
 20
0.0
 30
0.0
 70
   128
 71
     1
 72
     4
 73
    -3
  0
VERTEX
  5
862E
  8
0
 10
0.0
 20
0.0
 30
0.0
 70
   128
 71
    -1
 72
     3
 73
     2
  0
SEQEND
  5
895F
  8
0
  0
POLYLINE
  5
862F
  8
0
 66
     1
 10
0.0
 20
0.0
 30
0.0
 70
    64
 71
     8
 72
     6
  0
VERTEX
  5
8630
  8
0
 10
117.0000000000001
 20
140.0
 30
-30.0
 70
   192
  0
VERTEX
  5
8631
  8
0
 10
117.0000000000001
 20
120.0000000000001
 30
-30.0
 70
   192
  0
VERTEX
  5
8632
  8
0
 10
79.99999999999967
 20
120.0000000000001
 30
-30.0
 70
   192
  0
VERTEX
  5
8633
  8
0
 10
79.99999999999966
 20
145.0000000000001
 30
-30.0
 70
   192
  0
VERTEX
  5
8634
  8
0
 10
160.0000000000003
 20
145.0000000000001
 30
-30.0
 70
   192
  0
VERTEX
  5
8635
  8
0
 10
160.0000000000003
 20
120.0000000000001
 30
-30.0
 70
   192
  0
VERTEX
  5
8636
  8
0
 10
123.0000000000001
 20
120.0
 30
-30.0
 70
   192
  0
VERTEX
  5
8637
  8
0
 10
123.0000000000001
 20
140.0
 30
-30.0
 70
   192
  0
VERTEX
  5
8638
  8
0
 10
0.0
 20
0.0
 30
0.0
 70
   128
 71
     6
 72
     7
 73
    -8
  0
VERTEX
  5
8639
  8
0
 10
0.0
 20
0.0
 30
0.0
 70
   128
 71
     5
 72
    -6
 73
    -8
  0
VERTEX
  5
863A
  8
0
 10
0.0
 20
0.0
 30
0.0
 70
   128
 71
    -1
 72
     4
 73
    -5
  0
VERTEX
  5
863B
  8
0
 10
0.0
 20
0.0
 30
0.0
 70
   128
 71
     8
 72
    -1
 73
    -5
  0
VERTEX
  5
863C
  8
0
 10
0.0
 20
0.0
 30
0.0
 70
   128
 71
     2
 72
     3
 73
    -4
  0
VERTEX
  5
863D
  8
0
 10
0.0
 20
0.0
 30
0.0
 70
   128
 71
     1
 72
    -2
 73
    -4
  0
SEQEND
  5
8960
  8
0
  0
POLYLINE
  5
863E
  8
0
 66
     1
 10
0.0
 20
0.0
 30
0.0
 70
    64
 71
     4
 72
     2
  0
VERTEX
  5
863F
  8
0
 10
82.99999999999966
 20
120.0000000000001
 30
-20.0
 70
   192
  0
VERTEX
  5
8640
  8
0
 10
82.99999999999966
 20
142.0000000000001
 30
-20.0
 70
   192
  0
VERTEX
  5
8641
  8
0
 10
82.99999999999966
 20
142.0000000000001
 30
-27.0
 70
   192
  0
VERTEX
  5
8642
  8
0
 10
82.99999999999966
 20
120.0000000000001
 30
-27.0
 70
   192
  0
VERTEX
  5
8643
  8
0
 10
0.0
 20
0.0
 30
0.0
 70
   128
 71
     1
 72
     4
 73
    -3
  0
VERTEX
  5
8644
  8
0
 10
0.0
 20
0.0
 30
0.0
 70
   128
 71
    -1
 72
     3
 73
     2
  0
SEQEND
  5
8961
  8
0
  0
POLYLINE
  5
8645
  8
0
 66
     1
 10
0.0
 20
0.0
 30
0.0
 70
    64
 71
     4
 72
     2
  0
VERTEX
  5
8646
  8
0
 10
157.0000000000003
 20
142.0000000000001
 30
-20.0
 70
   192
  0
VERTEX
  5
8647
  8
0
 10
82.99999999999967
 20
142.0000000000001
 30
-20.0
 70
   192
  0
VERTEX
  5
8648
  8
0
 10
82.99999999999966
 20
142.0000000000001
 30
-27.0
 70
   192
  0
VERTEX
  5
8649
  8
0
 10
157.0000000000003
 20
142.0000000000001
 30
-27.0
 70
   192
  0
VERTEX
  5
864A
  8
0
 10
0.0
 20
0.0
 30
0.0
 70
   128
 71
     3
 72
     4
 73
    -1
  0
VERTEX
  5
864B
  8
0
 10
0.0
 20
0.0
 30
0.0
 70
   128
 71
     2
 72
    -3
 73
     1
  0
SEQEND
  5
8962
  8
0
  0
POLYLINE
  5
864C
  8
0
 66
     1
 10
0.0
 20
0.0
 30
0.0
 70
    64
 71
     4
 72
     2
  0
VERTEX
  5
864D
  8
0
 10
157.0000000000003
 20
120.0000000000001
 30
-20.0
 70
   192
  0
VERTEX
  5
864E
  8
0
 10
157.0000000000003
 20
142.0000000000001
 30
-20.0
 70
   192
  0
VERTEX
  5
864F
  8
0
 10
157.0000000000003
 20
142.0000000000001
 30
-27.0
 70
   192
  0
VERTEX
  5
8650
  8
0
 10
157.0000000000003
 20
120.0000000000001
 30
-27.0
 70
   192
  0
VERTEX
  5
8651
  8
0
 10
0.0
 20
0.0
 30
0.0
 70
   128
 71
     3
 72
     4
 73
    -1
  0
VERTEX
  5
8652
  8
0
 10
0.0
 20
0.0
 30
0.0
 70
   128
 71
     2
 72
    -3
 73
     1
  0
SEQEND
  5
8963
  8
0
  0
POLYLINE
  5
8653
  8
0
 66
     1
 10
0.0
 20
0.0
 30
0.0
 70
    64
 71
     8
 72
     6
  0
VERTEX
  5
8654
  8
0
 10
117.0000000000001
 20
120.0000000000001
 30
-27.0
 70
   192
  0
VERTEX
  5
8655
  8
0
 10
82.99999999999966
 20
120.0000000000001
 30
-27.0
 70
   192
  0
VERTEX
  5
8656
  8
0
 10
82.99999999999966
 20
142.0000000000001
 30
-27.0
 70
   192
  0
VERTEX
  5
8657
  8
0
 10
157.0000000000003
 20
142.0000000000001
 30
-27.0
 70
   192
  0
VERTEX
  5
8658
  8
0
 10
157.0000000000003
 20
120.0000000000001
 30
-27.0
 70
   192
  0
VERTEX
  5
8659
  8
0
 10
123.0000000000001
 20
120.0000000000001
 30
-27.0
 70
   192
  0
VERTEX
  5
865A
  8
0
 10
123.0000000000001
 20
140.0
 30
-27.0
 70
   192
  0
VERTEX
  5
865B
  8
0
 10
117.0000000000001
 20
140.0
 30
-27.0
 70
   192
  0
VERTEX
  5
865C
  8
0
 10
0.0
 20
0.0
 30
0.0
 70
   128
 71
     7
 72
     6
 73
    -5
  0
VERTEX
  5
865D
  8
0
 10
0.0
 20
0.0
 30
0.0
 70
   128
 71
    -7
 72
     5
 73
    -4
  0
VERTEX
  5
865E
  8
0
 10
0.0
 20
0.0
 30
0.0
 70
   128
 71
    -4
 72
     8
 73
    -7
  0
VERTEX
  5
865F
  8
0
 10
0.0
 20
0.0
 30
0.0
 70
   128
 71
     4
 72
    -3
 73
    -8
  0
VERTEX
  5
8660
  8
0
 10
0.0
 20
0.0
 30
0.0
 70
   128
 71
     3
 72
     2
 73
    -1
  0
VERTEX
  5
8661
  8
0
 10
0.0
 20
0.0
 30
0.0
 70
   128
 71
    -3
 72
     1
 73
    -8
  0
SEQEND
  5
8964
  8
0
  0
ENDBLK
  5
8954
  8
0
  0
BLOCK
  8
0
  2
*X3
 70
     1
 10
0.0
 20
0.0
 30
0.0
  3
*X3
  1

  0
POLYLINE
  5
8663
  8
0
 66
     1
 10
0.0
 20
0.0
 30
0.0
 70
    64
 71
    10
 72
     8
  0
VERTEX
  5
8664
  8
0
 10
90.00000000000006
 20
-165.0000000000001
 30
-18.50000000000001
 70
   192
  0
VERTEX
  5
8665
  8
0
 10
90.00000000000006
 20
-165.0000000000001
 30
-25.5
 70
   192
  0
VERTEX
  5
8666
  8
0
 10
90.00000000000006
 20
-160.0000000000001
 30
-25.5
 70
   192
  0
VERTEX
  5
8667
  8
0
 10
90.00000000000006
 20
-160.0000000000001
 30
-18.50000000000001
 70
   192
  0
VERTEX
  5
8668
  8
0
 10
93.50000000000006
 20
-160.0000000000001
 30
-22.0
 70
   192
  0
VERTEX
  5
8669
  8
0
 10
93.50000000000006
 20
-165.0000000000001
 30
-22.0
 70
   192
  0
VERTEX
  5
866A
  8
0
 10
92.47487373415296
 20
-160.0000000000001
 30
-19.52512626584709
 70
   192
  0
VERTEX
  5
866B
  8
0
 10
92.47487373415296
 20
-165.0000000000001
 30
-19.52512626584709
 70
   192
  0
VERTEX
  5
866C
  8
0
 10
92.47487373415296
 20
-160.0000000000001
 30
-24.47487373415292
 70
   192
  0
VERTEX
  5
866D
  8
0
 10
92.47487373415296
 20
-165.0000000000001
 30
-24.47487373415292
 70
   192
  0
VERTEX
  5
866E
  8
0
 10
0.0
 20
0.0
 30
0.0
 70
   128
 71
     7
 72
     4
 73
    -1
  0
VERTEX
  5
866F
  8
0
 10
0.0
 20
0.0
 30
0.0
 70
   128
 71
    -7
 72
     1
 73
     8
  0
VERTEX
  5
8670
  8
0
 10
0.0
 20
0.0
 30
0.0
 70
   128
 71
     6
 72
     5
 73
    -7
  0
VERTEX
  5
8671
  8
0
 10
0.0
 20
0.0
 30
0.0
 70
   128
 71
    -6
 72
     7
 73
     8
  0
VERTEX
  5
8672
  8
0
 10
0.0
 20
0.0
 30
0.0
 70
   128
 71
    10
 72
     9
 73
    -5
  0
VERTEX
  5
8673
  8
0
 10
0.0
 20
0.0
 30
0.0
 70
   128
 71
   -10
 72
     5
 73
     6
  0
VERTEX
  5
8674
  8
0
 10
0.0
 20
0.0
 30
0.0
 70
   128
 71
     2
 72
     3
 73
    -9
  0
VERTEX
  5
8675
  8
0
 10
0.0
 20
0.0
 30
0.0
 70
   128
 71
    -2
 72
     9
 73
    10
  0
SEQEND
  5
8967
  8
0
  0
POLYLINE
  5
8676
  8
0
 66
     1
 10
0.0
 20
0.0
 30
0.0
 70
    64
 71
     8
 72
     6
  0
VERTEX
  5
8677
  8
0
 10
135.0000000000001
 20
-158.6602540378445
 30
-17.0
 70
   192
  0
VERTEX
  5
8678
  8
0
 10
135.0000000000001
 20
-158.6602540378445
 30
-27.0
 70
   192
  0
VERTEX
  5
8679
  8
0
 10
138.6602540378445
 20
-155.0000000000001
 30
-27.0
 70
   192
  0
VERTEX
  5
867A
  8
0
 10
138.6602540378445
 20
-155.0000000000001
 30
-17.0
 70
   192
  0
VERTEX
  5
867B
  8
0
 10
130.0000000000001
 20
-160.0000000000001
 30
-17.0
 70
   192
  0
VERTEX
  5
867C
  8
0
 10
130.0000000000001
 20
-160.0000000000001
 30
-27.0
 70
   192
  0
VERTEX
  5
867D
  8
0
 10
140.0000000000001
 20
-150.0000000000001
 30
-27.0
 70
   192
  0
VERTEX
  5
867E
  8
0
 10
140.0000000000001
 20
-150.0000000000001
 30
-17.0
 70
   192
  0
VERTEX
  5
867F
  8
0
 10
0.0
 20
0.0
 30
0.0
 70
   128
 71
     1
 72
     2
 73
    -3
  0
VERTEX
  5
8680
  8
0
 10
0.0
 20
0.0
 30
0.0
 70
   128
 71
    -1
 72
     3
 73
     4
  0
VERTEX
  5
8681
  8
0
 10
0.0
 20
0.0
 30
0.0
 70
   128
 71
     5
 72
     6
 73
    -2
  0
VERTEX
  5
8682
  8
0
 10
0.0
 20
0.0
 30
0.0
 70
   128
 71
    -5
 72
     2
 73
     1
  0
VERTEX
  5
8683
  8
0
 10
0.0
 20
0.0
 30
0.0
 70
   128
 71
     4
 72
     3
 73
    -7
  0
VERTEX
  5
8684
  8
0
 10
0.0
 20
0.0
 30
0.0
 70
   128
 71
    -4
 72
     7
 73
     8
  0
SEQEND
  5
8968
  8
0
  0
POLYLINE
  5
8685
  8
0
 66
     1
 10
0.0
 20
0.0
 30
0.0
 70
    64
 71
    12
 72
    12
  0
VERTEX
  5
8686
  8
0
 10
130.0000000000001
 20
-160.0000000000001
 30
-17.0
 70
   192
  0
VERTEX
  5
8687
  8
0
 10
130.0000000000001
 20
-160.0000000000001
 30
-27.0
 70
   192
  0
VERTEX
  5
8688
  8
0
 10
-49.99999999999994
 20
-160.0000000000001
 30
-27.0
 70
   192
  0
VERTEX
  5
8689
  8
0
 10
-49.99999999999994
 20
-160.0000000000001
 30
-17.0
 70
   192
  0
VERTEX
  5
868A
  8
0
 10
90.00000000000006
 20
-160.0000000000001
 30
-25.5
 70
   192
  0
VERTEX
  5
868B
  8
0
 10
92.47487373415296
 20
-160.0000000000001
 30
-24.47487373415292
 70
   192
  0
VERTEX
  5
868C
  8
0
 10
93.50000000000006
 20
-160.0000000000001
 30
-22.0
 70
   192
  0
VERTEX
  5
868D
  8
0
 10
92.47487373415296
 20
-160.0000000000001
 30
-19.52512626584709
 70
   192
  0
VERTEX
  5
868E
  8
0
 10
90.00000000000006
 20
-160.0000000000001
 30
-18.50000000000001
 70
   192
  0
VERTEX
  5
868F
  8
0
 10
87.52512626584715
 20
-160.0000000000001
 30
-19.52512626584709
 70
   192
  0
VERTEX
  5
8690
  8
0
 10
86.50000000000006
 20
-160.0000000000001
 30
-22.0
 70
   192
  0
VERTEX
  5
8691
  8
0
 10
87.52512626584715
 20
-160.0000000000001
 30
-24.47487373415292
 70
   192
  0
VERTEX
  5
8692
  8
0
 10
0.0
 20
0.0
 30
0.0
 70
   128
 71
     6
 72
    -5
 73
    -2
  0
VERTEX
  5
8693
  8
0
 10
0.0
 20
0.0
 30
0.0
 70
   128
 71
     2
 72
    -1
 73
    -7
  0
VERTEX
  5
8694
  8
0
 10
0.0
 20
0.0
 30
0.0
 70
   128
 71
    -2
 72
     7
 73
    -6
  0
VERTEX
  5
8695
  8
0
 10
0.0
 20
0.0
 30
0.0
 70
   128
 71
    -1
 72
     8
 73
    -7
  0
VERTEX
  5
8696
  8
0
 10
0.0
 20
0.0
 30
0.0
 70
   128
 71
    -1
 72
     9
 73
    -8
  0
VERTEX
  5
8697
  8
0
 10
0.0
 20
0.0
 30
0.0
 70
   128
 71
    -9
 72
     1
 73
    -4
  0
VERTEX
  5
8698
  8
0
 10
0.0
 20
0.0
 30
0.0
 70
   128
 71
    -4
 72
    10
 73
    -9
  0
VERTEX
  5
8699
  8
0
 10
0.0
 20
0.0
 30
0.0
 70
   128
 71
     4
 72
    -3
 73
   -11
  0
VERTEX
  5
869A
  8
0
 10
0.0
 20
0.0
 30
0.0
 70
   128
 71
    -4
 72
    11
 73
   -10
  0
VERTEX
  5
869B
  8
0
 10
0.0
 20
0.0
 30
0.0
 70
   128
 71
    -3
 72
    12
 73
   -11
  0
VERTEX
  5
869C
  8
0
 10
0.0
 20
0.0
 30
0.0
 70
   128
 71
    -3
 72
     5
 73
   -12
  0
VERTEX
  5
869D
  8
0
 10
0.0
 20
0.0
 30
0.0
 70
   128
 71
     3
 72
    -2
 73
    -5
  0
SEQEND
  5
8969
  8
0
  0
POLYLINE
  5
869E
  8
0
 66
     1
 10
0.0
 20
0.0
 30
0.0
 70
    64
 71
     8
 72
     6
  0
VERTEX
  5
869F
  8
0
 10
-58.66025403784433
 20
-155.0000000000001
 30
-17.0
 70
   192
  0
VERTEX
  5
86A0
  8
0
 10
-58.66025403784433
 20
-155.0000000000001
 30
-27.0
 70
   192
  0
VERTEX
  5
86A1
  8
0
 10
-54.99999999999994
 20
-158.6602540378445
 30
-27.0
 70
   192
  0
VERTEX
  5
86A2
  8
0
 10
-54.99999999999994
 20
-158.6602540378445
 30
-17.0
 70
   192
  0
VERTEX
  5
86A3
  8
0
 10
-59.99999999999994
 20
-150.0000000000001
 30
-17.0
 70
   192
  0
VERTEX
  5
86A4
  8
0
 10
-59.99999999999993
 20
-150.0000000000001
 30
-27.0
 70
   192
  0
VERTEX
  5
86A5
  8
0
 10
-49.99999999999994
 20
-160.0000000000001
 30
-27.0
 70
   192
  0
VERTEX
  5
86A6
  8
0
 10
-49.99999999999994
 20
-160.0000000000001
 30
-17.0
 70
   192
  0
VERTEX
  5
86A7
  8
0
 10
0.0
 20
0.0
 30
0.0
 70
   128
 71
     1
 72
     2
 73
    -3
  0
VERTEX
  5
86A8
  8
0
 10
0.0
 20
0.0
 30
0.0
 70
   128
 71
    -1
 72
     3
 73
     4
  0
VERTEX
  5
86A9
  8
0
 10
0.0
 20
0.0
 30
0.0
 70
   128
 71
     5
 72
     6
 73
    -2
  0
VERTEX
  5
86AA
  8
0
 10
0.0
 20
0.0
 30
0.0
 70
   128
 71
    -5
 72
     2
 73
     1
  0
VERTEX
  5
86AB
  8
0
 10
0.0
 20
0.0
 30
0.0
 70
   128
 71
     4
 72
     3
 73
    -7
  0
VERTEX
  5
86AC
  8
0
 10
0.0
 20
0.0
 30
0.0
 70
   128
 71
    -4
 72
     7
 73
     8
  0
SEQEND
  5
896A
  8
0
  0
POLYLINE
  5
86AD
  8
0
 66
     1
 10
0.0
 20
0.0
 30
0.0
 70
    64
 71
     4
 72
     2
  0
VERTEX
  5
86AE
  8
0
 10
-59.99999999999993
 20
-150.0000000000001
 30
-17.0
 70
   192
  0
VERTEX
  5
86AF
  8
0
 10
-59.99999999999993
 20
-150.0000000000001
 30
-27.0
 70
   192
  0
VERTEX
  5
86B0
  8
0
 10
-59.99999999999991
 20
9.999999999999881
 30
-27.0
 70
   192
  0
VERTEX
  5
86B1
  8
0
 10
-59.99999999999991
 20
9.999999999999881
 30
-17.0
 70
   192
  0
VERTEX
  5
86B2
  8
0
 10
0.0
 20
0.0
 30
0.0
 70
   128
 71
     1
 72
     4
 73
    -3
  0
VERTEX
  5
86B3
  8
0
 10
0.0
 20
0.0
 30
0.0
 70
   128
 71
    -1
 72
     3
 73
     2
  0
SEQEND
  5
896B
  8
0
  0
POLYLINE
  5
86B4
  8
0
 66
     1
 10
0.0
 20
0.0
 30
0.0
 70
    64
 71
     8
 72
     6
  0
VERTEX
  5
86B5
  8
0
 10
-54.99999999999991
 20
18.66025403784427
 30
-17.0
 70
   192
  0
VERTEX
  5
86B6
  8
0
 10
-54.99999999999991
 20
18.66025403784427
 30
-27.0
 70
   192
  0
VERTEX
  5
86B7
  8
0
 10
-58.6602540378443
 20
14.99999999999988
 30
-27.0
 70
   192
  0
VERTEX
  5
86B8
  8
0
 10
-58.6602540378443
 20
14.99999999999988
 30
-17.0
 70
   192
  0
VERTEX
  5
86B9
  8
0
 10
-49.99999999999991
 20
19.99999999999989
 30
-17.0
 70
   192
  0
VERTEX
  5
86BA
  8
0
 10
-49.99999999999991
 20
19.99999999999988
 30
-27.0
 70
   192
  0
VERTEX
  5
86BB
  8
0
 10
-59.99999999999991
 20
9.999999999999877
 30
-27.0
 70
   192
  0
VERTEX
  5
86BC
  8
0
 10
-59.99999999999991
 20
9.999999999999881
 30
-17.0
 70
   192
  0
VERTEX
  5
86BD
  8
0
 10
0.0
 20
0.0
 30
0.0
 70
   128
 71
     1
 72
     2
 73
    -3
  0
VERTEX
  5
86BE
  8
0
 10
0.0
 20
0.0
 30
0.0
 70
   128
 71
    -1
 72
     3
 73
     4
  0
VERTEX
  5
86BF
  8
0
 10
0.0
 20
0.0
 30
0.0
 70
   128
 71
     5
 72
     6
 73
    -2
  0
VERTEX
  5
86C0
  8
0
 10
0.0
 20
0.0
 30
0.0
 70
   128
 71
    -5
 72
     2
 73
     1
  0
VERTEX
  5
86C1
  8
0
 10
0.0
 20
0.0
 30
0.0
 70
   128
 71
     4
 72
     3
 73
    -7
  0
VERTEX
  5
86C2
  8
0
 10
0.0
 20
0.0
 30
0.0
 70
   128
 71
    -4
 72
     7
 73
     8
  0
SEQEND
  5
896C
  8
0
  0
POLYLINE
  5
86C3
  8
0
 66
     1
 10
0.0
 20
0.0
 30
0.0
 70
    64
 71
     4
 72
     2
  0
VERTEX
  5
86C4
  8
0
 10
-49.99999999999991
 20
19.99999999999988
 30
-17.0
 70
   192
  0
VERTEX
  5
86C5
  8
0
 10
-49.99999999999991
 20
19.99999999999988
 30
-27.0
 70
   192
  0
VERTEX
  5
86C6
  8
0
 10
130.0000000000001
 20
19.99999999999987
 30
-27.0
 70
   192
  0
VERTEX
  5
86C7
  8
0
 10
130.0000000000001
 20
19.99999999999988
 30
-17.0
 70
   192
  0
VERTEX
  5
86C8
  8
0
 10
0.0
 20
0.0
 30
0.0
 70
   128
 71
     1
 72
     4
 73
    -3
  0
VERTEX
  5
86C9
  8
0
 10
0.0
 20
0.0
 30
0.0
 70
   128
 71
    -1
 72
     3
 73
     2
  0
SEQEND
  5
896D
  8
0
  0
POLYLINE
  5
86CA
  8
0
 66
     1
 10
0.0
 20
0.0
 30
0.0
 70
    64
 71
     8
 72
     6
  0
VERTEX
  5
86CB
  8
0
 10
138.6602540378445
 20
14.99999999999988
 30
-17.0
 70
   192
  0
VERTEX
  5
86CC
  8
0
 10
138.6602540378445
 20
14.99999999999988
 30
-27.0
 70
   192
  0
VERTEX
  5
86CD
  8
0
 10
135.0000000000001
 20
18.66025403784426
 30
-27.0
 70
   192
  0
VERTEX
  5
86CE
  8
0
 10
135.0000000000001
 20
18.66025403784426
 30
-17.0
 70
   192
  0
VERTEX
  5
86CF
  8
0
 10
140.0000000000001
 20
9.999999999999881
 30
-17.0
 70
   192
  0
VERTEX
  5
86D0
  8
0
 10
140.0000000000001
 20
9.999999999999877
 30
-27.0
 70
   192
  0
VERTEX
  5
86D1
  8
0
 10
130.0000000000001
 20
19.99999999999987
 30
-27.0
 70
   192
  0
VERTEX
  5
86D2
  8
0
 10
130.0000000000001
 20
19.99999999999987
 30
-17.0
 70
   192
  0
VERTEX
  5
86D3
  8
0
 10
0.0
 20
0.0
 30
0.0
 70
   128
 71
     1
 72
     2
 73
    -3
  0
VERTEX
  5
86D4
  8
0
 10
0.0
 20
0.0
 30
0.0
 70
   128
 71
    -1
 72
     3
 73
     4
  0
VERTEX
  5
86D5
  8
0
 10
0.0
 20
0.0
 30
0.0
 70
   128
 71
     5
 72
     6
 73
    -2
  0
VERTEX
  5
86D6
  8
0
 10
0.0
 20
0.0
 30
0.0
 70
   128
 71
    -5
 72
     2
 73
     1
  0
VERTEX
  5
86D7
  8
0
 10
0.0
 20
0.0
 30
0.0
 70
   128
 71
     4
 72
     3
 73
    -7
  0
VERTEX
  5
86D8
  8
0
 10
0.0
 20
0.0
 30
0.0
 70
   128
 71
    -4
 72
     7
 73
     8
  0
SEQEND
  5
896E
  8
0
  0
POLYLINE
  5
86D9
  8
0
 66
     1
 10
0.0
 20
0.0
 30
0.0
 70
    64
 71
     4
 72
     2
  0
VERTEX
  5
86DA
  8
0
 10
140.0000000000001
 20
9.999999999999877
 30
-17.0
 70
   192
  0
VERTEX
  5
86DB
  8
0
 10
140.0000000000001
 20
9.999999999999877
 30
-27.0
 70
   192
  0
VERTEX
  5
86DC
  8
0
 10
140.0000000000001
 20
-150.0000000000001
 30
-27.0
 70
   192
  0
VERTEX
  5
86DD
  8
0
 10
140.0000000000001
 20
-150.0000000000001
 30
-17.0
 70
   192
  0
VERTEX
  5
86DE
  8
0
 10
0.0
 20
0.0
 30
0.0
 70
   128
 71
     1
 72
     4
 73
    -3
  0
VERTEX
  5
86DF
  8
0
 10
0.0
 20
0.0
 30
0.0
 70
   128
 71
    -1
 72
     3
 73
     2
  0
SEQEND
  5
896F
  8
0
  0
POLYLINE
  5
86E0
  8
0
 66
     1
 10
0.0
 20
0.0
 30
0.0
 70
    64
 71
    16
 72
    14
  0
VERTEX
  5
86E1
  8
0
 10
140.0000000000001
 20
-150.0000000000001
 30
-27.0
 70
   192
  0
VERTEX
  5
86E2
  8
0
 10
138.6602540378445
 20
-155.0000000000001
 30
-27.0
 70
   192
  0
VERTEX
  5
86E3
  8
0
 10
135.0000000000001
 20
-158.6602540378445
 30
-27.0
 70
   192
  0
VERTEX
  5
86E4
  8
0
 10
130.0000000000001
 20
-160.0000000000001
 30
-27.0
 70
   192
  0
VERTEX
  5
86E5
  8
0
 10
-49.99999999999994
 20
-160.0000000000001
 30
-27.0
 70
   192
  0
VERTEX
  5
86E6
  8
0
 10
-54.99999999999994
 20
-158.6602540378445
 30
-27.0
 70
   192
  0
VERTEX
  5
86E7
  8
0
 10
-58.66025403784433
 20
-155.0000000000001
 30
-27.0
 70
   192
  0
VERTEX
  5
86E8
  8
0
 10
-59.99999999999994
 20
-150.0000000000001
 30
-27.0
 70
   192
  0
VERTEX
  5
86E9
  8
0
 10
-59.99999999999991
 20
9.999999999999881
 30
-27.0
 70
   192
  0
VERTEX
  5
86EA
  8
0
 10
-58.6602540378443
 20
14.99999999999988
 30
-27.0
 70
   192
  0
VERTEX
  5
86EB
  8
0
 10
-54.99999999999991
 20
18.66025403784427
 30
-27.0
 70
   192
  0
VERTEX
  5
86EC
  8
0
 10
-49.99999999999991
 20
19.99999999999989
 30
-27.0
 70
   192
  0
VERTEX
  5
86ED
  8
0
 10
130.0000000000001
 20
19.99999999999988
 30
-27.0
 70
   192
  0
VERTEX
  5
86EE
  8
0
 10
135.0000000000001
 20
18.66025403784426
 30
-27.0
 70
   192
  0
VERTEX
  5
86EF
  8
0
 10
138.6602540378445
 20
14.99999999999988
 30
-27.0
 70
   192
  0
VERTEX
  5
86F0
  8
0
 10
140.0000000000001
 20
9.999999999999881
 30
-27.0
 70
   192
  0
VERTEX
  5
86F1
  8
0
 10
0.0
 20
0.0
 30
0.0
 70
   128
 71
    15
 72
    16
 73
    -1
  0
VERTEX
  5
86F2
  8
0
 10
0.0
 20
0.0
 30
0.0
 70
   128
 71
    14
 72
   -15
 73
    -1
  0
VERTEX
  5
86F3
  8
0
 10
0.0
 20
0.0
 30
0.0
 70
   128
 71
    13
 72
   -14
 73
    -1
  0
VERTEX
  5
86F4
  8
0
 10
0.0
 20
0.0
 30
0.0
 70
   128
 71
    12
 72
   -13
 73
    -1
  0
VERTEX
  5
86F5
  8
0
 10
0.0
 20
0.0
 30
0.0
 70
   128
 71
    11
 72
   -12
 73
    -1
  0
VERTEX
  5
86F6
  8
0
 10
0.0
 20
0.0
 30
0.0
 70
   128
 71
    10
 72
   -11
 73
    -1
  0
VERTEX
  5
86F7
  8
0
 10
0.0
 20
0.0
 30
0.0
 70
   128
 71
     9
 72
   -10
 73
    -1
  0
VERTEX
  5
86F8
  8
0
 10
0.0
 20
0.0
 30
0.0
 70
   128
 71
     8
 72
    -9
 73
    -1
  0
VERTEX
  5
86F9
  8
0
 10
0.0
 20
0.0
 30
0.0
 70
   128
 71
     7
 72
    -8
 73
    -1
  0
VERTEX
  5
86FA
  8
0
 10
0.0
 20
0.0
 30
0.0
 70
   128
 71
     6
 72
    -7
 73
    -1
  0
VERTEX
  5
86FB
  8
0
 10
0.0
 20
0.0
 30
0.0
 70
   128
 71
     5
 72
    -6
 73
    -1
  0
VERTEX
  5
86FC
  8
0
 10
0.0
 20
0.0
 30
0.0
 70
   128
 71
     4
 72
    -5
 73
    -1
  0
VERTEX
  5
86FD
  8
0
 10
0.0
 20
0.0
 30
0.0
 70
   128
 71
     3
 72
    -4
 73
    -1
  0
VERTEX
  5
86FE
  8
0
 10
0.0
 20
0.0
 30
0.0
 70
   128
 71
     2
 72
    -3
 73
     1
  0
SEQEND
  5
8970
  8
0
  0
POLYLINE
  5
86FF
  8
0
 66
     1
 10
0.0
 20
0.0
 30
0.0
 70
    64
 71
    16
 72
    14
  0
VERTEX
  5
8700
  8
0
 10
130.0000000000001
 20
-160.0000000000001
 30
-17.0
 70
   192
  0
VERTEX
  5
8701
  8
0
 10
-49.99999999999994
 20
-160.0000000000001
 30
-17.0
 70
   192
  0
VERTEX
  5
8702
  8
0
 10
-54.99999999999994
 20
-158.6602540378445
 30
-17.0
 70
   192
  0
VERTEX
  5
8703
  8
0
 10
-58.66025403784433
 20
-155.0000000000001
 30
-17.0
 70
   192
  0
VERTEX
  5
8704
  8
0
 10
-59.99999999999993
 20
-150.0000000000001
 30
-17.0
 70
   192
  0
VERTEX
  5
8705
  8
0
 10
-59.99999999999991
 20
9.999999999999877
 30
-17.0
 70
   192
  0
VERTEX
  5
8706
  8
0
 10
-58.6602540378443
 20
14.99999999999988
 30
-17.0
 70
   192
  0
VERTEX
  5
8707
  8
0
 10
-54.99999999999991
 20
18.66025403784427
 30
-17.0
 70
   192
  0
VERTEX
  5
8708
  8
0
 10
-49.99999999999991
 20
19.99999999999988
 30
-17.0
 70
   192
  0
VERTEX
  5
8709
  8
0
 10
130.0000000000001
 20
19.99999999999987
 30
-17.0
 70
   192
  0
VERTEX
  5
870A
  8
0
 10
135.0000000000001
 20
18.66025403784426
 30
-17.0
 70
   192
  0
VERTEX
  5
870B
  8
0
 10
138.6602540378445
 20
14.99999999999988
 30
-17.0
 70
   192
  0
VERTEX
  5
870C
  8
0
 10
140.0000000000001
 20
9.999999999999877
 30
-17.0
 70
   192
  0
VERTEX
  5
870D
  8
0
 10
140.0000000000001
 20
-150.0000000000001
 30
-17.0
 70
   192
  0
VERTEX
  5
870E
  8
0
 10
138.6602540378445
 20
-155.0000000000001
 30
-17.0
 70
   192
  0
VERTEX
  5
870F
  8
0
 10
135.0000000000001
 20
-158.6602540378445
 30
-17.0
 70
   192
  0
VERTEX
  5
8710
  8
0
 10
0.0
 20
0.0
 30
0.0
 70
   128
 71
     1
 72
    16
 73
   -15
  0
VERTEX
  5
8711
  8
0
 10
0.0
 20
0.0
 30
0.0
 70
   128
 71
    -1
 72
    15
 73
   -14
  0
VERTEX
  5
8712
  8
0
 10
0.0
 20
0.0
 30
0.0
 70
   128
 71
    -1
 72
    14
 73
   -13
  0
VERTEX
  5
8713
  8
0
 10
0.0
 20
0.0
 30
0.0
 70
   128
 71
    -1
 72
    13
 73
   -12
  0
VERTEX
  5
8714
  8
0
 10
0.0
 20
0.0
 30
0.0
 70
   128
 71
    -1
 72
    12
 73
   -11
  0
VERTEX
  5
8715
  8
0
 10
0.0
 20
0.0
 30
0.0
 70
   128
 71
    -1
 72
    11
 73
   -10
  0
VERTEX
  5
8716
  8
0
 10
0.0
 20
0.0
 30
0.0
 70
   128
 71
    -1
 72
    10
 73
    -9
  0
VERTEX
  5
8717
  8
0
 10
0.0
 20
0.0
 30
0.0
 70
   128
 71
    -1
 72
     9
 73
    -8
  0
VERTEX
  5
8718
  8
0
 10
0.0
 20
0.0
 30
0.0
 70
   128
 71
    -1
 72
     8
 73
    -7
  0
VERTEX
  5
8719
  8
0
 10
0.0
 20
0.0
 30
0.0
 70
   128
 71
    -1
 72
     7
 73
    -6
  0
VERTEX
  5
871A
  8
0
 10
0.0
 20
0.0
 30
0.0
 70
   128
 71
    -1
 72
     6
 73
    -5
  0
VERTEX
  5
871B
  8
0
 10
0.0
 20
0.0
 30
0.0
 70
   128
 71
    -1
 72
     5
 73
    -4
  0
VERTEX
  5
871C
  8
0
 10
0.0
 20
0.0
 30
0.0
 70
   128
 71
    -1
 72
     4
 73
    -3
  0
VERTEX
  5
871D
  8
0
 10
0.0
 20
0.0
 30
0.0
 70
   128
 71
    -1
 72
     3
 73
     2
  0
SEQEND
  5
8971
  8
0
  0
POLYLINE
  5
871E
  8
0
 66
     1
 10
0.0
 20
0.0
 30
0.0
 70
    64
 71
    10
 72
     8
  0
VERTEX
  5
871F
  8
0
 10
90.00000000000006
 20
-165.0000000000001
 30
-25.5
 70
   192
  0
VERTEX
  5
8720
  8
0
 10
90.00000000000006
 20
-165.0000000000001
 30
-18.50000000000001
 70
   192
  0
VERTEX
  5
8721
  8
0
 10
90.00000000000006
 20
-160.0000000000001
 30
-18.50000000000001
 70
   192
  0
VERTEX
  5
8722
  8
0
 10
90.00000000000006
 20
-160.0000000000001
 30
-25.5
 70
   192
  0
VERTEX
  5
8723
  8
0
 10
86.50000000000006
 20
-160.0000000000001
 30
-22.0
 70
   192
  0
VERTEX
  5
8724
  8
0
 10
86.50000000000006
 20
-165.0000000000001
 30
-22.0
 70
   192
  0
VERTEX
  5
8725
  8
0
 10
87.52512626584715
 20
-160.0000000000001
 30
-24.47487373415292
 70
   192
  0
VERTEX
  5
8726
  8
0
 10
87.52512626584715
 20
-165.0000000000001
 30
-24.47487373415292
 70
   192
  0
VERTEX
  5
8727
  8
0
 10
87.52512626584715
 20
-160.0000000000001
 30
-19.52512626584709
 70
   192
  0
VERTEX
  5
8728
  8
0
 10
87.52512626584715
 20
-165.0000000000001
 30
-19.52512626584709
 70
   192
  0
VERTEX
  5
8729
  8
0
 10
0.0
 20
0.0
 30
0.0
 70
   128
 71
     8
 72
     7
 73
    -4
  0
VERTEX
  5
872A
  8
0
 10
0.0
 20
0.0
 30
0.0
 70
   128
 71
    -8
 72
     4
 73
     1
  0
VERTEX
  5
872B
  8
0
 10
0.0
 20
0.0
 30
0.0
 70
   128
 71
     6
 72
     5
 73
    -7
  0
VERTEX
  5
872C
  8
0
 10
0.0
 20
0.0
 30
0.0
 70
   128
 71
    -6
 72
     7
 73
     8
  0
VERTEX
  5
872D
  8
0
 10
0.0
 20
0.0
 30
0.0
 70
   128
 71
    10
 72
     9
 73
    -5
  0
VERTEX
  5
872E
  8
0
 10
0.0
 20
0.0
 30
0.0
 70
   128
 71
   -10
 72
     5
 73
     6
  0
VERTEX
  5
872F
  8
0
 10
0.0
 20
0.0
 30
0.0
 70
   128
 71
     2
 72
     3
 73
    -9
  0
VERTEX
  5
8730
  8
0
 10
0.0
 20
0.0
 30
0.0
 70
   128
 71
    -2
 72
     9
 73
    10
  0
SEQEND
  5
8972
  8
0
  0
POLYLINE
  5
8731
  8
0
 66
     1
 10
0.0
 20
0.0
 30
0.0
 70
    64
 71
     8
 72
     6
  0
VERTEX
  5
8732
  8
0
 10
90.00000000000006
 20
-165.0000000000001
 30
-18.50000000000001
 70
   192
  0
VERTEX
  5
8733
  8
0
 10
87.52512626584715
 20
-165.0000000000001
 30
-19.52512626584709
 70
   192
  0
VERTEX
  5
8734
  8
0
 10
86.50000000000006
 20
-165.0000000000001
 30
-22.0
 70
   192
  0
VERTEX
  5
8735
  8
0
 10
87.52512626584715
 20
-165.0000000000001
 30
-24.47487373415292
 70
   192
  0
VERTEX
  5
8736
  8
0
 10
90.00000000000006
 20
-165.0000000000001
 30
-25.5
 70
   192
  0
VERTEX
  5
8737
  8
0
 10
92.47487373415296
 20
-165.0000000000001
 30
-24.47487373415292
 70
   192
  0
VERTEX
  5
8738
  8
0
 10
93.50000000000006
 20
-165.0000000000001
 30
-22.0
 70
   192
  0
VERTEX
  5
8739
  8
0
 10
92.47487373415296
 20
-165.0000000000001
 30
-19.52512626584709
 70
   192
  0
VERTEX
  5
873A
  8
0
 10
0.0
 20
0.0
 30
0.0
 70
   128
 71
     7
 72
     8
 73
    -1
  0
VERTEX
  5
873B
  8
0
 10
0.0
 20
0.0
 30
0.0
 70
   128
 71
     6
 72
    -7
 73
    -1
  0
VERTEX
  5
873C
  8
0
 10
0.0
 20
0.0
 30
0.0
 70
   128
 71
     5
 72
    -6
 73
    -1
  0
VERTEX
  5
873D
  8
0
 10
0.0
 20
0.0
 30
0.0
 70
   128
 71
     4
 72
    -5
 73
    -1
  0
VERTEX
  5
873E
  8
0
 10
0.0
 20
0.0
 30
0.0
 70
   128
 71
     3
 72
    -4
 73
    -1
  0
VERTEX
  5
873F
  8
0
 10
0.0
 20
0.0
 30
0.0
 70
   128
 71
     2
 72
    -3
 73
     1
  0
SEQEND
  5
8973
  8
0
  0
ENDBLK
  5
8966
  8
0
  0
BLOCK
  8
0
  2
*X4
 70
     1
 10
0.0
 20
0.0
 30
0.0
  3
*X4
  1

  0
POLYLINE
  5
8741
  8
0
 66
     1
 10
0.0
 20
0.0
 30
0.0
 70
    64
 71
    14
 72
    12
  0
VERTEX
  5
8742
  8
0
 10
-238.0000000000001
 20
-0.0000000000001718
 30
-22.0
 70
   192
  0
VERTEX
  5
8743
  8
0
 10
-238.0000000000001
 20
0.0000000000000291
 30
-17.0
 70
   192
  0
VERTEX
  5
8744
  8
0
 10
-206.1140461006965
 20
-119.0
 30
-17.0
 70
   192
  0
VERTEX
  5
8745
  8
0
 10
-206.1140461006964
 20
-119.0000000000002
 30
-22.0
 70
   192
  0
VERTEX
  5
8746
  8
0
 10
-0.0000000000000925
 20
-238.0000000000001
 30
-17.0
 70
   192
  0
VERTEX
  5
8747
  8
0
 10
0.0000000000000925
 20
-238.0000000000001
 30
-22.0
 70
   192
  0
VERTEX
  5
8748
  8
0
 10
-119.0
 20
-206.1140461006966
 30
-22.0
 70
   192
  0
VERTEX
  5
8749
  8
0
 10
-119.0000000000001
 20
-206.1140461006965
 30
-17.0
 70
   192
  0
VERTEX
  5
874A
  8
0
 10
119.0
 20
-206.1140461006966
 30
-17.0
 70
   192
  0
VERTEX
  5
874B
  8
0
 10
119.0000000000001
 20
-206.1140461006965
 30
-22.0
 70
   192
  0
VERTEX
  5
874C
  8
0
 10
238.0000000000001
 20
-0.0000000000001718
 30
-17.0
 70
   192
  0
VERTEX
  5
874D
  8
0
 10
238.0000000000001
 20
0.0000000000000291
 30
-22.0
 70
   192
  0
VERTEX
  5
874E
  8
0
 10
206.1140461006965
 20
-119.0
 30
-22.0
 70
   192
  0
VERTEX
  5
874F
  8
0
 10
206.1140461006964
 20
-119.0000000000002
 30
-17.0
 70
   192
  0
VERTEX
  5
8750
  8
0
 10
0.0
 20
0.0
 30
0.0
 70
   128
 71
     1
 72
     2
 73
    -3
  0
VERTEX
  5
8751
  8
0
 10
0.0
 20
0.0
 30
0.0
 70
   128
 71
     4
 72
    -1
 73
     3
  0
VERTEX
  5
8752
  8
0
 10
0.0
 20
0.0
 30
0.0
 70
   128
 71
     5
 72
     6
 73
    -7
  0
VERTEX
  5
8753
  8
0
 10
0.0
 20
0.0
 30
0.0
 70
   128
 71
     8
 72
    -5
 73
     7
  0
VERTEX
  5
8754
  8
0
 10
0.0
 20
0.0
 30
0.0
 70
   128
 71
     6
 72
     5
 73
    -9
  0
VERTEX
  5
8755
  8
0
 10
0.0
 20
0.0
 30
0.0
 70
   128
 71
    10
 72
    -6
 73
     9
  0
VERTEX
  5
8756
  8
0
 10
0.0
 20
0.0
 30
0.0
 70
   128
 71
    11
 72
    12
 73
   -13
  0
VERTEX
  5
8757
  8
0
 10
0.0
 20
0.0
 30
0.0
 70
   128
 71
    14
 72
   -11
 73
    13
  0
VERTEX
  5
8758
  8
0
 10
0.0
 20
0.0
 30
0.0
 70
   128
 71
     7
 72
     4
 73
    -3
  0
VERTEX
  5
8759
  8
0
 10
0.0
 20
0.0
 30
0.0
 70
   128
 71
     8
 72
    -7
 73
     3
  0
VERTEX
  5
875A
  8
0
 10
0.0
 20
0.0
 30
0.0
 70
   128
 71
    13
 72
    10
 73
    -9
  0
VERTEX
  5
875B
  8
0
 10
0.0
 20
0.0
 30
0.0
 70
   128
 71
    14
 72
   -13
 73
     9
  0
SEQEND
  5
8976
  8
0
  0
POLYLINE
  5
875C
  8
0
 66
     1
 10
0.0
 20
0.0
 30
0.0
 70
    64
 71
    14
 72
    12
  0
VERTEX
  5
875D
  8
0
 10
220.8364779650319
 20
127.5000000000001
 30
-2.0
 70
   192
  0
VERTEX
  5
875E
  8
0
 10
255.0000000000001
 20
0.0000000000000849
 30
-2.0
 70
   192
  0
VERTEX
  5
875F
  8
0
 10
255.0000000000001
 20
0.0
 30
-22.0
 70
   192
  0
VERTEX
  5
8760
  8
0
 10
220.8364779650319
 20
127.5000000000001
 30
-22.0
 70
   192
  0
VERTEX
  5
8761
  8
0
 10
127.5
 20
220.836477965032
 30
-22.0
 70
   192
  0
VERTEX
  5
8762
  8
0
 10
-0.0000000000000283
 20
255.0000000000001
 30
-22.0
 70
   192
  0
VERTEX
  5
8763
  8
0
 10
-0.0000000000000283
 20
255.0000000000001
 30
-2.0
 70
   192
  0
VERTEX
  5
8764
  8
0
 10
127.5
 20
220.836477965032
 30
-2.0
 70
   192
  0
VERTEX
  5
8765
  8
0
 10
-127.5000000000001
 20
220.8364779650319
 30
-2.0
 70
   192
  0
VERTEX
  5
8766
  8
0
 10
-127.5000000000001
 20
220.8364779650319
 30
-22.0
 70
   192
  0
VERTEX
  5
8767
  8
0
 10
-220.8364779650319
 20
127.5000000000001
 30
-22.0
 70
   192
  0
VERTEX
  5
8768
  8
0
 10
-255.0000000000001
 20
0.0000000000000312
 30
-22.0
 70
   192
  0
VERTEX
  5
8769
  8
0
 10
-255.0000000000001
 20
0.0000000000000312
 30
-2.0
 70
   192
  0
VERTEX
  5
876A
  8
0
 10
-220.8364779650319
 20
127.5000000000001
 30
-2.0
 70
   192
  0
VERTEX
  5
876B
  8
0
 10
0.0
 20
0.0
 30
0.0
 70
   128
 71
     1
 72
     2
 73
    -3
  0
VERTEX
  5
876C
  8
0
 10
0.0
 20
0.0
 30
0.0
 70
   128
 71
    -1
 72
     3
 73
     4
  0
VERTEX
  5
876D
  8
0
 10
0.0
 20
0.0
 30
0.0
 70
   128
 71
     5
 72
     6
 73
    -7
  0
VERTEX
  5
876E
  8
0
 10
0.0
 20
0.0
 30
0.0
 70
   128
 71
    -5
 72
     7
 73
     8
  0
VERTEX
  5
876F
  8
0
 10
0.0
 20
0.0
 30
0.0
 70
   128
 71
     9
 72
     7
 73
    -6
  0
VERTEX
  5
8770
  8
0
 10
0.0
 20
0.0
 30
0.0
 70
   128
 71
    -9
 72
     6
 73
    10
  0
VERTEX
  5
8771
  8
0
 10
0.0
 20
0.0
 30
0.0
 70
   128
 71
    11
 72
    12
 73
   -13
  0
VERTEX
  5
8772
  8
0
 10
0.0
 20
0.0
 30
0.0
 70
   128
 71
   -11
 72
    13
 73
    14
  0
VERTEX
  5
8773
  8
0
 10
0.0
 20
0.0
 30
0.0
 70
   128
 71
     1
 72
     4
 73
    -5
  0
VERTEX
  5
8774
  8
0
 10
0.0
 20
0.0
 30
0.0
 70
   128
 71
    -1
 72
     5
 73
     8
  0
VERTEX
  5
8775
  8
0
 10
0.0
 20
0.0
 30
0.0
 70
   128
 71
     9
 72
    10
 73
   -11
  0
VERTEX
  5
8776
  8
0
 10
0.0
 20
0.0
 30
0.0
 70
   128
 71
    -9
 72
    11
 73
    14
  0
SEQEND
  5
8977
  8
0
  0
POLYLINE
  5
8777
  8
0
 66
     1
 10
0.0
 20
0.0
 30
0.0
 70
    64
 71
    14
 72
    12
  0
VERTEX
  5
8778
  8
0
 10
-140.0000000000001
 20
-242.4871130596428
 30
-0.5
 70
   192
  0
VERTEX
  5
8779
  8
0
 10
-242.4871130596428
 20
-139.9999999999999
 30
-0.5
 70
   192
  0
VERTEX
  5
877A
  8
0
 10
-242.4871130596428
 20
-139.9999999999999
 30
0.0
 70
   192
  0
VERTEX
  5
877B
  8
0
 10
-140.0000000000001
 20
-242.4871130596428
 30
0.0
 70
   192
  0
VERTEX
  5
877C
  8
0
 10
242.4871130596427
 20
-140.0000000000001
 30
-0.5
 70
   192
  0
VERTEX
  5
877D
  8
0
 10
139.9999999999999
 20
-242.4871130596428
 30
-0.5
 70
   192
  0
VERTEX
  5
877E
  8
0
 10
139.9999999999999
 20
-242.4871130596428
 30
0.0
 70
   192
  0
VERTEX
  5
877F
  8
0
 10
242.4871130596427
 20
-140.0000000000001
 30
0.0
 70
   192
  0
VERTEX
  5
8780
  8
0
 10
279.9999999999999
 20
-0.0000000000002021
 30
-0.5
 70
   192
  0
VERTEX
  5
8781
  8
0
 10
279.9999999999999
 20
-0.0000000000002021
 30
0.0
 70
   192
  0
VERTEX
  5
8782
  8
0
 10
-0.0000000000001088
 20
-279.9999999999999
 30
-0.5
 70
   192
  0
VERTEX
  5
8783
  8
0
 10
-0.0000000000001088
 20
-279.9999999999999
 30
0.0
 70
   192
  0
VERTEX
  5
8784
  8
0
 10
-279.9999999999999
 20
0.0000000000000343
 30
-0.5
 70
   192
  0
VERTEX
  5
8785
  8
0
 10
-279.9999999999999
 20
0.0000000000000343
 30
0.0
 70
   192
  0
VERTEX
  5
8786
  8
0
 10
0.0
 20
0.0
 30
0.0
 70
   128
 71
     1
 72
     2
 73
    -3
  0
VERTEX
  5
8787
  8
0
 10
0.0
 20
0.0
 30
0.0
 70
   128
 71
     4
 72
    -1
 73
     3
  0
VERTEX
  5
8788
  8
0
 10
0.0
 20
0.0
 30
0.0
 70
   128
 71
     5
 72
     6
 73
    -7
  0
VERTEX
  5
8789
  8
0
 10
0.0
 20
0.0
 30
0.0
 70
   128
 71
     8
 72
    -5
 73
     7
  0
VERTEX
  5
878A
  8
0
 10
0.0
 20
0.0
 30
0.0
 70
   128
 71
     9
 72
     5
 73
    -8
  0
VERTEX
  5
878B
  8
0
 10
0.0
 20
0.0
 30
0.0
 70
   128
 71
    10
 72
    -9
 73
     8
  0
VERTEX
  5
878C
  8
0
 10
0.0
 20
0.0
 30
0.0
 70
   128
 71
     6
 72
    11
 73
   -12
  0
VERTEX
  5
878D
  8
0
 10
0.0
 20
0.0
 30
0.0
 70
   128
 71
     7
 72
    -6
 73
    12
  0
VERTEX
  5
878E
  8
0
 10
0.0
 20
0.0
 30
0.0
 70
   128
 71
    11
 72
     1
 73
    -4
  0
VERTEX
  5
878F
  8
0
 10
0.0
 20
0.0
 30
0.0
 70
   128
 71
    12
 72
   -11
 73
     4
  0
VERTEX
  5
8790
  8
0
 10
0.0
 20
0.0
 30
0.0
 70
   128
 71
     2
 72
    13
 73
   -14
  0
VERTEX
  5
8791
  8
0
 10
0.0
 20
0.0
 30
0.0
 70
   128
 71
     3
 72
    -2
 73
    14
  0
SEQEND
  5
8978
  8
0
  0
POLYLINE
  5
8792
  8
0
 66
     1
 10
0.0
 20
0.0
 30
0.0
 70
    64
 71
    14
 72
    12
  0
VERTEX
  5
8793
  8
0
 10
225.166604983954
 20
129.9999999999999
 30
0.0
 70
   192
  0
VERTEX
  5
8794
  8
0
 10
259.9999999999999
 20
0.0
 30
0.0
 70
   192
  0
VERTEX
  5
8795
  8
0
 10
259.9999999999999
 20
0.0
 30
-0.5
 70
   192
  0
VERTEX
  5
8796
  8
0
 10
225.166604983954
 20
129.9999999999999
 30
-0.5
 70
   192
  0
VERTEX
  5
8797
  8
0
 10
130.0
 20
225.166604983954
 30
-0.5
 70
   192
  0
VERTEX
  5
8798
  8
0
 10
0.0000000000000722
 20
259.9999999999999
 30
-0.5
 70
   192
  0
VERTEX
  5
8799
  8
0
 10
0.0000000000000722
 20
259.9999999999999
 30
0.0
 70
   192
  0
VERTEX
  5
879A
  8
0
 10
130.0
 20
225.166604983954
 30
0.0
 70
   192
  0
VERTEX
  5
879B
  8
0
 10
-129.9999999999999
 20
225.166604983954
 30
0.0
 70
   192
  0
VERTEX
  5
879C
  8
0
 10
-129.9999999999999
 20
225.166604983954
 30
-0.5
 70
   192
  0
VERTEX
  5
879D
  8
0
 10
-225.166604983954
 20
130.0000000000001
 30
-0.5
 70
   192
  0
VERTEX
  5
879E
  8
0
 10
-259.9999999999999
 20
0.0000000000001443
 30
-0.5
 70
   192
  0
VERTEX
  5
879F
  8
0
 10
-259.9999999999999
 20
0.0000000000000318
 30
0.0
 70
   192
  0
VERTEX
  5
87A0
  8
0
 10
-225.166604983954
 20
130.0000000000001
 30
0.0
 70
   192
  0
VERTEX
  5
87A1
  8
0
 10
0.0
 20
0.0
 30
0.0
 70
   128
 71
     1
 72
     2
 73
    -3
  0
VERTEX
  5
87A2
  8
0
 10
0.0
 20
0.0
 30
0.0
 70
   128
 71
    -1
 72
     3
 73
     4
  0
VERTEX
  5
87A3
  8
0
 10
0.0
 20
0.0
 30
0.0
 70
   128
 71
     5
 72
     6
 73
    -7
  0
VERTEX
  5
87A4
  8
0
 10
0.0
 20
0.0
 30
0.0
 70
   128
 71
    -5
 72
     7
 73
     8
  0
VERTEX
  5
87A5
  8
0
 10
0.0
 20
0.0
 30
0.0
 70
   128
 71
     9
 72
     7
 73
    -6
  0
VERTEX
  5
87A6
  8
0
 10
0.0
 20
0.0
 30
0.0
 70
   128
 71
    -9
 72
     6
 73
    10
  0
VERTEX
  5
87A7
  8
0
 10
0.0
 20
0.0
 30
0.0
 70
   128
 71
    11
 72
    12
 73
   -13
  0
VERTEX
  5
87A8
  8
0
 10
0.0
 20
0.0
 30
0.0
 70
   128
 71
   -11
 72
    13
 73
    14
  0
VERTEX
  5
87A9
  8
0
 10
0.0
 20
0.0
 30
0.0
 70
   128
 71
     1
 72
     4
 73
    -5
  0
VERTEX
  5
87AA
  8
0
 10
0.0
 20
0.0
 30
0.0
 70
   128
 71
    -1
 72
     5
 73
     8
  0
VERTEX
  5
87AB
  8
0
 10
0.0
 20
0.0
 30
0.0
 70
   128
 71
     9
 72
    10
 73
   -11
  0
VERTEX
  5
87AC
  8
0
 10
0.0
 20
0.0
 30
0.0
 70
   128
 71
    -9
 72
    11
 73
    14
  0
SEQEND
  5
8979
  8
0
  0
POLYLINE
  5
87AD
  8
0
 66
     1
 10
0.0
 20
0.0
 30
0.0
 70
    64
 71
    14
 72
    12
  0
VERTEX
  5
87AE
  8
0
 10
259.8076211353317
 20
150.0
 30
0.0
 70
   192
  0
VERTEX
  5
87AF
  8
0
 10
259.8076211353317
 20
150.0
 30
-2.0
 70
   192
  0
VERTEX
  5
87B0
  8
0
 10
150.0000000000001
 20
259.8076211353316
 30
-2.0
 70
   192
  0
VERTEX
  5
87B1
  8
0
 10
150.0000000000001
 20
259.8076211353316
 30
0.0
 70
   192
  0
VERTEX
  5
87B2
  8
0
 10
-149.9999999999999
 20
259.8076211353317
 30
0.0
 70
   192
  0
VERTEX
  5
87B3
  8
0
 10
-149.9999999999999
 20
259.8076211353317
 30
-2.0
 70
   192
  0
VERTEX
  5
87B4
  8
0
 10
-259.8076211353316
 20
150.0000000000002
 30
-2.0
 70
   192
  0
VERTEX
  5
87B5
  8
0
 10
-259.8076211353316
 20
150.0000000000002
 30
0.0
 70
   192
  0
VERTEX
  5
87B6
  8
0
 10
-300.0000000000001
 20
0.0000000000001665
 30
-2.0
 70
   192
  0
VERTEX
  5
87B7
  8
0
 10
-300.0000000000001
 20
0.0000000000000367
 30
0.0
 70
   192
  0
VERTEX
  5
87B8
  8
0
 10
0.0000000000000833
 20
300.0000000000001
 30
0.0
 70
   192
  0
VERTEX
  5
87B9
  8
0
 10
0.0000000000000833
 20
300.0000000000001
 30
-2.0
 70
   192
  0
VERTEX
  5
87BA
  8
0
 10
300.0000000000001
 20
0.0
 30
0.0
 70
   192
  0
VERTEX
  5
87BB
  8
0
 10
300.0000000000001
 20
0.0
 30
-2.0
 70
   192
  0
VERTEX
  5
87BC
  8
0
 10
0.0
 20
0.0
 30
0.0
 70
   128
 71
     1
 72
     2
 73
    -3
  0
VERTEX
  5
87BD
  8
0
 10
0.0
 20
0.0
 30
0.0
 70
   128
 71
    -1
 72
     3
 73
     4
  0
VERTEX
  5
87BE
  8
0
 10
0.0
 20
0.0
 30
0.0
 70
   128
 71
     5
 72
     6
 73
    -7
  0
VERTEX
  5
87BF
  8
0
 10
0.0
 20
0.0
 30
0.0
 70
   128
 71
    -5
 72
     7
 73
     8
  0
VERTEX
  5
87C0
  8
0
 10
0.0
 20
0.0
 30
0.0
 70
   128
 71
     8
 72
     7
 73
    -9
  0
VERTEX
  5
87C1
  8
0
 10
0.0
 20
0.0
 30
0.0
 70
   128
 71
    -8
 72
     9
 73
    10
  0
VERTEX
  5
87C2
  8
0
 10
0.0
 20
0.0
 30
0.0
 70
   128
 71
    11
 72
    12
 73
    -6
  0
VERTEX
  5
87C3
  8
0
 10
0.0
 20
0.0
 30
0.0
 70
   128
 71
   -11
 72
     6
 73
     5
  0
VERTEX
  5
87C4
  8
0
 10
0.0
 20
0.0
 30
0.0
 70
   128
 71
     4
 72
     3
 73
   -12
  0
VERTEX
  5
87C5
  8
0
 10
0.0
 20
0.0
 30
0.0
 70
   128
 71
    -4
 72
    12
 73
    11
  0
VERTEX
  5
87C6
  8
0
 10
0.0
 20
0.0
 30
0.0
 70
   128
 71
    13
 72
    14
 73
    -2
  0
VERTEX
  5
87C7
  8
0
 10
0.0
 20
0.0
 30
0.0
 70
   128
 71
   -13
 72
     2
 73
     1
  0
SEQEND
  5
897A
  8
0
  0
POLYLINE
  5
87C8
  8
0
 66
     1
 10
0.0
 20
0.0
 30
0.0
 70
    64
 71
    14
 72
    12
  0
VERTEX
  5
87C9
  8
0
 10
-259.8076211353317
 20
-150.0
 30
0.0
 70
   192
  0
VERTEX
  5
87CA
  8
0
 10
-259.8076211353317
 20
-150.0
 30
-2.0
 70
   192
  0
VERTEX
  5
87CB
  8
0
 10
-150.0000000000001
 20
-259.8076211353316
 30
-2.0
 70
   192
  0
VERTEX
  5
87CC
  8
0
 10
-150.0000000000001
 20
-259.8076211353316
 30
0.0
 70
   192
  0
VERTEX
  5
87CD
  8
0
 10
149.9999999999999
 20
-259.8076211353317
 30
0.0
 70
   192
  0
VERTEX
  5
87CE
  8
0
 10
149.9999999999999
 20
-259.8076211353317
 30
-2.0
 70
   192
  0
VERTEX
  5
87CF
  8
0
 10
259.8076211353315
 20
-150.0000000000002
 30
-2.0
 70
   192
  0
VERTEX
  5
87D0
  8
0
 10
259.8076211353315
 20
-150.0000000000002
 30
0.0
 70
   192
  0
VERTEX
  5
87D1
  8
0
 10
300.0000000000001
 20
-0.0000000000002165
 30
-2.0
 70
   192
  0
VERTEX
  5
87D2
  8
0
 10
300.0000000000001
 20
0.0
 30
0.0
 70
   192
  0
VERTEX
  5
87D3
  8
0
 10
-0.0000000000001166
 20
-300.0000000000001
 30
0.0
 70
   192
  0
VERTEX
  5
87D4
  8
0
 10
-0.0000000000001166
 20
-300.0000000000001
 30
-2.0
 70
   192
  0
VERTEX
  5
87D5
  8
0
 10
-300.0000000000001
 20
0.0000000000000367
 30
0.0
 70
   192
  0
VERTEX
  5
87D6
  8
0
 10
-300.0000000000001
 20
0.0000000000000367
 30
-2.0
 70
   192
  0
VERTEX
  5
87D7
  8
0
 10
0.0
 20
0.0
 30
0.0
 70
   128
 71
     1
 72
     2
 73
    -3
  0
VERTEX
  5
87D8
  8
0
 10
0.0
 20
0.0
 30
0.0
 70
   128
 71
    -1
 72
     3
 73
     4
  0
VERTEX
  5
87D9
  8
0
 10
0.0
 20
0.0
 30
0.0
 70
   128
 71
     5
 72
     6
 73
    -7
  0
VERTEX
  5
87DA
  8
0
 10
0.0
 20
0.0
 30
0.0
 70
   128
 71
    -5
 72
     7
 73
     8
  0
VERTEX
  5
87DB
  8
0
 10
0.0
 20
0.0
 30
0.0
 70
   128
 71
     8
 72
     7
 73
    -9
  0
VERTEX
  5
87DC
  8
0
 10
0.0
 20
0.0
 30
0.0
 70
   128
 71
    -8
 72
     9
 73
    10
  0
VERTEX
  5
87DD
  8
0
 10
0.0
 20
0.0
 30
0.0
 70
   128
 71
    11
 72
    12
 73
    -6
  0
VERTEX
  5
87DE
  8
0
 10
0.0
 20
0.0
 30
0.0
 70
   128
 71
   -11
 72
     6
 73
     5
  0
VERTEX
  5
87DF
  8
0
 10
0.0
 20
0.0
 30
0.0
 70
   128
 71
     4
 72
     3
 73
   -12
  0
VERTEX
  5
87E0
  8
0
 10
0.0
 20
0.0
 30
0.0
 70
   128
 71
    -4
 72
    12
 73
    11
  0
VERTEX
  5
87E1
  8
0
 10
0.0
 20
0.0
 30
0.0
 70
   128
 71
    13
 72
    14
 73
    -2
  0
VERTEX
  5
87E2
  8
0
 10
0.0
 20
0.0
 30
0.0
 70
   128
 71
   -13
 72
     2
 73
     1
  0
SEQEND
  5
897B
  8
0
  0
POLYLINE
  5
87E3
  8
0
 66
     1
 10
0.0
 20
0.0
 30
0.0
 70
    64
 71
    24
 72
    24
  0
VERTEX
  5
87E4
  8
0
 10
-300.0000000000001
 20
0.0000000000000367
 30
-2.0
 70
   192
  0
VERTEX
  5
87E5
  8
0
 10
-259.8076211353317
 20
-150.0
 30
-2.0
 70
   192
  0
VERTEX
  5
87E6
  8
0
 10
-150.0000000000001
 20
-259.8076211353316
 30
-2.0
 70
   192
  0
VERTEX
  5
87E7
  8
0
 10
-0.0000000000001166
 20
-300.0000000000001
 30
-2.0
 70
   192
  0
VERTEX
  5
87E8
  8
0
 10
149.9999999999999
 20
-259.8076211353317
 30
-2.0
 70
   192
  0
VERTEX
  5
87E9
  8
0
 10
259.8076211353315
 20
-150.0000000000002
 30
-2.0
 70
   192
  0
VERTEX
  5
87EA
  8
0
 10
300.0000000000001
 20
0.0
 30
-2.0
 70
   192
  0
VERTEX
  5
87EB
  8
0
 10
259.8076211353317
 20
150.0
 30
-2.0
 70
   192
  0
VERTEX
  5
87EC
  8
0
 10
150.0000000000001
 20
259.8076211353316
 30
-2.0
 70
   192
  0
VERTEX
  5
87ED
  8
0
 10
0.0000000000000833
 20
300.0000000000001
 30
-2.0
 70
   192
  0
VERTEX
  5
87EE
  8
0
 10
-149.9999999999999
 20
259.8076211353317
 30
-2.0
 70
   192
  0
VERTEX
  5
87EF
  8
0
 10
-259.8076211353316
 20
150.0000000000002
 30
-2.0
 70
   192
  0
VERTEX
  5
87F0
  8
0
 10
-255.0000000000001
 20
0.0000000000000312
 30
-2.0
 70
   192
  0
VERTEX
  5
87F1
  8
0
 10
-220.8364779650319
 20
127.5000000000001
 30
-2.0
 70
   192
  0
VERTEX
  5
87F2
  8
0
 10
-127.5000000000001
 20
220.8364779650319
 30
-2.0
 70
   192
  0
VERTEX
  5
87F3
  8
0
 10
-0.0000000000000283
 20
255.0000000000001
 30
-2.0
 70
   192
  0
VERTEX
  5
87F4
  8
0
 10
127.5
 20
220.836477965032
 30
-2.0
 70
   192
  0
VERTEX
  5
87F5
  8
0
 10
220.8364779650319
 20
127.5000000000001
 30
-2.0
 70
   192
  0
VERTEX
  5
87F6
  8
0
 10
255.0000000000001
 20
0.0000000000000312
 30
-2.0
 70
   192
  0
VERTEX
  5
87F7
  8
0
 10
220.836477965032
 20
-127.5
 30
-2.0
 70
   192
  0
VERTEX
  5
87F8
  8
0
 10
127.5000000000001
 20
-220.8364779650319
 30
-2.0
 70
   192
  0
VERTEX
  5
87F9
  8
0
 10
0.0000000000000991
 20
-255.0000000000001
 30
-2.0
 70
   192
  0
VERTEX
  5
87FA
  8
0
 10
-127.5
 20
-220.836477965032
 30
-2.0
 70
   192
  0
VERTEX
  5
87FB
  8
0
 10
-220.8364779650319
 20
-127.5000000000002
 30
-2.0
 70
   192
  0
VERTEX
  5
87FC
  8
0
 10
0.0
 20
0.0
 30
0.0
 70
   128
 71
    14
 72
   -13
 73
    -1
  0
VERTEX
  5
87FD
  8
0
 10
0.0
 20
0.0
 30
0.0
 70
   128
 71
   -14
 72
     1
 73
   -12
  0
VERTEX
  5
87FE
  8
0
 10
0.0
 20
0.0
 30
0.0
 70
   128
 71
    12
 72
   -11
 73
   -15
  0
VERTEX
  5
87FF
  8
0
 10
0.0
 20
0.0
 30
0.0
 70
   128
 71
   -12
 72
    15
 73
   -14
  0
VERTEX
  5
8800
  8
0
 10
0.0
 20
0.0
 30
0.0
 70
   128
 71
    11
 72
   -10
 73
   -16
  0
VERTEX
  5
8801
  8
0
 10
0.0
 20
0.0
 30
0.0
 70
   128
 71
   -11
 72
    16
 73
   -15
  0
VERTEX
  5
8802
  8
0
 10
0.0
 20
0.0
 30
0.0
 70
   128
 71
    10
 72
    -9
 73
   -17
  0
VERTEX
  5
8803
  8
0
 10
0.0
 20
0.0
 30
0.0
 70
   128
 71
   -10
 72
    17
 73
   -16
  0
VERTEX
  5
8804
  8
0
 10
0.0
 20
0.0
 30
0.0
 70
   128
 71
     9
 72
    -8
 73
   -18
  0
VERTEX
  5
8805
  8
0
 10
0.0
 20
0.0
 30
0.0
 70
   128
 71
    -9
 72
    18
 73
   -17
  0
VERTEX
  5
8806
  8
0
 10
0.0
 20
0.0
 30
0.0
 70
   128
 71
     8
 72
    -7
 73
   -19
  0
VERTEX
  5
8807
  8
0
 10
0.0
 20
0.0
 30
0.0
 70
   128
 71
    -8
 72
    19
 73
   -18
  0
VERTEX
  5
8808
  8
0
 10
0.0
 20
0.0
 30
0.0
 70
   128
 71
     7
 72
    -6
 73
   -20
  0
VERTEX
  5
8809
  8
0
 10
0.0
 20
0.0
 30
0.0
 70
   128
 71
    -7
 72
    20
 73
   -19
  0
VERTEX
  5
880A
  8
0
 10
0.0
 20
0.0
 30
0.0
 70
   128
 71
     6
 72
    -5
 73
   -21
  0
VERTEX
  5
880B
  8
0
 10
0.0
 20
0.0
 30
0.0
 70
   128
 71
    -6
 72
    21
 73
   -20
  0
VERTEX
  5
880C
  8
0
 10
0.0
 20
0.0
 30
0.0
 70
   128
 71
     5
 72
    -4
 73
   -22
  0
VERTEX
  5
880D
  8
0
 10
0.0
 20
0.0
 30
0.0
 70
   128
 71
    -5
 72
    22
 73
   -21
  0
VERTEX
  5
880E
  8
0
 10
0.0
 20
0.0
 30
0.0
 70
   128
 71
     4
 72
    -3
 73
   -23
  0
VERTEX
  5
880F
  8
0
 10
0.0
 20
0.0
 30
0.0
 70
   128
 71
    -4
 72
    23
 73
   -22
  0
VERTEX
  5
8810
  8
0
 10
0.0
 20
0.0
 30
0.0
 70
   128
 71
     3
 72
    -2
 73
   -24
  0
VERTEX
  5
8811
  8
0
 10
0.0
 20
0.0
 30
0.0
 70
   128
 71
    -3
 72
    24
 73
   -23
  0
VERTEX
  5
8812
  8
0
 10
0.0
 20
0.0
 30
0.0
 70
   128
 71
     2
 72
    -1
 73
   -13
  0
VERTEX
  5
8813
  8
0
 10
0.0
 20
0.0
 30
0.0
 70
   128
 71
    -2
 72
    13
 73
   -24
  0
SEQEND
  5
897C
  8
0
  0
POLYLINE
  5
8814
  8
0
 66
     1
 10
0.0
 20
0.0
 30
0.0
 70
    64
 71
    24
 72
    24
  0
VERTEX
  5
8815
  8
0
 10
300.0000000000001
 20
0.0
 30
0.0
 70
   192
  0
VERTEX
  5
8816
  8
0
 10
259.8076211353317
 20
150.0
 30
0.0
 70
   192
  0
VERTEX
  5
8817
  8
0
 10
150.0000000000001
 20
259.8076211353316
 30
0.0
 70
   192
  0
VERTEX
  5
8818
  8
0
 10
0.0000000000000833
 20
300.0000000000001
 30
0.0
 70
   192
  0
VERTEX
  5
8819
  8
0
 10
-149.9999999999999
 20
259.8076211353317
 30
0.0
 70
   192
  0
VERTEX
  5
881A
  8
0
 10
-259.8076211353316
 20
150.0000000000002
 30
0.0
 70
   192
  0
VERTEX
  5
881B
  8
0
 10
-300.0000000000001
 20
0.0000000000001665
 30
0.0
 70
   192
  0
VERTEX
  5
881C
  8
0
 10
-259.8076211353317
 20
-150.0
 30
0.0
 70
   192
  0
VERTEX
  5
881D
  8
0
 10
-150.0000000000001
 20
-259.8076211353316
 30
0.0
 70
   192
  0
VERTEX
  5
881E
  8
0
 10
-0.0000000000001166
 20
-300.0000000000001
 30
0.0
 70
   192
  0
VERTEX
  5
881F
  8
0
 10
149.9999999999999
 20
-259.8076211353317
 30
0.0
 70
   192
  0
VERTEX
  5
8820
  8
0
 10
259.8076211353315
 20
-150.0000000000002
 30
0.0
 70
   192
  0
VERTEX
  5
8821
  8
0
 10
-279.9999999999999
 20
0.0000000000001554
 30
0.0
 70
   192
  0
VERTEX
  5
8822
  8
0
 10
-242.4871130596427
 20
140.0000000000001
 30
0.0
 70
   192
  0
VERTEX
  5
8823
  8
0
 10
-139.9999999999999
 20
242.4871130596428
 30
0.0
 70
   192
  0
VERTEX
  5
8824
  8
0
 10
0.0000000000000777
 20
279.9999999999999
 30
0.0
 70
   192
  0
VERTEX
  5
8825
  8
0
 10
140.0
 20
242.4871130596428
 30
0.0
 70
   192
  0
VERTEX
  5
8826
  8
0
 10
242.4871130596428
 20
139.9999999999999
 30
0.0
 70
   192
  0
VERTEX
  5
8827
  8
0
 10
279.9999999999999
 20
0.0
 30
0.0
 70
   192
  0
VERTEX
  5
8828
  8
0
 10
242.4871130596427
 20
-140.0000000000001
 30
0.0
 70
   192
  0
VERTEX
  5
8829
  8
0
 10
139.9999999999999
 20
-242.4871130596428
 30
0.0
 70
   192
  0
VERTEX
  5
882A
  8
0
 10
-0.0000000000001088
 20
-279.9999999999999
 30
0.0
 70
   192
  0
VERTEX
  5
882B
  8
0
 10
-140.0000000000001
 20
-242.4871130596428
 30
0.0
 70
   192
  0
VERTEX
  5
882C
  8
0
 10
-242.4871130596428
 20
-139.9999999999999
 30
0.0
 70
   192
  0
VERTEX
  5
882D
  8
0
 10
0.0
 20
0.0
 30
0.0
 70
   128
 71
    -7
 72
    13
 73
   -14
  0
VERTEX
  5
882E
  8
0
 10
0.0
 20
0.0
 30
0.0
 70
   128
 71
     6
 72
    -7
 73
   -14
  0
VERTEX
  5
882F
  8
0
 10
0.0
 20
0.0
 30
0.0
 70
   128
 71
   -15
 72
     5
 73
    -6
  0
VERTEX
  5
8830
  8
0
 10
0.0
 20
0.0
 30
0.0
 70
   128
 71
    14
 72
   -15
 73
    -6
  0
VERTEX
  5
8831
  8
0
 10
0.0
 20
0.0
 30
0.0
 70
   128
 71
   -16
 72
     4
 73
    -5
  0
VERTEX
  5
8832
  8
0
 10
0.0
 20
0.0
 30
0.0
 70
   128
 71
    15
 72
   -16
 73
    -5
  0
VERTEX
  5
8833
  8
0
 10
0.0
 20
0.0
 30
0.0
 70
   128
 71
   -17
 72
     3
 73
    -4
  0
VERTEX
  5
8834
  8
0
 10
0.0
 20
0.0
 30
0.0
 70
   128
 71
    16
 72
   -17
 73
    -4
  0
VERTEX
  5
8835
  8
0
 10
0.0
 20
0.0
 30
0.0
 70
   128
 71
   -18
 72
     2
 73
    -3
  0
VERTEX
  5
8836
  8
0
 10
0.0
 20
0.0
 30
0.0
 70
   128
 71
    17
 72
   -18
 73
    -3
  0
VERTEX
  5
8837
  8
0
 10
0.0
 20
0.0
 30
0.0
 70
   128
 71
   -19
 72
     1
 73
    -2
  0
VERTEX
  5
8838
  8
0
 10
0.0
 20
0.0
 30
0.0
 70
   128
 71
    18
 72
   -19
 73
    -2
  0
VERTEX
  5
8839
  8
0
 10
0.0
 20
0.0
 30
0.0
 70
   128
 71
   -20
 72
    12
 73
    -1
  0
VERTEX
  5
883A
  8
0
 10
0.0
 20
0.0
 30
0.0
 70
   128
 71
    19
 72
   -20
 73
    -1
  0
VERTEX
  5
883B
  8
0
 10
0.0
 20
0.0
 30
0.0
 70
   128
 71
   -21
 72
    11
 73
   -12
  0
VERTEX
  5
883C
  8
0
 10
0.0
 20
0.0
 30
0.0
 70
   128
 71
    20
 72
   -21
 73
   -12
  0
VERTEX
  5
883D
  8
0
 10
0.0
 20
0.0
 30
0.0
 70
   128
 71
   -22
 72
    10
 73
   -11
  0
VERTEX
  5
883E
  8
0
 10
0.0
 20
0.0
 30
0.0
 70
   128
 71
    21
 72
   -22
 73
   -11
  0
VERTEX
  5
883F
  8
0
 10
0.0
 20
0.0
 30
0.0
 70
   128
 71
   -23
 72
     9
 73
   -10
  0
VERTEX
  5
8840
  8
0
 10
0.0
 20
0.0
 30
0.0
 70
   128
 71
    22
 72
   -23
 73
   -10
  0
VERTEX
  5
8841
  8
0
 10
0.0
 20
0.0
 30
0.0
 70
   128
 71
   -24
 72
     8
 73
    -9
  0
VERTEX
  5
8842
  8
0
 10
0.0
 20
0.0
 30
0.0
 70
   128
 71
    23
 72
   -24
 73
    -9
  0
VERTEX
  5
8843
  8
0
 10
0.0
 20
0.0
 30
0.0
 70
   128
 71
   -13
 72
     7
 73
    -8
  0
VERTEX
  5
8844
  8
0
 10
0.0
 20
0.0
 30
0.0
 70
   128
 71
    24
 72
   -13
 73
    -8
  0
SEQEND
  5
897D
  8
0
  0
POLYLINE
  5
8845
  8
0
 66
     1
 10
0.0
 20
0.0
 30
0.0
 70
    64
 71
    14
 72
    12
  0
VERTEX
  5
8846
  8
0
 10
-225.166604983954
 20
-129.9999999999999
 30
0.0
 70
   192
  0
VERTEX
  5
8847
  8
0
 10
-259.9999999999999
 20
0.0000000000000318
 30
0.0
 70
   192
  0
VERTEX
  5
8848
  8
0
 10
-259.9999999999999
 20
0.0000000000000318
 30
-0.5
 70
   192
  0
VERTEX
  5
8849
  8
0
 10
-225.166604983954
 20
-129.9999999999999
 30
-0.5
 70
   192
  0
VERTEX
  5
884A
  8
0
 10
-130.0000000000001
 20
-225.166604983954
 30
-0.5
 70
   192
  0
VERTEX
  5
884B
  8
0
 10
-0.000000000000101
 20
-259.9999999999999
 30
-0.5
 70
   192
  0
VERTEX
  5
884C
  8
0
 10
-0.000000000000101
 20
-259.9999999999999
 30
0.0
 70
   192
  0
VERTEX
  5
884D
  8
0
 10
-130.0000000000001
 20
-225.166604983954
 30
0.0
 70
   192
  0
VERTEX
  5
884E
  8
0
 10
129.9999999999999
 20
-225.1666049839541
 30
0.0
 70
   192
  0
VERTEX
  5
884F
  8
0
 10
129.9999999999999
 20
-225.1666049839541
 30
-0.5
 70
   192
  0
VERTEX
  5
8850
  8
0
 10
225.1666049839539
 20
-130.0000000000001
 30
-0.5
 70
   192
  0
VERTEX
  5
8851
  8
0
 10
259.9999999999999
 20
-0.0000000000001876
 30
-0.5
 70
   192
  0
VERTEX
  5
8852
  8
0
 10
259.9999999999999
 20
0.0
 30
0.0
 70
   192
  0
VERTEX
  5
8853
  8
0
 10
225.1666049839539
 20
-130.0000000000001
 30
0.0
 70
   192
  0
VERTEX
  5
8854
  8
0
 10
0.0
 20
0.0
 30
0.0
 70
   128
 71
     1
 72
     2
 73
    -3
  0
VERTEX
  5
8855
  8
0
 10
0.0
 20
0.0
 30
0.0
 70
   128
 71
    -1
 72
     3
 73
     4
  0
VERTEX
  5
8856
  8
0
 10
0.0
 20
0.0
 30
0.0
 70
   128
 71
     5
 72
     6
 73
    -7
  0
VERTEX
  5
8857
  8
0
 10
0.0
 20
0.0
 30
0.0
 70
   128
 71
    -5
 72
     7
 73
     8
  0
VERTEX
  5
8858
  8
0
 10
0.0
 20
0.0
 30
0.0
 70
   128
 71
     9
 72
     7
 73
    -6
  0
VERTEX
  5
8859
  8
0
 10
0.0
 20
0.0
 30
0.0
 70
   128
 71
    -9
 72
     6
 73
    10
  0
VERTEX
  5
885A
  8
0
 10
0.0
 20
0.0
 30
0.0
 70
   128
 71
    11
 72
    12
 73
   -13
  0
VERTEX
  5
885B
  8
0
 10
0.0
 20
0.0
 30
0.0
 70
   128
 71
   -11
 72
    13
 73
    14
  0
VERTEX
  5
885C
  8
0
 10
0.0
 20
0.0
 30
0.0
 70
   128
 71
     1
 72
     4
 73
    -5
  0
VERTEX
  5
885D
  8
0
 10
0.0
 20
0.0
 30
0.0
 70
   128
 71
    -1
 72
     5
 73
     8
  0
VERTEX
  5
885E
  8
0
 10
0.0
 20
0.0
 30
0.0
 70
   128
 71
     9
 72
    10
 73
   -11
  0
VERTEX
  5
885F
  8
0
 10
0.0
 20
0.0
 30
0.0
 70
   128
 71
    -9
 72
    11
 73
    14
  0
SEQEND
  5
897E
  8
0
  0
POLYLINE
  5
8860
  8
0
 66
     1
 10
0.0
 20
0.0
 30
0.0
 70
    64
 71
    14
 72
    12
  0
VERTEX
  5
8861
  8
0
 10
140.0
 20
242.4871130596428
 30
-0.5
 70
   192
  0
VERTEX
  5
8862
  8
0
 10
242.4871130596428
 20
139.9999999999999
 30
-0.5
 70
   192
  0
VERTEX
  5
8863
  8
0
 10
242.4871130596428
 20
139.9999999999999
 30
0.0
 70
   192
  0
VERTEX
  5
8864
  8
0
 10
140.0
 20
242.4871130596428
 30
0.0
 70
   192
  0
VERTEX
  5
8865
  8
0
 10
-242.4871130596427
 20
140.0000000000001
 30
-0.5
 70
   192
  0
VERTEX
  5
8866
  8
0
 10
-139.9999999999999
 20
242.4871130596428
 30
-0.5
 70
   192
  0
VERTEX
  5
8867
  8
0
 10
-139.9999999999999
 20
242.4871130596428
 30
0.0
 70
   192
  0
VERTEX
  5
8868
  8
0
 10
-242.4871130596427
 20
140.0000000000001
 30
0.0
 70
   192
  0
VERTEX
  5
8869
  8
0
 10
-279.9999999999999
 20
0.0000000000000343
 30
-0.5
 70
   192
  0
VERTEX
  5
886A
  8
0
 10
-279.9999999999999
 20
0.0000000000000343
 30
0.0
 70
   192
  0
VERTEX
  5
886B
  8
0
 10
0.0000000000000777
 20
279.9999999999999
 30
-0.5
 70
   192
  0
VERTEX
  5
886C
  8
0
 10
0.0000000000000777
 20
279.9999999999999
 30
0.0
 70
   192
  0
VERTEX
  5
886D
  8
0
 10
279.9999999999999
 20
0.0
 30
-0.5
 70
   192
  0
VERTEX
  5
886E
  8
0
 10
279.9999999999999
 20
0.0
 30
0.0
 70
   192
  0
VERTEX
  5
886F
  8
0
 10
0.0
 20
0.0
 30
0.0
 70
   128
 71
     1
 72
     2
 73
    -3
  0
VERTEX
  5
8870
  8
0
 10
0.0
 20
0.0
 30
0.0
 70
   128
 71
     4
 72
    -1
 73
     3
  0
VERTEX
  5
8871
  8
0
 10
0.0
 20
0.0
 30
0.0
 70
   128
 71
     5
 72
     6
 73
    -7
  0
VERTEX
  5
8872
  8
0
 10
0.0
 20
0.0
 30
0.0
 70
   128
 71
     8
 72
    -5
 73
     7
  0
VERTEX
  5
8873
  8
0
 10
0.0
 20
0.0
 30
0.0
 70
   128
 71
     9
 72
     5
 73
    -8
  0
VERTEX
  5
8874
  8
0
 10
0.0
 20
0.0
 30
0.0
 70
   128
 71
    10
 72
    -9
 73
     8
  0
VERTEX
  5
8875
  8
0
 10
0.0
 20
0.0
 30
0.0
 70
   128
 71
     6
 72
    11
 73
   -12
  0
VERTEX
  5
8876
  8
0
 10
0.0
 20
0.0
 30
0.0
 70
   128
 71
     7
 72
    -6
 73
    12
  0
VERTEX
  5
8877
  8
0
 10
0.0
 20
0.0
 30
0.0
 70
   128
 71
    11
 72
     1
 73
    -4
  0
VERTEX
  5
8878
  8
0
 10
0.0
 20
0.0
 30
0.0
 70
   128
 71
    12
 72
   -11
 73
     4
  0
VERTEX
  5
8879
  8
0
 10
0.0
 20
0.0
 30
0.0
 70
   128
 71
     2
 72
    13
 73
   -14
  0
VERTEX
  5
887A
  8
0
 10
0.0
 20
0.0
 30
0.0
 70
   128
 71
     3
 72
    -2
 73
    14
  0
SEQEND
  5
897F
  8
0
  0
POLYLINE
  5
887B
  8
0
 66
     1
 10
0.0
 20
0.0
 30
0.0
 70
    64
 71
    24
 72
    24
  0
VERTEX
  5
887C
  8
0
 10
279.9999999999999
 20
0.0
 30
-0.5
 70
   192
  0
VERTEX
  5
887D
  8
0
 10
242.4871130596428
 20
139.9999999999999
 30
-0.5
 70
   192
  0
VERTEX
  5
887E
  8
0
 10
140.0
 20
242.4871130596428
 30
-0.5
 70
   192
  0
VERTEX
  5
887F
  8
0
 10
0.0000000000000777
 20
279.9999999999999
 30
-0.5
 70
   192
  0
VERTEX
  5
8880
  8
0
 10
-139.9999999999999
 20
242.4871130596428
 30
-0.5
 70
   192
  0
VERTEX
  5
8881
  8
0
 10
-242.4871130596427
 20
140.0000000000001
 30
-0.5
 70
   192
  0
VERTEX
  5
8882
  8
0
 10
-279.9999999999999
 20
0.0000000000001554
 30
-0.5
 70
   192
  0
VERTEX
  5
8883
  8
0
 10
-242.4871130596428
 20
-139.9999999999999
 30
-0.5
 70
   192
  0
VERTEX
  5
8884
  8
0
 10
-140.0000000000001
 20
-242.4871130596428
 30
-0.5
 70
   192
  0
VERTEX
  5
8885
  8
0
 10
-0.0000000000001088
 20
-279.9999999999999
 30
-0.5
 70
   192
  0
VERTEX
  5
8886
  8
0
 10
139.9999999999999
 20
-242.4871130596428
 30
-0.5
 70
   192
  0
VERTEX
  5
8887
  8
0
 10
242.4871130596427
 20
-140.0000000000001
 30
-0.5
 70
   192
  0
VERTEX
  5
8888
  8
0
 10
-259.9999999999999
 20
0.0000000000001443
 30
-0.5
 70
   192
  0
VERTEX
  5
8889
  8
0
 10
-225.166604983954
 20
130.0000000000001
 30
-0.5
 70
   192
  0
VERTEX
  5
888A
  8
0
 10
-129.9999999999999
 20
225.166604983954
 30
-0.5
 70
   192
  0
VERTEX
  5
888B
  8
0
 10
0.0000000000000722
 20
259.9999999999999
 30
-0.5
 70
   192
  0
VERTEX
  5
888C
  8
0
 10
130.0
 20
225.166604983954
 30
-0.5
 70
   192
  0
VERTEX
  5
888D
  8
0
 10
225.166604983954
 20
129.9999999999999
 30
-0.5
 70
   192
  0
VERTEX
  5
888E
  8
0
 10
259.9999999999999
 20
0.0
 30
-0.5
 70
   192
  0
VERTEX
  5
888F
  8
0
 10
225.1666049839539
 20
-130.0000000000001
 30
-0.5
 70
   192
  0
VERTEX
  5
8890
  8
0
 10
129.9999999999999
 20
-225.1666049839541
 30
-0.5
 70
   192
  0
VERTEX
  5
8891
  8
0
 10
-0.000000000000101
 20
-259.9999999999999
 30
-0.5
 70
   192
  0
VERTEX
  5
8892
  8
0
 10
-130.0000000000001
 20
-225.166604983954
 30
-0.5
 70
   192
  0
VERTEX
  5
8893
  8
0
 10
-225.166604983954
 20
-129.9999999999999
 30
-0.5
 70
   192
  0
VERTEX
  5
8894
  8
0
 10
0.0
 20
0.0
 30
0.0
 70
   128
 71
    -7
 72
    13
 73
   -14
  0
VERTEX
  5
8895
  8
0
 10
0.0
 20
0.0
 30
0.0
 70
   128
 71
     6
 72
    -7
 73
   -14
  0
VERTEX
  5
8896
  8
0
 10
0.0
 20
0.0
 30
0.0
 70
   128
 71
   -15
 72
     5
 73
    -6
  0
VERTEX
  5
8897
  8
0
 10
0.0
 20
0.0
 30
0.0
 70
   128
 71
    14
 72
   -15
 73
    -6
  0
VERTEX
  5
8898
  8
0
 10
0.0
 20
0.0
 30
0.0
 70
   128
 71
   -16
 72
     4
 73
    -5
  0
VERTEX
  5
8899
  8
0
 10
0.0
 20
0.0
 30
0.0
 70
   128
 71
    15
 72
   -16
 73
    -5
  0
VERTEX
  5
889A
  8
0
 10
0.0
 20
0.0
 30
0.0
 70
   128
 71
   -17
 72
     3
 73
    -4
  0
VERTEX
  5
889B
  8
0
 10
0.0
 20
0.0
 30
0.0
 70
   128
 71
    16
 72
   -17
 73
    -4
  0
VERTEX
  5
889C
  8
0
 10
0.0
 20
0.0
 30
0.0
 70
   128
 71
   -18
 72
     2
 73
    -3
  0
VERTEX
  5
889D
  8
0
 10
0.0
 20
0.0
 30
0.0
 70
   128
 71
    17
 72
   -18
 73
    -3
  0
VERTEX
  5
889E
  8
0
 10
0.0
 20
0.0
 30
0.0
 70
   128
 71
   -19
 72
     1
 73
    -2
  0
VERTEX
  5
889F
  8
0
 10
0.0
 20
0.0
 30
0.0
 70
   128
 71
    18
 72
   -19
 73
    -2
  0
VERTEX
  5
88A0
  8
0
 10
0.0
 20
0.0
 30
0.0
 70
   128
 71
   -20
 72
    12
 73
    -1
  0
VERTEX
  5
88A1
  8
0
 10
0.0
 20
0.0
 30
0.0
 70
   128
 71
    19
 72
   -20
 73
    -1
  0
VERTEX
  5
88A2
  8
0
 10
0.0
 20
0.0
 30
0.0
 70
   128
 71
   -21
 72
    11
 73
   -12
  0
VERTEX
  5
88A3
  8
0
 10
0.0
 20
0.0
 30
0.0
 70
   128
 71
    20
 72
   -21
 73
   -12
  0
VERTEX
  5
88A4
  8
0
 10
0.0
 20
0.0
 30
0.0
 70
   128
 71
   -22
 72
    10
 73
   -11
  0
VERTEX
  5
88A5
  8
0
 10
0.0
 20
0.0
 30
0.0
 70
   128
 71
    21
 72
   -22
 73
   -11
  0
VERTEX
  5
88A6
  8
0
 10
0.0
 20
0.0
 30
0.0
 70
   128
 71
   -23
 72
     9
 73
   -10
  0
VERTEX
  5
88A7
  8
0
 10
0.0
 20
0.0
 30
0.0
 70
   128
 71
    22
 72
   -23
 73
   -10
  0
VERTEX
  5
88A8
  8
0
 10
0.0
 20
0.0
 30
0.0
 70
   128
 71
   -24
 72
     8
 73
    -9
  0
VERTEX
  5
88A9
  8
0
 10
0.0
 20
0.0
 30
0.0
 70
   128
 71
    23
 72
   -24
 73
    -9
  0
VERTEX
  5
88AA
  8
0
 10
0.0
 20
0.0
 30
0.0
 70
   128
 71
   -13
 72
     7
 73
    -8
  0
VERTEX
  5
88AB
  8
0
 10
0.0
 20
0.0
 30
0.0
 70
   128
 71
    24
 72
   -13
 73
    -8
  0
SEQEND
  5
8980
  8
0
  0
POLYLINE
  5
88AC
  8
0
 66
     1
 10
0.0
 20
0.0
 30
0.0
 70
    64
 71
    12
 72
    10
  0
VERTEX
  5
88AD
  8
0
 10
259.9999999999999
 20
0.0
 30
0.0
 70
   192
  0
VERTEX
  5
88AE
  8
0
 10
225.166604983954
 20
129.9999999999999
 30
0.0
 70
   192
  0
VERTEX
  5
88AF
  8
0
 10
130.0
 20
225.166604983954
 30
0.0
 70
   192
  0
VERTEX
  5
88B0
  8
0
 10
0.0000000000000722
 20
259.9999999999999
 30
0.0
 70
   192
  0
VERTEX
  5
88B1
  8
0
 10
-129.9999999999999
 20
225.166604983954
 30
0.0
 70
   192
  0
VERTEX
  5
88B2
  8
0
 10
-225.166604983954
 20
130.0000000000001
 30
0.0
 70
   192
  0
VERTEX
  5
88B3
  8
0
 10
-259.9999999999999
 20
0.0000000000001443
 30
0.0
 70
   192
  0
VERTEX
  5
88B4
  8
0
 10
-225.166604983954
 20
-129.9999999999999
 30
0.0
 70
   192
  0
VERTEX
  5
88B5
  8
0
 10
-130.0000000000001
 20
-225.166604983954
 30
0.0
 70
   192
  0
VERTEX
  5
88B6
  8
0
 10
-0.000000000000101
 20
-259.9999999999999
 30
0.0
 70
   192
  0
VERTEX
  5
88B7
  8
0
 10
129.9999999999999
 20
-225.1666049839541
 30
0.0
 70
   192
  0
VERTEX
  5
88B8
  8
0
 10
225.1666049839539
 20
-130.0000000000001
 30
0.0
 70
   192
  0
VERTEX
  5
88B9
  8
0
 10
0.0
 20
0.0
 30
0.0
 70
   128
 71
    11
 72
    12
 73
    -1
  0
VERTEX
  5
88BA
  8
0
 10
0.0
 20
0.0
 30
0.0
 70
   128
 71
    10
 72
   -11
 73
    -1
  0
VERTEX
  5
88BB
  8
0
 10
0.0
 20
0.0
 30
0.0
 70
   128
 71
     9
 72
   -10
 73
    -1
  0
VERTEX
  5
88BC
  8
0
 10
0.0
 20
0.0
 30
0.0
 70
   128
 71
     8
 72
    -9
 73
    -1
  0
VERTEX
  5
88BD
  8
0
 10
0.0
 20
0.0
 30
0.0
 70
   128
 71
     7
 72
    -8
 73
    -1
  0
VERTEX
  5
88BE
  8
0
 10
0.0
 20
0.0
 30
0.0
 70
   128
 71
     6
 72
    -7
 73
    -1
  0
VERTEX
  5
88BF
  8
0
 10
0.0
 20
0.0
 30
0.0
 70
   128
 71
     5
 72
    -6
 73
    -1
  0
VERTEX
  5
88C0
  8
0
 10
0.0
 20
0.0
 30
0.0
 70
   128
 71
     4
 72
    -5
 73
    -1
  0
VERTEX
  5
88C1
  8
0
 10
0.0
 20
0.0
 30
0.0
 70
   128
 71
     3
 72
    -4
 73
    -1
  0
VERTEX
  5
88C2
  8
0
 10
0.0
 20
0.0
 30
0.0
 70
   128
 71
     2
 72
    -3
 73
     1
  0
SEQEND
  5
8981
  8
0
  0
POLYLINE
  5
88C3
  8
0
 66
     1
 10
0.0
 20
0.0
 30
0.0
 70
    64
 71
    14
 72
    12
  0
VERTEX
  5
88C4
  8
0
 10
-220.8364779650319
 20
-127.5000000000002
 30
-2.0
 70
   192
  0
VERTEX
  5
88C5
  8
0
 10
-255.0000000000001
 20
-0.000000000000184
 30
-2.0
 70
   192
  0
VERTEX
  5
88C6
  8
0
 10
-255.0000000000001
 20
0.0000000000000312
 30
-22.0
 70
   192
  0
VERTEX
  5
88C7
  8
0
 10
-220.8364779650319
 20
-127.5000000000002
 30
-22.0
 70
   192
  0
VERTEX
  5
88C8
  8
0
 10
-127.5
 20
-220.836477965032
 30
-22.0
 70
   192
  0
VERTEX
  5
88C9
  8
0
 10
0.0000000000000991
 20
-255.0000000000001
 30
-22.0
 70
   192
  0
VERTEX
  5
88CA
  8
0
 10
0.0000000000000991
 20
-255.0000000000001
 30
-2.0
 70
   192
  0
VERTEX
  5
88CB
  8
0
 10
-127.5
 20
-220.836477965032
 30
-2.0
 70
   192
  0
VERTEX
  5
88CC
  8
0
 10
127.5000000000001
 20
-220.8364779650319
 30
-2.0
 70
   192
  0
VERTEX
  5
88CD
  8
0
 10
127.5000000000001
 20
-220.8364779650319
 30
-22.0
 70
   192
  0
VERTEX
  5
88CE
  8
0
 10
220.836477965032
 20
-127.5
 30
-22.0
 70
   192
  0
VERTEX
  5
88CF
  8
0
 10
255.0000000000001
 20
0.0000000000000312
 30
-22.0
 70
   192
  0
VERTEX
  5
88D0
  8
0
 10
255.0000000000001
 20
0.0
 30
-2.0
 70
   192
  0
VERTEX
  5
88D1
  8
0
 10
220.836477965032
 20
-127.5
 30
-2.0
 70
   192
  0
VERTEX
  5
88D2
  8
0
 10
0.0
 20
0.0
 30
0.0
 70
   128
 71
     1
 72
     2
 73
    -3
  0
VERTEX
  5
88D3
  8
0
 10
0.0
 20
0.0
 30
0.0
 70
   128
 71
    -1
 72
     3
 73
     4
  0
VERTEX
  5
88D4
  8
0
 10
0.0
 20
0.0
 30
0.0
 70
   128
 71
     5
 72
     6
 73
    -7
  0
VERTEX
  5
88D5
  8
0
 10
0.0
 20
0.0
 30
0.0
 70
   128
 71
    -5
 72
     7
 73
     8
  0
VERTEX
  5
88D6
  8
0
 10
0.0
 20
0.0
 30
0.0
 70
   128
 71
     9
 72
     7
 73
    -6
  0
VERTEX
  5
88D7
  8
0
 10
0.0
 20
0.0
 30
0.0
 70
   128
 71
    -9
 72
     6
 73
    10
  0
VERTEX
  5
88D8
  8
0
 10
0.0
 20
0.0
 30
0.0
 70
   128
 71
    11
 72
    12
 73
   -13
  0
VERTEX
  5
88D9
  8
0
 10
0.0
 20
0.0
 30
0.0
 70
   128
 71
   -11
 72
    13
 73
    14
  0
VERTEX
  5
88DA
  8
0
 10
0.0
 20
0.0
 30
0.0
 70
   128
 71
     1
 72
     4
 73
    -5
  0
VERTEX
  5
88DB
  8
0
 10
0.0
 20
0.0
 30
0.0
 70
   128
 71
    -1
 72
     5
 73
     8
  0
VERTEX
  5
88DC
  8
0
 10
0.0
 20
0.0
 30
0.0
 70
   128
 71
     9
 72
    10
 73
   -11
  0
VERTEX
  5
88DD
  8
0
 10
0.0
 20
0.0
 30
0.0
 70
   128
 71
    -9
 72
    11
 73
    14
  0
SEQEND
  5
8982
  8
0
  0
POLYLINE
  5
88DE
  8
0
 66
     1
 10
0.0
 20
0.0
 30
0.0
 70
    64
 71
    24
 72
    24
  0
VERTEX
  5
88DF
  8
0
 10
255.0000000000001
 20
0.0000000000000312
 30
-22.0
 70
   192
  0
VERTEX
  5
88E0
  8
0
 10
220.836477965032
 20
-127.5
 30
-22.0
 70
   192
  0
VERTEX
  5
88E1
  8
0
 10
127.5000000000001
 20
-220.8364779650319
 30
-22.0
 70
   192
  0
VERTEX
  5
88E2
  8
0
 10
0.0000000000000991
 20
-255.0000000000001
 30
-22.0
 70
   192
  0
VERTEX
  5
88E3
  8
0
 10
-127.5
 20
-220.836477965032
 30
-22.0
 70
   192
  0
VERTEX
  5
88E4
  8
0
 10
-220.8364779650319
 20
-127.5000000000002
 30
-22.0
 70
   192
  0
VERTEX
  5
88E5
  8
0
 10
-255.0000000000001
 20
-0.000000000000184
 30
-22.0
 70
   192
  0
VERTEX
  5
88E6
  8
0
 10
-220.8364779650319
 20
127.5000000000001
 30
-22.0
 70
   192
  0
VERTEX
  5
88E7
  8
0
 10
-127.5000000000001
 20
220.8364779650319
 30
-22.0
 70
   192
  0
VERTEX
  5
88E8
  8
0
 10
-0.0000000000000283
 20
255.0000000000001
 30
-22.0
 70
   192
  0
VERTEX
  5
88E9
  8
0
 10
127.5
 20
220.836477965032
 30
-22.0
 70
   192
  0
VERTEX
  5
88EA
  8
0
 10
220.8364779650319
 20
127.5000000000001
 30
-22.0
 70
   192
  0
VERTEX
  5
88EB
  8
0
 10
-238.0000000000001
 20
-0.0000000000001718
 30
-22.0
 70
   192
  0
VERTEX
  5
88EC
  8
0
 10
-206.1140461006964
 20
-119.0000000000002
 30
-22.0
 70
   192
  0
VERTEX
  5
88ED
  8
0
 10
-119.0
 20
-206.1140461006966
 30
-22.0
 70
   192
  0
VERTEX
  5
88EE
  8
0
 10
0.0000000000000925
 20
-238.0000000000001
 30
-22.0
 70
   192
  0
VERTEX
  5
88EF
  8
0
 10
119.0000000000001
 20
-206.1140461006965
 30
-22.0
 70
   192
  0
VERTEX
  5
88F0
  8
0
 10
206.1140461006965
 20
-119.0
 30
-22.0
 70
   192
  0
VERTEX
  5
88F1
  8
0
 10
238.0000000000001
 20
0.0000000000000291
 30
-22.0
 70
   192
  0
VERTEX
  5
88F2
  8
0
 10
206.1140461006965
 20
119.0000000000001
 30
-22.0
 70
   192
  0
VERTEX
  5
88F3
  8
0
 10
119.0
 20
206.1140461006965
 30
-22.0
 70
   192
  0
VERTEX
  5
88F4
  8
0
 10
-0.0000000000000264
 20
238.0000000000001
 30
-22.0
 70
   192
  0
VERTEX
  5
88F5
  8
0
 10
-119.0000000000001
 20
206.1140461006965
 30
-22.0
 70
   192
  0
VERTEX
  5
88F6
  8
0
 10
-206.1140461006965
 20
119.0000000000001
 30
-22.0
 70
   192
  0
VERTEX
  5
88F7
  8
0
 10
0.0
 20
0.0
 30
0.0
 70
   128
 71
    -7
 72
    13
 73
   -14
  0
VERTEX
  5
88F8
  8
0
 10
0.0
 20
0.0
 30
0.0
 70
   128
 71
     6
 72
    -7
 73
   -14
  0
VERTEX
  5
88F9
  8
0
 10
0.0
 20
0.0
 30
0.0
 70
   128
 71
   -15
 72
     5
 73
    -6
  0
VERTEX
  5
88FA
  8
0
 10
0.0
 20
0.0
 30
0.0
 70
   128
 71
    14
 72
   -15
 73
    -6
  0
VERTEX
  5
88FB
  8
0
 10
0.0
 20
0.0
 30
0.0
 70
   128
 71
   -16
 72
     4
 73
    -5
  0
VERTEX
  5
88FC
  8
0
 10
0.0
 20
0.0
 30
0.0
 70
   128
 71
    15
 72
   -16
 73
    -5
  0
VERTEX
  5
88FD
  8
0
 10
0.0
 20
0.0
 30
0.0
 70
   128
 71
   -17
 72
     3
 73
    -4
  0
VERTEX
  5
88FE
  8
0
 10
0.0
 20
0.0
 30
0.0
 70
   128
 71
    16
 72
   -17
 73
    -4
  0
VERTEX
  5
88FF
  8
0
 10
0.0
 20
0.0
 30
0.0
 70
   128
 71
   -18
 72
     2
 73
    -3
  0
VERTEX
  5
8900
  8
0
 10
0.0
 20
0.0
 30
0.0
 70
   128
 71
    17
 72
   -18
 73
    -3
  0
VERTEX
  5
8901
  8
0
 10
0.0
 20
0.0
 30
0.0
 70
   128
 71
   -19
 72
     1
 73
    -2
  0
VERTEX
  5
8902
  8
0
 10
0.0
 20
0.0
 30
0.0
 70
   128
 71
    18
 72
   -19
 73
    -2
  0
VERTEX
  5
8903
  8
0
 10
0.0
 20
0.0
 30
0.0
 70
   128
 71
   -20
 72
    12
 73
    -1
  0
VERTEX
  5
8904
  8
0
 10
0.0
 20
0.0
 30
0.0
 70
   128
 71
    19
 72
   -20
 73
    -1
  0
VERTEX
  5
8905
  8
0
 10
0.0
 20
0.0
 30
0.0
 70
   128
 71
   -21
 72
    11
 73
   -12
  0
VERTEX
  5
8906
  8
0
 10
0.0
 20
0.0
 30
0.0
 70
   128
 71
    20
 72
   -21
 73
   -12
  0
VERTEX
  5
8907
  8
0
 10
0.0
 20
0.0
 30
0.0
 70
   128
 71
   -22
 72
    10
 73
   -11
  0
VERTEX
  5
8908
  8
0
 10
0.0
 20
0.0
 30
0.0
 70
   128
 71
    21
 72
   -22
 73
   -11
  0
VERTEX
  5
8909
  8
0
 10
0.0
 20
0.0
 30
0.0
 70
   128
 71
   -23
 72
     9
 73
   -10
  0
VERTEX
  5
890A
  8
0
 10
0.0
 20
0.0
 30
0.0
 70
   128
 71
    22
 72
   -23
 73
   -10
  0
VERTEX
  5
890B
  8
0
 10
0.0
 20
0.0
 30
0.0
 70
   128
 71
   -24
 72
     8
 73
    -9
  0
VERTEX
  5
890C
  8
0
 10
0.0
 20
0.0
 30
0.0
 70
   128
 71
    23
 72
   -24
 73
    -9
  0
VERTEX
  5
890D
  8
0
 10
0.0
 20
0.0
 30
0.0
 70
   128
 71
   -13
 72
     7
 73
    -8
  0
VERTEX
  5
890E
  8
0
 10
0.0
 20
0.0
 30
0.0
 70
   128
 71
    24
 72
   -13
 73
    -8
  0
SEQEND
  5
8983
  8
0
  0
POLYLINE
  5
890F
  8
0
 66
     1
 10
0.0
 20
0.0
 30
0.0
 70
    64
 71
    12
 72
    10
  0
VERTEX
  5
8910
  8
0
 10
-238.0000000000001
 20
0.0000000000000291
 30
-17.0
 70
   192
  0
VERTEX
  5
8911
  8
0
 10
-206.1140461006965
 20
-119.0
 30
-17.0
 70
   192
  0
VERTEX
  5
8912
  8
0
 10
-119.0000000000001
 20
-206.1140461006965
 30
-17.0
 70
   192
  0
VERTEX
  5
8913
  8
0
 10
-0.0000000000000925
 20
-238.0000000000001
 30
-17.0
 70
   192
  0
VERTEX
  5
8914
  8
0
 10
119.0
 20
-206.1140461006966
 30
-17.0
 70
   192
  0
VERTEX
  5
8915
  8
0
 10
206.1140461006964
 20
-119.0000000000002
 30
-17.0
 70
   192
  0
VERTEX
  5
8916
  8
0
 10
238.0000000000001
 20
0.0
 30
-17.0
 70
   192
  0
VERTEX
  5
8917
  8
0
 10
206.1140461006965
 20
119.0
 30
-17.0
 70
   192
  0
VERTEX
  5
8918
  8
0
 10
119.0000000000001
 20
206.1140461006965
 30
-17.0
 70
   192
  0
VERTEX
  5
8919
  8
0
 10
0.0000000000000661
 20
238.0000000000001
 30
-17.0
 70
   192
  0
VERTEX
  5
891A
  8
0
 10
-119.0
 20
206.1140461006965
 30
-17.0
 70
   192
  0
VERTEX
  5
891B
  8
0
 10
-206.1140461006965
 20
119.0000000000002
 30
-17.0
 70
   192
  0
VERTEX
  5
891C
  8
0
 10
0.0
 20
0.0
 30
0.0
 70
   128
 71
     1
 72
    12
 73
   -11
  0
VERTEX
  5
891D
  8
0
 10
0.0
 20
0.0
 30
0.0
 70
   128
 71
    -1
 72
    11
 73
   -10
  0
VERTEX
  5
891E
  8
0
 10
0.0
 20
0.0
 30
0.0
 70
   128
 71
    -1
 72
    10
 73
    -9
  0
VERTEX
  5
891F
  8
0
 10
0.0
 20
0.0
 30
0.0
 70
   128
 71
    -1
 72
     9
 73
    -8
  0
VERTEX
  5
8920
  8
0
 10
0.0
 20
0.0
 30
0.0
 70
   128
 71
    -1
 72
     8
 73
    -7
  0
VERTEX
  5
8921
  8
0
 10
0.0
 20
0.0
 30
0.0
 70
   128
 71
    -1
 72
     7
 73
    -6
  0
VERTEX
  5
8922
  8
0
 10
0.0
 20
0.0
 30
0.0
 70
   128
 71
    -1
 72
     6
 73
    -5
  0
VERTEX
  5
8923
  8
0
 10
0.0
 20
0.0
 30
0.0
 70
   128
 71
    -1
 72
     5
 73
    -4
  0
VERTEX
  5
8924
  8
0
 10
0.0
 20
0.0
 30
0.0
 70
   128
 71
    -1
 72
     4
 73
    -3
  0
VERTEX
  5
8925
  8
0
 10
0.0
 20
0.0
 30
0.0
 70
   128
 71
    -1
 72
     3
 73
     2
  0
SEQEND
  5
8984
  8
0
  0
POLYLINE
  5
8926
  8
0
 66
     1
 10
0.0
 20
0.0
 30
0.0
 70
    64
 71
    14
 72
    12
  0
VERTEX
  5
8927
  8
0
 10
238.0000000000001
 20
0.0000000000000793
 30
-22.0
 70
   192
  0
VERTEX
  5
8928
  8
0
 10
238.0000000000001
 20
0.0
 30
-17.0
 70
   192
  0
VERTEX
  5
8929
  8
0
 10
206.1140461006965
 20
119.0
 30
-17.0
 70
   192
  0
VERTEX
  5
892A
  8
0
 10
206.1140461006965
 20
119.0000000000001
 30
-22.0
 70
   192
  0
VERTEX
  5
892B
  8
0
 10
0.0000000000000661
 20
238.0000000000001
 30
-17.0
 70
   192
  0
VERTEX
  5
892C
  8
0
 10
-0.0000000000000264
 20
238.0000000000001
 30
-22.0
 70
   192
  0
VERTEX
  5
892D
  8
0
 10
119.0
 20
206.1140461006965
 30
-22.0
 70
   192
  0
VERTEX
  5
892E
  8
0
 10
119.0000000000001
 20
206.1140461006965
 30
-17.0
 70
   192
  0
VERTEX
  5
892F
  8
0
 10
-119.0
 20
206.1140461006965
 30
-17.0
 70
   192
  0
VERTEX
  5
8930
  8
0
 10
-119.0000000000001
 20
206.1140461006965
 30
-22.0
 70
   192
  0
VERTEX
  5
8931
  8
0
 10
-238.0000000000001
 20
0.0000000000000291
 30
-17.0
 70
   192
  0
VERTEX
  5
8932
  8
0
 10
-238.0000000000001
 20
0.0000000000000291
 30
-22.0
 70
   192
  0
VERTEX
  5
8933
  8
0
 10
-206.1140461006965
 20
119.0000000000001
 30
-22.0
 70
   192
  0
VERTEX
  5
8934
  8
0
 10
-206.1140461006965
 20
119.0000000000002
 30
-17.0
 70
   192
  0
VERTEX
  5
8935
  8
0
 10
0.0
 20
0.0
 30
0.0
 70
   128
 71
     1
 72
     2
 73
    -3
  0
VERTEX
  5
8936
  8
0
 10
0.0
 20
0.0
 30
0.0
 70
   128
 71
     4
 72
    -1
 73
     3
  0
VERTEX
  5
8937
  8
0
 10
0.0
 20
0.0
 30
0.0
 70
   128
 71
     5
 72
     6
 73
    -7
  0
VERTEX
  5
8938
  8
0
 10
0.0
 20
0.0
 30
0.0
 70
   128
 71
     8
 72
    -5
 73
     7
  0
VERTEX
  5
8939
  8
0
 10
0.0
 20
0.0
 30
0.0
 70
   128
 71
     6
 72
     5
 73
    -9
  0
VERTEX
  5
893A
  8
0
 10
0.0
 20
0.0
 30
0.0
 70
   128
 71
    10
 72
    -6
 73
     9
  0
VERTEX
  5
893B
  8
0
 10
0.0
 20
0.0
 30
0.0
 70
   128
 71
    11
 72
    12
 73
   -13
  0
VERTEX
  5
893C
  8
0
 10
0.0
 20
0.0
 30
0.0
 70
   128
 71
    14
 72
   -11
 73
    13
  0
VERTEX
  5
893D
  8
0
 10
0.0
 20
0.0
 30
0.0
 70
   128
 71
     7
 72
     4
 73
    -3
  0
VERTEX
  5
893E
  8
0
 10
0.0
 20
0.0
 30
0.0
 70
   128
 71
     8
 72
    -7
 73
     3
  0
VERTEX
  5
893F
  8
0
 10
0.0
 20
0.0
 30
0.0
 70
   128
 71
    13
 72
    10
 73
    -9
  0
VERTEX
  5
8940
  8
0
 10
0.0
 20
0.0
 30
0.0
 70
   128
 71
    14
 72
   -13
 73
     9
  0
SEQEND
  5
8985
  8
0
  0
ENDBLK
  5
8975
  8
0
  0
ENDSEC
  0
SECTION
  2
ENTITIES
  0
INSERT
  5
80CF
  8
0
  2
*X1
 10
0.0
 20
0.0
 30
0.0
  0
INSERT
  5
80D0
  8
0
  2
*X2
 10
0.0
 20
0.0
 30
0.0
  0
INSERT
  5
80D1
  8
0
  2
*X3
 10
0.0
 20
0.0
 30
0.0
  0
INSERT
  5
80D2
  8
0
  2
*X4
 10
0.0
 20
0.0
 30
0.0
  0
ENDSEC
  0
EOF
