  0
SECTION
  2
HEADER
  9
$ACADVER
  1
AC1009
  9
$DWGCODEPAGE
  3
ansi_1250
  9
$INSBASE
 10
0.0
 20
0.0
 30
0.0
  9
$EXTMIN
 10
-350.0
 20
-350.0
 30
-30.00000000000001
  9
$EXTMAX
 10
350.0
 20
350.0
 30
0.0000000000000568
  9
$LIMMIN
 10
0.0
 20
0.0
  9
$LIMMAX
 10
420.0
 20
297.0
  9
$ORTHOMODE
 70
     0
  9
$REGENMODE
 70
     1
  9
$FILLMODE
 70
     1
  9
$QTEXTMODE
 70
     0
  9
$MIRRTEXT
 70
     0
  9
$DRAGMODE
 70
     2
  9
$LTSCALE
 40
1.0
  9
$OSMODE
 70
   511
  9
$ATTMODE
 70
     1
  9
$TEXTSIZE
 40
2.5
  9
$TRACEWID
 40
1.0
  9
$TEXTSTYLE
  7
STANDARD
  9
$CLAYER
  8
0
  9
$CELTYPE
  6
BYLAYER
  9
$CECOLOR
 62
   256
  9
$DIMSCALE
 40
1.0
  9
$DIMASZ
 40
2.5
  9
$DIMEXO
 40
0.625
  9
$DIMDLI
 40
3.75
  9
$DIMRND
 40
0.0
  9
$DIMDLE
 40
0.0
  9
$DIMEXE
 40
1.25
  9
$DIMTP
 40
0.0
  9
$DIMTM
 40
0.0
  9
$DIMTXT
 40
2.5
  9
$DIMCEN
 40
-2.5
  9
$DIMTSZ
 40
0.0
  9
$DIMTOL
 70
     0
  9
$DIMLIM
 70
     0
  9
$DIMTIH
 70
     0
  9
$DIMTOH
 70
     0
  9
$DIMSE1
 70
     0
  9
$DIMSE2
 70
     0
  9
$DIMTAD
 70
     1
  9
$DIMZIN
 70
     8
  9
$DIMBLK
  1

  9
$DIMASO
 70
     1
  9
$DIMSHO
 70
     1
  9
$DIMPOST
  1

  9
$DIMAPOST
  1

  9
$DIMALT
 70
     0
  9
$DIMALTD
 70
     3
  9
$DIMALTF
 40
0.03937007874016
  9
$DIMLFAC
 40
1.0
  9
$DIMTOFL
 70
     1
  9
$DIMTVP
 40
0.0
  9
$DIMTIX
 70
     0
  9
$DIMSOXD
 70
     0
  9
$DIMSAH
 70
     0
  9
$DIMBLK1
  1

  9
$DIMBLK2
  1

  9
$DIMSTYLE
  2
ISO-25
  9
$DIMCLRD
 70
     0
  9
$DIMCLRE
 70
     0
  9
$DIMCLRT
 70
     0
  9
$DIMTFAC
 40
1.0
  9
$DIMGAP
 40
0.625
  9
$LUNITS
 70
     2
  9
$LUPREC
 70
     3
  9
$SKETCHINC
 40
1.0
  9
$FILLETRAD
 40
10.0
  9
$AUNITS
 70
     0
  9
$AUPREC
 70
     0
  9
$MENU
  1
.
  9
$ELEVATION
 40
0.0
  9
$PELEVATION
 40
0.0
  9
$THICKNESS
 40
0.0
  9
$LIMCHECK
 70
     0
  9
$CHAMFERA
 40
10.0
  9
$CHAMFERB
 40
10.0
  9
$SKPOLY
 70
     0
  9
$TDCREATE
 40
2455022.720692848
  9
$TDUPDATE
 40
2460521.4955211
  9
$TDINDWG
 40
0.1662397338
  9
$TDUSRTIMER
 40
0.1662397338
  9
$USRTIMER
 70
     1
  9
$ANGBASE
 50
0.0
  9
$ANGDIR
 70
     0
  9
$PDMODE
 70
     0
  9
$PDSIZE
 40
0.0
  9
$PLINEWID
 40
0.0
  9
$COORDS
 70
     1
  9
$SPLFRAME
 70
     0
  9
$SPLINETYPE
 70
     6
  9
$SPLINESEGS
 70
     8
  9
$ATTDIA
 70
     0
  9
$ATTREQ
 70
     1
  9
$HANDLING
 70
     1
  9
$HANDSEED
  5
923D
  9
$SURFTAB1
 70
     6
  9
$SURFTAB2
 70
     6
  9
$SURFTYPE
 70
     6
  9
$SURFU
 70
     6
  9
$SURFV
 70
     6
  9
$UCSNAME
  2

  9
$UCSORG
 10
0.0
 20
0.0
 30
0.0
  9
$UCSXDIR
 10
1.0
 20
0.0
 30
0.0
  9
$UCSYDIR
 10
0.0
 20
1.0
 30
0.0
  9
$PUCSNAME
  2

  9
$PUCSORG
 10
0.0
 20
0.0
 30
0.0
  9
$PUCSXDIR
 10
1.0
 20
0.0
 30
0.0
  9
$PUCSYDIR
 10
0.0
 20
1.0
 30
0.0
  9
$USERI1
 70
     0
  9
$USERI2
 70
     0
  9
$USERI3
 70
     0
  9
$USERI4
 70
     0
  9
$USERI5
 70
     0
  9
$USERR1
 40
0.0
  9
$USERR2
 40
0.0
  9
$USERR3
 40
0.0
  9
$USERR4
 40
0.0
  9
$USERR5
 40
0.0
  9
$WORLDVIEW
 70
     1
  9
$SHADEDGE
 70
     3
  9
$SHADEDIF
 70
    70
  9
$TILEMODE
 70
     1
  9
$MAXACTVP
 70
    64
  9
$PLIMCHECK
 70
     0
  9
$PEXTMIN
 10
1.000000000000000E+20
 20
1.000000000000000E+20
 30
1.000000000000000E+20
  9
$PEXTMAX
 10
-1.000000000000000E+20
 20
-1.000000000000000E+20
 30
-1.000000000000000E+20
  9
$PLIMMIN
 10
0.0
 20
0.0
  9
$PLIMMAX
 10
0.0
 20
0.0
  9
$UNITMODE
 70
     0
  9
$VISRETAIN
 70
     1
  9
$PLINEGEN
 70
     0
  9
$PSLTSCALE
 70
     1
  0
ENDSEC
  0
SECTION
  2
TABLES
  0
TABLE
  2
VPORT
 70
     1
  0
VPORT
  2
*ACTIVE
 70
     0
 10
0.0
 20
0.0
 11
1.0
 21
1.0
 12
-116.6110757937285
 22
90.81470093901663
 13
0.0
 23
0.0
 14
10.0
 24
10.0
 15
10.0
 25
10.0
 16
0.5773502691896262
 26
0.5773502691896262
 36
0.5773502691896262
 17
-41.66599977993164
 27
123.2469651304761
 37
-82.93435654674934
 40
770.3645241053097
 41
1.88293897882939
 42
50.0
 43
0.0
 44
0.0
 50
0.0
 51
0.0
 71
    16
 72
  1000
 73
     1
 74
     3
 75
     0
 76
     0
 77
     0
 78
     0
  0
ENDTAB
  0
TABLE
  2
LTYPE
 70
     1
  0
LTYPE
  2
CONTINUOUS
 70
     0
  3
Solid line
 72
    65
 73
     0
 40
0.0
  0
ENDTAB
  0
TABLE
  2
LAYER
 70
     1
  0
LAYER
  2
0
 70
     0
 62
     7
  6
CONTINUOUS
  0
ENDTAB
  0
TABLE
  2
STYLE
 70
     2
  0
STYLE
  2
STANDARD
 70
     0
 40
0.0
 41
1.0
 50
0.0
 71
     0
 42
2.5
  3
arial.ttf
  4

  0
STYLE
  2
ANNOTATIVE
 70
     0
 40
0.0
 41
1.0
 50
0.0
 71
     0
 42
2.5
  3
arial.ttf
  4

  0
ENDTAB
  0
TABLE
  2
VIEW
 70
     0
  0
ENDTAB
  0
TABLE
  2
UCS
 70
     0
  0
ENDTAB
  0
TABLE
  2
APPID
 70
     2
  0
APPID
  2
ACAD
 70
     0
  0
APPID
  2
ACADANNOTATIVE
 70
     0
  0
ENDTAB
  0
TABLE
  2
DIMSTYLE
 70
     2
  0
DIMSTYLE
  2
ISO-25
 70
     0
  3

  4

  5

  6

  7

 40
1.0
 41
2.5
 42
0.625
 43
3.75
 44
1.25
 45
0.0
 46
0.0
 47
0.0
 48
0.0
140
2.5
141
-2.5
142
0.0
143
0.03937007874016
144
1.0
145
0.0
146
1.0
147
0.625
 71
     0
 72
     0
 73
     0
 74
     0
 75
     0
 76
     0
 77
     1
 78
     8
170
     0
171
     3
172
     1
173
     0
174
     0
175
     0
176
     0
177
     0
178
     0
  0
DIMSTYLE
  2
ANNOTATIVE
 70
     0
  3

  4

  5

  6

  7

 40
0.0
 41
2.5
 42
0.625
 43
3.75
 44
1.25
 45
0.0
 46
0.0
 47
0.0
 48
0.0
140
2.5
141
-2.5
142
0.0
143
0.03937007874016
144
1.0
145
0.0
146
1.0
147
0.625
 71
     0
 72
     0
 73
     0
 74
     0
 75
     0
 76
     0
 77
     1
 78
     8
170
     0
171
     3
172
     1
173
     0
174
     0
175
     0
176
     0
177
     0
178
     0
  0
ENDTAB
  0
ENDSEC
  0
SECTION
  2
BLOCKS
  0
BLOCK
  8
0
  2
$MODEL_SPACE
 70
     0
 10
0.0
 20
0.0
 30
0.0
  3
$MODEL_SPACE
  1

  0
ENDBLK
  5
21
  8
0
  0
BLOCK
 67
     1
  8
0
  2
$PAPER_SPACE
 70
     0
 10
0.0
 20
0.0
 30
0.0
  3
$PAPER_SPACE
  1

  0
ENDBLK
  5
1D
 67
     1
  8
0
  0
BLOCK
  8
0
  2
*X1
 70
     1
 10
0.0
 20
0.0
 30
0.0
  3
*X1
  1

  0
POLYLINE
  5
8DE8
  8
0
 66
     1
 10
0.0
 20
0.0
 30
0.0
 70
    64
 71
     6
 72
     4
  0
VERTEX
  5
8DE9
  8
0
 10
-142.9999999999999
 20
170.0
 30
-27.0
 70
   192
  0
VERTEX
  5
8DEA
  8
0
 10
-176.9999999999999
 20
170.0
 30
-27.0
 70
   192
  0
VERTEX
  5
8DEB
  8
0
 10
-176.9999999999999
 20
170.0
 30
-20.0
 70
   192
  0
VERTEX
  5
8DEC
  8
0
 10
-179.9999999999999
 20
170.0
 30
-20.0
 70
   192
  0
VERTEX
  5
8DED
  8
0
 10
-179.9999999999999
 20
170.0
 30
-30.0
 70
   192
  0
VERTEX
  5
8DEE
  8
0
 10
-142.9999999999999
 20
170.0
 30
-30.0
 70
   192
  0
VERTEX
  5
8DEF
  8
0
 10
0.0
 20
0.0
 30
0.0
 70
   128
 71
     6
 72
     1
 73
    -2
  0
VERTEX
  5
8DF0
  8
0
 10
0.0
 20
0.0
 30
0.0
 70
   128
 71
     5
 72
    -6
 73
    -2
  0
VERTEX
  5
8DF1
  8
0
 10
0.0
 20
0.0
 30
0.0
 70
   128
 71
     3
 72
     4
 73
    -5
  0
VERTEX
  5
8DF2
  8
0
 10
0.0
 20
0.0
 30
0.0
 70
   128
 71
     2
 72
    -3
 73
    -5
  0
SEQEND
  5
91FA
  8
0
  0
POLYLINE
  5
8DF3
  8
0
 66
     1
 10
0.0
 20
0.0
 30
0.0
 70
    64
 71
     6
 72
     4
  0
VERTEX
  5
8DF4
  8
0
 10
-179.9999999999999
 20
134.9999999999999
 30
-17.0
 70
   192
  0
VERTEX
  5
8DF5
  8
0
 10
-179.9999999999999
 20
195.0
 30
-17.0
 70
   192
  0
VERTEX
  5
8DF6
  8
0
 10
-179.9999999999999
 20
195.0
 30
-30.0
 70
   192
  0
VERTEX
  5
8DF7
  8
0
 10
-179.9999999999999
 20
170.0
 30
-30.0
 70
   192
  0
VERTEX
  5
8DF8
  8
0
 10
-179.9999999999999
 20
170.0
 30
-20.0
 70
   192
  0
VERTEX
  5
8DF9
  8
0
 10
-179.9999999999999
 20
134.9999999999999
 30
-20.0
 70
   192
  0
VERTEX
  5
8DFA
  8
0
 10
0.0
 20
0.0
 30
0.0
 70
   128
 71
     3
 72
     4
 73
    -5
  0
VERTEX
  5
8DFB
  8
0
 10
0.0
 20
0.0
 30
0.0
 70
   128
 71
     2
 72
    -3
 73
    -5
  0
VERTEX
  5
8DFC
  8
0
 10
0.0
 20
0.0
 30
0.0
 70
   128
 71
     6
 72
     1
 73
    -2
  0
VERTEX
  5
8DFD
  8
0
 10
0.0
 20
0.0
 30
0.0
 70
   128
 71
     5
 72
    -6
 73
    -2
  0
SEQEND
  5
91FB
  8
0
  0
POLYLINE
  5
8DFE
  8
0
 66
     1
 10
0.0
 20
0.0
 30
0.0
 70
    64
 71
     4
 72
     2
  0
VERTEX
  5
8DFF
  8
0
 10
-179.9999999999999
 20
195.0
 30
-17.0
 70
   192
  0
VERTEX
  5
8E00
  8
0
 10
-179.9999999999999
 20
195.0
 30
-30.0
 70
   192
  0
VERTEX
  5
8E01
  8
0
 10
-99.99999999999993
 20
195.0
 30
-30.0
 70
   192
  0
VERTEX
  5
8E02
  8
0
 10
-99.99999999999993
 20
195.0
 30
-17.0
 70
   192
  0
VERTEX
  5
8E03
  8
0
 10
0.0
 20
0.0
 30
0.0
 70
   128
 71
     1
 72
     4
 73
    -3
  0
VERTEX
  5
8E04
  8
0
 10
0.0
 20
0.0
 30
0.0
 70
   128
 71
    -1
 72
     3
 73
     2
  0
SEQEND
  5
91FC
  8
0
  0
POLYLINE
  5
8E05
  8
0
 66
     1
 10
0.0
 20
0.0
 30
0.0
 70
    64
 71
     6
 72
     4
  0
VERTEX
  5
8E06
  8
0
 10
-99.99999999999993
 20
195.0
 30
-17.0
 70
   192
  0
VERTEX
  5
8E07
  8
0
 10
-99.99999999999991
 20
195.0
 30
-30.0
 70
   192
  0
VERTEX
  5
8E08
  8
0
 10
-99.99999999999993
 20
170.0
 30
-30.0
 70
   192
  0
VERTEX
  5
8E09
  8
0
 10
-99.99999999999994
 20
170.0
 30
-20.0
 70
   192
  0
VERTEX
  5
8E0A
  8
0
 10
-99.99999999999994
 20
134.9999999999999
 30
-20.0
 70
   192
  0
VERTEX
  5
8E0B
  8
0
 10
-99.99999999999996
 20
134.9999999999999
 30
-17.0
 70
   192
  0
VERTEX
  5
8E0C
  8
0
 10
0.0
 20
0.0
 30
0.0
 70
   128
 71
     4
 72
     3
 73
    -2
  0
VERTEX
  5
8E0D
  8
0
 10
0.0
 20
0.0
 30
0.0
 70
   128
 71
    -4
 72
     2
 73
    -1
  0
VERTEX
  5
8E0E
  8
0
 10
0.0
 20
0.0
 30
0.0
 70
   128
 71
     1
 72
     6
 73
    -5
  0
VERTEX
  5
8E0F
  8
0
 10
0.0
 20
0.0
 30
0.0
 70
   128
 71
    -1
 72
     5
 73
    -4
  0
SEQEND
  5
91FD
  8
0
  0
POLYLINE
  5
8E10
  8
0
 66
     1
 10
0.0
 20
0.0
 30
0.0
 70
    64
 71
     4
 72
     2
  0
VERTEX
  5
8E11
  8
0
 10
-99.99999999999994
 20
134.9999999999999
 30
-17.0
 70
   192
  0
VERTEX
  5
8E12
  8
0
 10
-179.9999999999999
 20
134.9999999999999
 30
-17.0
 70
   192
  0
VERTEX
  5
8E13
  8
0
 10
-179.9999999999999
 20
134.9999999999999
 30
-20.0
 70
   192
  0
VERTEX
  5
8E14
  8
0
 10
-99.99999999999994
 20
134.9999999999999
 30
-20.0
 70
   192
  0
VERTEX
  5
8E15
  8
0
 10
0.0
 20
0.0
 30
0.0
 70
   128
 71
     3
 72
     4
 73
    -1
  0
VERTEX
  5
8E16
  8
0
 10
0.0
 20
0.0
 30
0.0
 70
   128
 71
     2
 72
    -3
 73
     1
  0
SEQEND
  5
91FE
  8
0
  0
POLYLINE
  5
8E17
  8
0
 66
     1
 10
0.0
 20
0.0
 30
0.0
 70
    64
 71
     8
 72
     6
  0
VERTEX
  5
8E18
  8
0
 10
-102.9999999999999
 20
192.0
 30
-20.0
 70
   192
  0
VERTEX
  5
8E19
  8
0
 10
-176.9999999999999
 20
192.0
 30
-20.0
 70
   192
  0
VERTEX
  5
8E1A
  8
0
 10
-176.9999999999999
 20
170.0
 30
-20.0
 70
   192
  0
VERTEX
  5
8E1B
  8
0
 10
-179.9999999999999
 20
170.0
 30
-20.0
 70
   192
  0
VERTEX
  5
8E1C
  8
0
 10
-179.9999999999999
 20
134.9999999999999
 30
-20.0
 70
   192
  0
VERTEX
  5
8E1D
  8
0
 10
-99.99999999999996
 20
134.9999999999999
 30
-20.0
 70
   192
  0
VERTEX
  5
8E1E
  8
0
 10
-99.99999999999993
 20
170.0
 30
-20.0
 70
   192
  0
VERTEX
  5
8E1F
  8
0
 10
-102.9999999999999
 20
170.0
 30
-20.0
 70
   192
  0
VERTEX
  5
8E20
  8
0
 10
0.0
 20
0.0
 30
0.0
 70
   128
 71
     8
 72
     7
 73
    -6
  0
VERTEX
  5
8E21
  8
0
 10
0.0
 20
0.0
 30
0.0
 70
   128
 71
     3
 72
     2
 73
    -1
  0
VERTEX
  5
8E22
  8
0
 10
0.0
 20
0.0
 30
0.0
 70
   128
 71
    -3
 72
     1
 73
    -8
  0
VERTEX
  5
8E23
  8
0
 10
0.0
 20
0.0
 30
0.0
 70
   128
 71
    -8
 72
     6
 73
    -5
  0
VERTEX
  5
8E24
  8
0
 10
0.0
 20
0.0
 30
0.0
 70
   128
 71
    -8
 72
    -5
 73
    -3
  0
VERTEX
  5
8E25
  8
0
 10
0.0
 20
0.0
 30
0.0
 70
   128
 71
     5
 72
     4
 73
    -3
  0
SEQEND
  5
91FF
  8
0
  0
POLYLINE
  5
8E26
  8
0
 66
     1
 10
0.0
 20
0.0
 30
0.0
 70
    64
 71
     4
 72
     2
  0
VERTEX
  5
8E27
  8
0
 10
-179.9999999999999
 20
195.0
 30
-17.0
 70
   192
  0
VERTEX
  5
8E28
  8
0
 10
-179.9999999999999
 20
134.9999999999999
 30
-17.0
 70
   192
  0
VERTEX
  5
8E29
  8
0
 10
-99.99999999999994
 20
134.9999999999999
 30
-17.0
 70
   192
  0
VERTEX
  5
8E2A
  8
0
 10
-99.99999999999993
 20
195.0
 30
-17.0
 70
   192
  0
VERTEX
  5
8E2B
  8
0
 10
0.0
 20
0.0
 30
0.0
 70
   128
 71
     3
 72
     4
 73
    -1
  0
VERTEX
  5
8E2C
  8
0
 10
0.0
 20
0.0
 30
0.0
 70
   128
 71
     2
 72
    -3
 73
     1
  0
SEQEND
  5
9200
  8
0
  0
POLYLINE
  5
8E2D
  8
0
 66
     1
 10
0.0
 20
0.0
 30
0.0
 70
    64
 71
     4
 72
     2
  0
VERTEX
  5
8E2E
  8
0
 10
-136.9999999999999
 20
190.0
 30
-27.0
 70
   192
  0
VERTEX
  5
8E2F
  8
0
 10
-142.9999999999999
 20
190.0
 30
-27.0
 70
   192
  0
VERTEX
  5
8E30
  8
0
 10
-142.9999999999999
 20
190.0
 30
-30.0
 70
   192
  0
VERTEX
  5
8E31
  8
0
 10
-136.9999999999999
 20
190.0
 30
-30.0
 70
   192
  0
VERTEX
  5
8E32
  8
0
 10
0.0
 20
0.0
 30
0.0
 70
   128
 71
     3
 72
     4
 73
    -1
  0
VERTEX
  5
8E33
  8
0
 10
0.0
 20
0.0
 30
0.0
 70
   128
 71
     2
 72
    -3
 73
     1
  0
SEQEND
  5
9201
  8
0
  0
POLYLINE
  5
8E34
  8
0
 66
     1
 10
0.0
 20
0.0
 30
0.0
 70
    64
 71
     4
 72
     2
  0
VERTEX
  5
8E35
  8
0
 10
-142.9999999999999
 20
190.0
 30
-27.0
 70
   192
  0
VERTEX
  5
8E36
  8
0
 10
-142.9999999999999
 20
170.0
 30
-27.0
 70
   192
  0
VERTEX
  5
8E37
  8
0
 10
-142.9999999999999
 20
170.0
 30
-30.0
 70
   192
  0
VERTEX
  5
8E38
  8
0
 10
-142.9999999999999
 20
190.0
 30
-30.0
 70
   192
  0
VERTEX
  5
8E39
  8
0
 10
0.0
 20
0.0
 30
0.0
 70
   128
 71
     3
 72
     4
 73
    -1
  0
VERTEX
  5
8E3A
  8
0
 10
0.0
 20
0.0
 30
0.0
 70
   128
 71
     2
 72
    -3
 73
     1
  0
SEQEND
  5
9202
  8
0
  0
POLYLINE
  5
8E3B
  8
0
 66
     1
 10
0.0
 20
0.0
 30
0.0
 70
    64
 71
     6
 72
     4
  0
VERTEX
  5
8E3C
  8
0
 10
-102.9999999999999
 20
170.0
 30
-20.0
 70
   192
  0
VERTEX
  5
8E3D
  8
0
 10
-102.9999999999999
 20
170.0
 30
-27.0
 70
   192
  0
VERTEX
  5
8E3E
  8
0
 10
-136.9999999999999
 20
170.0
 30
-27.0
 70
   192
  0
VERTEX
  5
8E3F
  8
0
 10
-136.9999999999999
 20
170.0
 30
-30.0
 70
   192
  0
VERTEX
  5
8E40
  8
0
 10
-99.99999999999993
 20
170.0
 30
-30.0
 70
   192
  0
VERTEX
  5
8E41
  8
0
 10
-99.99999999999993
 20
170.0
 30
-20.0
 70
   192
  0
VERTEX
  5
8E42
  8
0
 10
0.0
 20
0.0
 30
0.0
 70
   128
 71
     6
 72
     1
 73
    -2
  0
VERTEX
  5
8E43
  8
0
 10
0.0
 20
0.0
 30
0.0
 70
   128
 71
     5
 72
    -6
 73
    -2
  0
VERTEX
  5
8E44
  8
0
 10
0.0
 20
0.0
 30
0.0
 70
   128
 71
     3
 72
     4
 73
    -5
  0
VERTEX
  5
8E45
  8
0
 10
0.0
 20
0.0
 30
0.0
 70
   128
 71
     2
 72
    -3
 73
    -5
  0
SEQEND
  5
9203
  8
0
  0
POLYLINE
  5
8E46
  8
0
 66
     1
 10
0.0
 20
0.0
 30
0.0
 70
    64
 71
     4
 72
     2
  0
VERTEX
  5
8E47
  8
0
 10
-136.9999999999999
 20
170.0
 30
-27.0
 70
   192
  0
VERTEX
  5
8E48
  8
0
 10
-136.9999999999999
 20
190.0
 30
-27.0
 70
   192
  0
VERTEX
  5
8E49
  8
0
 10
-136.9999999999999
 20
190.0
 30
-30.0
 70
   192
  0
VERTEX
  5
8E4A
  8
0
 10
-136.9999999999999
 20
170.0
 30
-30.0
 70
   192
  0
VERTEX
  5
8E4B
  8
0
 10
0.0
 20
0.0
 30
0.0
 70
   128
 71
     3
 72
     4
 73
    -1
  0
VERTEX
  5
8E4C
  8
0
 10
0.0
 20
0.0
 30
0.0
 70
   128
 71
     2
 72
    -3
 73
     1
  0
SEQEND
  5
9204
  8
0
  0
POLYLINE
  5
8E4D
  8
0
 66
     1
 10
0.0
 20
0.0
 30
0.0
 70
    64
 71
     8
 72
     6
  0
VERTEX
  5
8E4E
  8
0
 10
-136.9999999999999
 20
190.0
 30
-30.0
 70
   192
  0
VERTEX
  5
8E4F
  8
0
 10
-142.9999999999999
 20
190.0
 30
-30.0
 70
   192
  0
VERTEX
  5
8E50
  8
0
 10
-142.9999999999999
 20
170.0
 30
-30.0
 70
   192
  0
VERTEX
  5
8E51
  8
0
 10
-179.9999999999999
 20
170.0
 30
-30.0
 70
   192
  0
VERTEX
  5
8E52
  8
0
 10
-179.9999999999999
 20
195.0
 30
-30.0
 70
   192
  0
VERTEX
  5
8E53
  8
0
 10
-99.99999999999993
 20
195.0
 30
-30.0
 70
   192
  0
VERTEX
  5
8E54
  8
0
 10
-99.99999999999991
 20
170.0
 30
-30.0
 70
   192
  0
VERTEX
  5
8E55
  8
0
 10
-136.9999999999999
 20
170.0
 30
-30.0
 70
   192
  0
VERTEX
  5
8E56
  8
0
 10
0.0
 20
0.0
 30
0.0
 70
   128
 71
     7
 72
     8
 73
    -1
  0
VERTEX
  5
8E57
  8
0
 10
0.0
 20
0.0
 30
0.0
 70
   128
 71
     6
 72
    -7
 73
    -1
  0
VERTEX
  5
8E58
  8
0
 10
0.0
 20
0.0
 30
0.0
 70
   128
 71
    -6
 72
     1
 73
    -2
  0
VERTEX
  5
8E59
  8
0
 10
0.0
 20
0.0
 30
0.0
 70
   128
 71
     5
 72
    -6
 73
    -2
  0
VERTEX
  5
8E5A
  8
0
 10
0.0
 20
0.0
 30
0.0
 70
   128
 71
     3
 72
     4
 73
    -5
  0
VERTEX
  5
8E5B
  8
0
 10
0.0
 20
0.0
 30
0.0
 70
   128
 71
     2
 72
    -3
 73
    -5
  0
SEQEND
  5
9205
  8
0
  0
POLYLINE
  5
8E5C
  8
0
 66
     1
 10
0.0
 20
0.0
 30
0.0
 70
    64
 71
     4
 72
     2
  0
VERTEX
  5
8E5D
  8
0
 10
-176.9999999999999
 20
170.0
 30
-20.0
 70
   192
  0
VERTEX
  5
8E5E
  8
0
 10
-176.9999999999999
 20
192.0
 30
-20.0
 70
   192
  0
VERTEX
  5
8E5F
  8
0
 10
-176.9999999999999
 20
192.0
 30
-27.0
 70
   192
  0
VERTEX
  5
8E60
  8
0
 10
-176.9999999999999
 20
170.0
 30
-27.0
 70
   192
  0
VERTEX
  5
8E61
  8
0
 10
0.0
 20
0.0
 30
0.0
 70
   128
 71
     1
 72
     4
 73
    -3
  0
VERTEX
  5
8E62
  8
0
 10
0.0
 20
0.0
 30
0.0
 70
   128
 71
    -1
 72
     3
 73
     2
  0
SEQEND
  5
9206
  8
0
  0
POLYLINE
  5
8E63
  8
0
 66
     1
 10
0.0
 20
0.0
 30
0.0
 70
    64
 71
     4
 72
     2
  0
VERTEX
  5
8E64
  8
0
 10
-102.9999999999999
 20
192.0
 30
-20.0
 70
   192
  0
VERTEX
  5
8E65
  8
0
 10
-176.9999999999999
 20
192.0
 30
-20.0
 70
   192
  0
VERTEX
  5
8E66
  8
0
 10
-176.9999999999999
 20
192.0
 30
-27.0
 70
   192
  0
VERTEX
  5
8E67
  8
0
 10
-102.9999999999999
 20
192.0
 30
-27.0
 70
   192
  0
VERTEX
  5
8E68
  8
0
 10
0.0
 20
0.0
 30
0.0
 70
   128
 71
     3
 72
     4
 73
    -1
  0
VERTEX
  5
8E69
  8
0
 10
0.0
 20
0.0
 30
0.0
 70
   128
 71
     2
 72
    -3
 73
     1
  0
SEQEND
  5
9207
  8
0
  0
POLYLINE
  5
8E6A
  8
0
 66
     1
 10
0.0
 20
0.0
 30
0.0
 70
    64
 71
     4
 72
     2
  0
VERTEX
  5
8E6B
  8
0
 10
-102.9999999999999
 20
170.0
 30
-20.0
 70
   192
  0
VERTEX
  5
8E6C
  8
0
 10
-102.9999999999999
 20
192.0
 30
-20.0
 70
   192
  0
VERTEX
  5
8E6D
  8
0
 10
-102.9999999999999
 20
192.0
 30
-27.0
 70
   192
  0
VERTEX
  5
8E6E
  8
0
 10
-102.9999999999999
 20
170.0
 30
-27.0
 70
   192
  0
VERTEX
  5
8E6F
  8
0
 10
0.0
 20
0.0
 30
0.0
 70
   128
 71
     3
 72
     4
 73
    -1
  0
VERTEX
  5
8E70
  8
0
 10
0.0
 20
0.0
 30
0.0
 70
   128
 71
     2
 72
    -3
 73
     1
  0
SEQEND
  5
9208
  8
0
  0
POLYLINE
  5
8E71
  8
0
 66
     1
 10
0.0
 20
0.0
 30
0.0
 70
    64
 71
     8
 72
     6
  0
VERTEX
  5
8E72
  8
0
 10
-142.9999999999999
 20
190.0
 30
-27.0
 70
   192
  0
VERTEX
  5
8E73
  8
0
 10
-142.9999999999999
 20
170.0
 30
-27.0
 70
   192
  0
VERTEX
  5
8E74
  8
0
 10
-176.9999999999999
 20
170.0
 30
-27.0
 70
   192
  0
VERTEX
  5
8E75
  8
0
 10
-176.9999999999999
 20
192.0
 30
-27.0
 70
   192
  0
VERTEX
  5
8E76
  8
0
 10
-102.9999999999999
 20
192.0
 30
-27.0
 70
   192
  0
VERTEX
  5
8E77
  8
0
 10
-102.9999999999999
 20
170.0
 30
-27.0
 70
   192
  0
VERTEX
  5
8E78
  8
0
 10
-136.9999999999999
 20
170.0
 30
-27.0
 70
   192
  0
VERTEX
  5
8E79
  8
0
 10
-136.9999999999999
 20
190.0
 30
-27.0
 70
   192
  0
VERTEX
  5
8E7A
  8
0
 10
0.0
 20
0.0
 30
0.0
 70
   128
 71
     8
 72
     7
 73
    -6
  0
VERTEX
  5
8E7B
  8
0
 10
0.0
 20
0.0
 30
0.0
 70
   128
 71
    -8
 72
     6
 73
    -5
  0
VERTEX
  5
8E7C
  8
0
 10
0.0
 20
0.0
 30
0.0
 70
   128
 71
    -5
 72
     1
 73
    -8
  0
VERTEX
  5
8E7D
  8
0
 10
0.0
 20
0.0
 30
0.0
 70
   128
 71
     5
 72
    -4
 73
    -1
  0
VERTEX
  5
8E7E
  8
0
 10
0.0
 20
0.0
 30
0.0
 70
   128
 71
     4
 72
     3
 73
    -2
  0
VERTEX
  5
8E7F
  8
0
 10
0.0
 20
0.0
 30
0.0
 70
   128
 71
    -4
 72
     2
 73
    -1
  0
SEQEND
  5
9209
  8
0
  0
ENDBLK
  5
91F9
  8
0
  0
BLOCK
  8
0
  2
*X2
 70
     1
 10
0.0
 20
0.0
 30
0.0
  3
*X2
  1

  0
POLYLINE
  5
8E81
  8
0
 66
     1
 10
0.0
 20
0.0
 30
0.0
 70
    64
 71
     8
 72
     6
  0
VERTEX
  5
8E82
  8
0
 10
99.99999999999982
 20
170.0
 30
-20.0
 70
   192
  0
VERTEX
  5
8E83
  8
0
 10
99.99999999999982
 20
134.9999999999999
 30
-20.0
 70
   192
  0
VERTEX
  5
8E84
  8
0
 10
179.9999999999999
 20
134.9999999999999
 30
-20.0
 70
   192
  0
VERTEX
  5
8E85
  8
0
 10
179.9999999999998
 20
170.0
 30
-20.0
 70
   192
  0
VERTEX
  5
8E86
  8
0
 10
176.9999999999998
 20
170.0
 30
-20.0
 70
   192
  0
VERTEX
  5
8E87
  8
0
 10
176.9999999999998
 20
192.0
 30
-20.0
 70
   192
  0
VERTEX
  5
8E88
  8
0
 10
102.9999999999998
 20
192.0
 30
-20.0
 70
   192
  0
VERTEX
  5
8E89
  8
0
 10
102.9999999999998
 20
170.0
 30
-20.0
 70
   192
  0
VERTEX
  5
8E8A
  8
0
 10
0.0
 20
0.0
 30
0.0
 70
   128
 71
     5
 72
     4
 73
    -3
  0
VERTEX
  5
8E8B
  8
0
 10
0.0
 20
0.0
 30
0.0
 70
   128
 71
    -5
 72
    -3
 73
    -8
  0
VERTEX
  5
8E8C
  8
0
 10
0.0
 20
0.0
 30
0.0
 70
   128
 71
     8
 72
     7
 73
    -6
  0
VERTEX
  5
8E8D
  8
0
 10
0.0
 20
0.0
 30
0.0
 70
   128
 71
    -8
 72
     6
 73
    -5
  0
VERTEX
  5
8E8E
  8
0
 10
0.0
 20
0.0
 30
0.0
 70
   128
 71
     3
 72
    -2
 73
    -8
  0
VERTEX
  5
8E8F
  8
0
 10
0.0
 20
0.0
 30
0.0
 70
   128
 71
     2
 72
     1
 73
    -8
  0
SEQEND
  5
920C
  8
0
  0
POLYLINE
  5
8E90
  8
0
 66
     1
 10
0.0
 20
0.0
 30
0.0
 70
    64
 71
     6
 72
     4
  0
VERTEX
  5
8E91
  8
0
 10
99.99999999999982
 20
134.9999999999999
 30
-17.0
 70
   192
  0
VERTEX
  5
8E92
  8
0
 10
99.99999999999982
 20
195.0
 30
-17.0
 70
   192
  0
VERTEX
  5
8E93
  8
0
 10
99.99999999999982
 20
195.0
 30
-30.0
 70
   192
  0
VERTEX
  5
8E94
  8
0
 10
99.99999999999982
 20
170.0
 30
-30.0
 70
   192
  0
VERTEX
  5
8E95
  8
0
 10
99.99999999999982
 20
170.0
 30
-20.0
 70
   192
  0
VERTEX
  5
8E96
  8
0
 10
99.99999999999982
 20
134.9999999999999
 30
-20.0
 70
   192
  0
VERTEX
  5
8E97
  8
0
 10
0.0
 20
0.0
 30
0.0
 70
   128
 71
     3
 72
     4
 73
    -5
  0
VERTEX
  5
8E98
  8
0
 10
0.0
 20
0.0
 30
0.0
 70
   128
 71
     2
 72
    -3
 73
    -5
  0
VERTEX
  5
8E99
  8
0
 10
0.0
 20
0.0
 30
0.0
 70
   128
 71
     6
 72
     1
 73
    -2
  0
VERTEX
  5
8E9A
  8
0
 10
0.0
 20
0.0
 30
0.0
 70
   128
 71
     5
 72
    -6
 73
    -2
  0
SEQEND
  5
920D
  8
0
  0
POLYLINE
  5
8E9B
  8
0
 66
     1
 10
0.0
 20
0.0
 30
0.0
 70
    64
 71
     4
 72
     2
  0
VERTEX
  5
8E9C
  8
0
 10
99.99999999999982
 20
195.0
 30
-17.0
 70
   192
  0
VERTEX
  5
8E9D
  8
0
 10
99.99999999999982
 20
195.0
 30
-30.0
 70
   192
  0
VERTEX
  5
8E9E
  8
0
 10
179.9999999999998
 20
195.0
 30
-30.0
 70
   192
  0
VERTEX
  5
8E9F
  8
0
 10
179.9999999999998
 20
195.0
 30
-17.0
 70
   192
  0
VERTEX
  5
8EA0
  8
0
 10
0.0
 20
0.0
 30
0.0
 70
   128
 71
     1
 72
     4
 73
    -3
  0
VERTEX
  5
8EA1
  8
0
 10
0.0
 20
0.0
 30
0.0
 70
   128
 71
    -1
 72
     3
 73
     2
  0
SEQEND
  5
920E
  8
0
  0
POLYLINE
  5
8EA2
  8
0
 66
     1
 10
0.0
 20
0.0
 30
0.0
 70
    64
 71
     6
 72
     4
  0
VERTEX
  5
8EA3
  8
0
 10
179.9999999999998
 20
195.0
 30
-17.0
 70
   192
  0
VERTEX
  5
8EA4
  8
0
 10
179.9999999999998
 20
195.0
 30
-30.0
 70
   192
  0
VERTEX
  5
8EA5
  8
0
 10
179.9999999999998
 20
170.0
 30
-30.0
 70
   192
  0
VERTEX
  5
8EA6
  8
0
 10
179.9999999999998
 20
170.0
 30
-20.0
 70
   192
  0
VERTEX
  5
8EA7
  8
0
 10
179.9999999999999
 20
134.9999999999999
 30
-20.0
 70
   192
  0
VERTEX
  5
8EA8
  8
0
 10
179.9999999999999
 20
134.9999999999999
 30
-17.0
 70
   192
  0
VERTEX
  5
8EA9
  8
0
 10
0.0
 20
0.0
 30
0.0
 70
   128
 71
     4
 72
     3
 73
    -2
  0
VERTEX
  5
8EAA
  8
0
 10
0.0
 20
0.0
 30
0.0
 70
   128
 71
    -4
 72
     2
 73
    -1
  0
VERTEX
  5
8EAB
  8
0
 10
0.0
 20
0.0
 30
0.0
 70
   128
 71
     1
 72
     6
 73
    -5
  0
VERTEX
  5
8EAC
  8
0
 10
0.0
 20
0.0
 30
0.0
 70
   128
 71
    -1
 72
     5
 73
    -4
  0
SEQEND
  5
920F
  8
0
  0
POLYLINE
  5
8EAD
  8
0
 66
     1
 10
0.0
 20
0.0
 30
0.0
 70
    64
 71
     4
 72
     2
  0
VERTEX
  5
8EAE
  8
0
 10
179.9999999999999
 20
134.9999999999999
 30
-17.0
 70
   192
  0
VERTEX
  5
8EAF
  8
0
 10
99.99999999999982
 20
134.9999999999999
 30
-17.0
 70
   192
  0
VERTEX
  5
8EB0
  8
0
 10
99.99999999999982
 20
134.9999999999999
 30
-20.0
 70
   192
  0
VERTEX
  5
8EB1
  8
0
 10
179.9999999999999
 20
134.9999999999999
 30
-20.0
 70
   192
  0
VERTEX
  5
8EB2
  8
0
 10
0.0
 20
0.0
 30
0.0
 70
   128
 71
     3
 72
     4
 73
    -1
  0
VERTEX
  5
8EB3
  8
0
 10
0.0
 20
0.0
 30
0.0
 70
   128
 71
     2
 72
    -3
 73
     1
  0
SEQEND
  5
9210
  8
0
  0
POLYLINE
  5
8EB4
  8
0
 66
     1
 10
0.0
 20
0.0
 30
0.0
 70
    64
 71
     4
 72
     2
  0
VERTEX
  5
8EB5
  8
0
 10
99.99999999999982
 20
195.0
 30
-17.0
 70
   192
  0
VERTEX
  5
8EB6
  8
0
 10
99.99999999999982
 20
134.9999999999999
 30
-17.0
 70
   192
  0
VERTEX
  5
8EB7
  8
0
 10
179.9999999999999
 20
134.9999999999999
 30
-17.0
 70
   192
  0
VERTEX
  5
8EB8
  8
0
 10
179.9999999999998
 20
195.0
 30
-17.0
 70
   192
  0
VERTEX
  5
8EB9
  8
0
 10
0.0
 20
0.0
 30
0.0
 70
   128
 71
     3
 72
     4
 73
    -1
  0
VERTEX
  5
8EBA
  8
0
 10
0.0
 20
0.0
 30
0.0
 70
   128
 71
     2
 72
    -3
 73
     1
  0
SEQEND
  5
9211
  8
0
  0
POLYLINE
  5
8EBB
  8
0
 66
     1
 10
0.0
 20
0.0
 30
0.0
 70
    64
 71
     4
 72
     2
  0
VERTEX
  5
8EBC
  8
0
 10
136.9999999999999
 20
190.0
 30
-30.0
 70
   192
  0
VERTEX
  5
8EBD
  8
0
 10
136.9999999999999
 20
170.0
 30
-30.0
 70
   192
  0
VERTEX
  5
8EBE
  8
0
 10
136.9999999999999
 20
170.0
 30
-27.0
 70
   192
  0
VERTEX
  5
8EBF
  8
0
 10
136.9999999999999
 20
190.0
 30
-27.0
 70
   192
  0
VERTEX
  5
8EC0
  8
0
 10
0.0
 20
0.0
 30
0.0
 70
   128
 71
     1
 72
     4
 73
    -3
  0
VERTEX
  5
8EC1
  8
0
 10
0.0
 20
0.0
 30
0.0
 70
   128
 71
    -1
 72
     3
 73
     2
  0
SEQEND
  5
9212
  8
0
  0
POLYLINE
  5
8EC2
  8
0
 66
     1
 10
0.0
 20
0.0
 30
0.0
 70
    64
 71
     6
 72
     4
  0
VERTEX
  5
8EC3
  8
0
 10
136.9999999999999
 20
170.0
 30
-27.0
 70
   192
  0
VERTEX
  5
8EC4
  8
0
 10
136.9999999999999
 20
170.0000000000001
 30
-30.0
 70
   192
  0
VERTEX
  5
8EC5
  8
0
 10
99.99999999999982
 20
170.0
 30
-30.0
 70
   192
  0
VERTEX
  5
8EC6
  8
0
 10
99.99999999999982
 20
170.0
 30
-20.0
 70
   192
  0
VERTEX
  5
8EC7
  8
0
 10
102.9999999999998
 20
170.0
 30
-20.0
 70
   192
  0
VERTEX
  5
8EC8
  8
0
 10
102.9999999999998
 20
170.0
 30
-27.0
 70
   192
  0
VERTEX
  5
8EC9
  8
0
 10
0.0
 20
0.0
 30
0.0
 70
   128
 71
     6
 72
     5
 73
    -4
  0
VERTEX
  5
8ECA
  8
0
 10
0.0
 20
0.0
 30
0.0
 70
   128
 71
    -6
 72
     4
 73
    -3
  0
VERTEX
  5
8ECB
  8
0
 10
0.0
 20
0.0
 30
0.0
 70
   128
 71
     3
 72
     2
 73
    -1
  0
VERTEX
  5
8ECC
  8
0
 10
0.0
 20
0.0
 30
0.0
 70
   128
 71
    -3
 72
     1
 73
    -6
  0
SEQEND
  5
9213
  8
0
  0
POLYLINE
  5
8ECD
  8
0
 66
     1
 10
0.0
 20
0.0
 30
0.0
 70
    64
 71
     6
 72
     4
  0
VERTEX
  5
8ECE
  8
0
 10
176.9999999999998
 20
170.0
 30
-20.0
 70
   192
  0
VERTEX
  5
8ECF
  8
0
 10
179.9999999999998
 20
170.0
 30
-20.0
 70
   192
  0
VERTEX
  5
8ED0
  8
0
 10
179.9999999999998
 20
170.0
 30
-30.0
 70
   192
  0
VERTEX
  5
8ED1
  8
0
 10
142.9999999999999
 20
170.0
 30
-30.0
 70
   192
  0
VERTEX
  5
8ED2
  8
0
 10
142.9999999999999
 20
170.0
 30
-27.0
 70
   192
  0
VERTEX
  5
8ED3
  8
0
 10
176.9999999999998
 20
170.0
 30
-27.0
 70
   192
  0
VERTEX
  5
8ED4
  8
0
 10
0.0
 20
0.0
 30
0.0
 70
   128
 71
     6
 72
     5
 73
    -4
  0
VERTEX
  5
8ED5
  8
0
 10
0.0
 20
0.0
 30
0.0
 70
   128
 71
    -6
 72
     4
 73
    -3
  0
VERTEX
  5
8ED6
  8
0
 10
0.0
 20
0.0
 30
0.0
 70
   128
 71
     3
 72
     2
 73
    -1
  0
VERTEX
  5
8ED7
  8
0
 10
0.0
 20
0.0
 30
0.0
 70
   128
 71
    -3
 72
     1
 73
    -6
  0
SEQEND
  5
9214
  8
0
  0
POLYLINE
  5
8ED8
  8
0
 66
     1
 10
0.0
 20
0.0
 30
0.0
 70
    64
 71
     4
 72
     2
  0
VERTEX
  5
8ED9
  8
0
 10
142.9999999999999
 20
170.0
 30
-30.0
 70
   192
  0
VERTEX
  5
8EDA
  8
0
 10
142.9999999999999
 20
190.0
 30
-30.0
 70
   192
  0
VERTEX
  5
8EDB
  8
0
 10
142.9999999999999
 20
190.0
 30
-27.0
 70
   192
  0
VERTEX
  5
8EDC
  8
0
 10
142.9999999999999
 20
170.0
 30
-27.0
 70
   192
  0
VERTEX
  5
8EDD
  8
0
 10
0.0
 20
0.0
 30
0.0
 70
   128
 71
     1
 72
     4
 73
    -3
  0
VERTEX
  5
8EDE
  8
0
 10
0.0
 20
0.0
 30
0.0
 70
   128
 71
    -1
 72
     3
 73
     2
  0
SEQEND
  5
9215
  8
0
  0
POLYLINE
  5
8EDF
  8
0
 66
     1
 10
0.0
 20
0.0
 30
0.0
 70
    64
 71
     4
 72
     2
  0
VERTEX
  5
8EE0
  8
0
 10
142.9999999999999
 20
190.0
 30
-30.0
 70
   192
  0
VERTEX
  5
8EE1
  8
0
 10
136.9999999999999
 20
190.0
 30
-30.0
 70
   192
  0
VERTEX
  5
8EE2
  8
0
 10
136.9999999999999
 20
190.0
 30
-27.0
 70
   192
  0
VERTEX
  5
8EE3
  8
0
 10
142.9999999999999
 20
190.0
 30
-27.0
 70
   192
  0
VERTEX
  5
8EE4
  8
0
 10
0.0
 20
0.0
 30
0.0
 70
   128
 71
     1
 72
     4
 73
    -3
  0
VERTEX
  5
8EE5
  8
0
 10
0.0
 20
0.0
 30
0.0
 70
   128
 71
    -1
 72
     3
 73
     2
  0
SEQEND
  5
9216
  8
0
  0
POLYLINE
  5
8EE6
  8
0
 66
     1
 10
0.0
 20
0.0
 30
0.0
 70
    64
 71
     8
 72
     6
  0
VERTEX
  5
8EE7
  8
0
 10
136.9999999999999
 20
190.0
 30
-30.0
 70
   192
  0
VERTEX
  5
8EE8
  8
0
 10
136.9999999999999
 20
170.0
 30
-30.0
 70
   192
  0
VERTEX
  5
8EE9
  8
0
 10
99.99999999999982
 20
170.0
 30
-30.0
 70
   192
  0
VERTEX
  5
8EEA
  8
0
 10
99.99999999999982
 20
195.0
 30
-30.0
 70
   192
  0
VERTEX
  5
8EEB
  8
0
 10
179.9999999999998
 20
195.0
 30
-30.0
 70
   192
  0
VERTEX
  5
8EEC
  8
0
 10
179.9999999999998
 20
170.0
 30
-30.0
 70
   192
  0
VERTEX
  5
8EED
  8
0
 10
142.9999999999999
 20
170.0
 30
-30.0
 70
   192
  0
VERTEX
  5
8EEE
  8
0
 10
142.9999999999999
 20
190.0
 30
-30.0
 70
   192
  0
VERTEX
  5
8EEF
  8
0
 10
0.0
 20
0.0
 30
0.0
 70
   128
 71
     6
 72
     7
 73
    -8
  0
VERTEX
  5
8EF0
  8
0
 10
0.0
 20
0.0
 30
0.0
 70
   128
 71
     5
 72
    -6
 73
    -8
  0
VERTEX
  5
8EF1
  8
0
 10
0.0
 20
0.0
 30
0.0
 70
   128
 71
    -1
 72
     4
 73
    -5
  0
VERTEX
  5
8EF2
  8
0
 10
0.0
 20
0.0
 30
0.0
 70
   128
 71
     8
 72
    -1
 73
    -5
  0
VERTEX
  5
8EF3
  8
0
 10
0.0
 20
0.0
 30
0.0
 70
   128
 71
     2
 72
     3
 73
    -4
  0
VERTEX
  5
8EF4
  8
0
 10
0.0
 20
0.0
 30
0.0
 70
   128
 71
     1
 72
    -2
 73
    -4
  0
SEQEND
  5
9217
  8
0
  0
POLYLINE
  5
8EF5
  8
0
 66
     1
 10
0.0
 20
0.0
 30
0.0
 70
    64
 71
     4
 72
     2
  0
VERTEX
  5
8EF6
  8
0
 10
102.9999999999998
 20
170.0
 30
-20.0
 70
   192
  0
VERTEX
  5
8EF7
  8
0
 10
102.9999999999998
 20
192.0
 30
-20.0
 70
   192
  0
VERTEX
  5
8EF8
  8
0
 10
102.9999999999998
 20
192.0
 30
-27.0
 70
   192
  0
VERTEX
  5
8EF9
  8
0
 10
102.9999999999998
 20
170.0
 30
-27.0
 70
   192
  0
VERTEX
  5
8EFA
  8
0
 10
0.0
 20
0.0
 30
0.0
 70
   128
 71
     1
 72
     4
 73
    -3
  0
VERTEX
  5
8EFB
  8
0
 10
0.0
 20
0.0
 30
0.0
 70
   128
 71
    -1
 72
     3
 73
     2
  0
SEQEND
  5
9218
  8
0
  0
POLYLINE
  5
8EFC
  8
0
 66
     1
 10
0.0
 20
0.0
 30
0.0
 70
    64
 71
     4
 72
     2
  0
VERTEX
  5
8EFD
  8
0
 10
176.9999999999998
 20
192.0
 30
-20.0
 70
   192
  0
VERTEX
  5
8EFE
  8
0
 10
102.9999999999998
 20
192.0
 30
-20.0
 70
   192
  0
VERTEX
  5
8EFF
  8
0
 10
102.9999999999998
 20
192.0
 30
-27.0
 70
   192
  0
VERTEX
  5
8F00
  8
0
 10
176.9999999999998
 20
192.0
 30
-27.0
 70
   192
  0
VERTEX
  5
8F01
  8
0
 10
0.0
 20
0.0
 30
0.0
 70
   128
 71
     3
 72
     4
 73
    -1
  0
VERTEX
  5
8F02
  8
0
 10
0.0
 20
0.0
 30
0.0
 70
   128
 71
     2
 72
    -3
 73
     1
  0
SEQEND
  5
9219
  8
0
  0
POLYLINE
  5
8F03
  8
0
 66
     1
 10
0.0
 20
0.0
 30
0.0
 70
    64
 71
     4
 72
     2
  0
VERTEX
  5
8F04
  8
0
 10
176.9999999999998
 20
170.0
 30
-20.0
 70
   192
  0
VERTEX
  5
8F05
  8
0
 10
176.9999999999998
 20
192.0
 30
-20.0
 70
   192
  0
VERTEX
  5
8F06
  8
0
 10
176.9999999999998
 20
192.0
 30
-27.0
 70
   192
  0
VERTEX
  5
8F07
  8
0
 10
176.9999999999998
 20
170.0
 30
-27.0
 70
   192
  0
VERTEX
  5
8F08
  8
0
 10
0.0
 20
0.0
 30
0.0
 70
   128
 71
     3
 72
     4
 73
    -1
  0
VERTEX
  5
8F09
  8
0
 10
0.0
 20
0.0
 30
0.0
 70
   128
 71
     2
 72
    -3
 73
     1
  0
SEQEND
  5
921A
  8
0
  0
POLYLINE
  5
8F0A
  8
0
 66
     1
 10
0.0
 20
0.0
 30
0.0
 70
    64
 71
     8
 72
     6
  0
VERTEX
  5
8F0B
  8
0
 10
136.9999999999999
 20
170.0000000000001
 30
-27.0
 70
   192
  0
VERTEX
  5
8F0C
  8
0
 10
102.9999999999998
 20
170.0
 30
-27.0
 70
   192
  0
VERTEX
  5
8F0D
  8
0
 10
102.9999999999998
 20
192.0
 30
-27.0
 70
   192
  0
VERTEX
  5
8F0E
  8
0
 10
176.9999999999998
 20
192.0
 30
-27.0
 70
   192
  0
VERTEX
  5
8F0F
  8
0
 10
176.9999999999998
 20
170.0
 30
-27.0
 70
   192
  0
VERTEX
  5
8F10
  8
0
 10
142.9999999999999
 20
170.0
 30
-27.0
 70
   192
  0
VERTEX
  5
8F11
  8
0
 10
142.9999999999999
 20
190.0
 30
-27.0
 70
   192
  0
VERTEX
  5
8F12
  8
0
 10
136.9999999999999
 20
190.0
 30
-27.0
 70
   192
  0
VERTEX
  5
8F13
  8
0
 10
0.0
 20
0.0
 30
0.0
 70
   128
 71
     7
 72
     6
 73
    -5
  0
VERTEX
  5
8F14
  8
0
 10
0.0
 20
0.0
 30
0.0
 70
   128
 71
    -7
 72
     5
 73
    -4
  0
VERTEX
  5
8F15
  8
0
 10
0.0
 20
0.0
 30
0.0
 70
   128
 71
    -4
 72
     8
 73
    -7
  0
VERTEX
  5
8F16
  8
0
 10
0.0
 20
0.0
 30
0.0
 70
   128
 71
     4
 72
    -3
 73
    -8
  0
VERTEX
  5
8F17
  8
0
 10
0.0
 20
0.0
 30
0.0
 70
   128
 71
     3
 72
     2
 73
    -1
  0
VERTEX
  5
8F18
  8
0
 10
0.0
 20
0.0
 30
0.0
 70
   128
 71
    -3
 72
     1
 73
    -8
  0
SEQEND
  5
921B
  8
0
  0
ENDBLK
  5
920B
  8
0
  0
BLOCK
  8
0
  2
*X3
 70
     1
 10
0.0
 20
0.0
 30
0.0
  3
*X3
  1

  0
POLYLINE
  5
8F1A
  8
0
 66
     1
 10
0.0
 20
0.0
 30
0.0
 70
    64
 71
    10
 72
     8
  0
VERTEX
  5
8F1B
  8
0
 10
119.9999999999999
 20
-215.0
 30
-18.50000000000001
 70
   192
  0
VERTEX
  5
8F1C
  8
0
 10
119.9999999999999
 20
-215.0
 30
-25.5
 70
   192
  0
VERTEX
  5
8F1D
  8
0
 10
119.9999999999999
 20
-210.0
 30
-25.5
 70
   192
  0
VERTEX
  5
8F1E
  8
0
 10
119.9999999999999
 20
-210.0
 30
-18.50000000000001
 70
   192
  0
VERTEX
  5
8F1F
  8
0
 10
123.4999999999999
 20
-210.0
 30
-22.0
 70
   192
  0
VERTEX
  5
8F20
  8
0
 10
123.4999999999999
 20
-215.0
 30
-22.0
 70
   192
  0
VERTEX
  5
8F21
  8
0
 10
122.4748737341529
 20
-210.0
 30
-19.52512626584709
 70
   192
  0
VERTEX
  5
8F22
  8
0
 10
122.4748737341529
 20
-215.0
 30
-19.52512626584709
 70
   192
  0
VERTEX
  5
8F23
  8
0
 10
122.4748737341529
 20
-210.0
 30
-24.47487373415292
 70
   192
  0
VERTEX
  5
8F24
  8
0
 10
122.4748737341529
 20
-215.0
 30
-24.47487373415292
 70
   192
  0
VERTEX
  5
8F25
  8
0
 10
0.0
 20
0.0
 30
0.0
 70
   128
 71
     7
 72
     4
 73
    -1
  0
VERTEX
  5
8F26
  8
0
 10
0.0
 20
0.0
 30
0.0
 70
   128
 71
    -7
 72
     1
 73
     8
  0
VERTEX
  5
8F27
  8
0
 10
0.0
 20
0.0
 30
0.0
 70
   128
 71
     6
 72
     5
 73
    -7
  0
VERTEX
  5
8F28
  8
0
 10
0.0
 20
0.0
 30
0.0
 70
   128
 71
    -6
 72
     7
 73
     8
  0
VERTEX
  5
8F29
  8
0
 10
0.0
 20
0.0
 30
0.0
 70
   128
 71
    10
 72
     9
 73
    -5
  0
VERTEX
  5
8F2A
  8
0
 10
0.0
 20
0.0
 30
0.0
 70
   128
 71
   -10
 72
     5
 73
     6
  0
VERTEX
  5
8F2B
  8
0
 10
0.0
 20
0.0
 30
0.0
 70
   128
 71
     2
 72
     3
 73
    -9
  0
VERTEX
  5
8F2C
  8
0
 10
0.0
 20
0.0
 30
0.0
 70
   128
 71
    -2
 72
     9
 73
    10
  0
SEQEND
  5
921E
  8
0
  0
POLYLINE
  5
8F2D
  8
0
 66
     1
 10
0.0
 20
0.0
 30
0.0
 70
    64
 71
     8
 72
     6
  0
VERTEX
  5
8F2E
  8
0
 10
164.9999999999999
 20
-208.6602540378443
 30
-17.0
 70
   192
  0
VERTEX
  5
8F2F
  8
0
 10
164.9999999999999
 20
-208.6602540378443
 30
-27.0
 70
   192
  0
VERTEX
  5
8F30
  8
0
 10
168.6602540378443
 20
-204.9999999999999
 30
-27.0
 70
   192
  0
VERTEX
  5
8F31
  8
0
 10
168.6602540378443
 20
-204.9999999999999
 30
-17.0
 70
   192
  0
VERTEX
  5
8F32
  8
0
 10
159.9999999999999
 20
-209.9999999999999
 30
-17.0
 70
   192
  0
VERTEX
  5
8F33
  8
0
 10
159.9999999999999
 20
-210.0
 30
-27.0
 70
   192
  0
VERTEX
  5
8F34
  8
0
 10
169.9999999999999
 20
-199.9999999999999
 30
-27.0
 70
   192
  0
VERTEX
  5
8F35
  8
0
 10
169.9999999999999
 20
-199.9999999999999
 30
-17.0
 70
   192
  0
VERTEX
  5
8F36
  8
0
 10
0.0
 20
0.0
 30
0.0
 70
   128
 71
     1
 72
     2
 73
    -3
  0
VERTEX
  5
8F37
  8
0
 10
0.0
 20
0.0
 30
0.0
 70
   128
 71
    -1
 72
     3
 73
     4
  0
VERTEX
  5
8F38
  8
0
 10
0.0
 20
0.0
 30
0.0
 70
   128
 71
     5
 72
     6
 73
    -2
  0
VERTEX
  5
8F39
  8
0
 10
0.0
 20
0.0
 30
0.0
 70
   128
 71
    -5
 72
     2
 73
     1
  0
VERTEX
  5
8F3A
  8
0
 10
0.0
 20
0.0
 30
0.0
 70
   128
 71
     4
 72
     3
 73
    -7
  0
VERTEX
  5
8F3B
  8
0
 10
0.0
 20
0.0
 30
0.0
 70
   128
 71
    -4
 72
     7
 73
     8
  0
SEQEND
  5
921F
  8
0
  0
POLYLINE
  5
8F3C
  8
0
 66
     1
 10
0.0
 20
0.0
 30
0.0
 70
    64
 71
    12
 72
    12
  0
VERTEX
  5
8F3D
  8
0
 10
159.9999999999999
 20
-210.0
 30
-17.0
 70
   192
  0
VERTEX
  5
8F3E
  8
0
 10
159.9999999999999
 20
-210.0
 30
-27.0
 70
   192
  0
VERTEX
  5
8F3F
  8
0
 10
-20.00000000000004
 20
-210.0
 30
-27.0
 70
   192
  0
VERTEX
  5
8F40
  8
0
 10
-20.00000000000006
 20
-210.0
 30
-17.0
 70
   192
  0
VERTEX
  5
8F41
  8
0
 10
119.9999999999999
 20
-210.0
 30
-25.5
 70
   192
  0
VERTEX
  5
8F42
  8
0
 10
122.4748737341529
 20
-210.0
 30
-24.47487373415292
 70
   192
  0
VERTEX
  5
8F43
  8
0
 10
123.4999999999999
 20
-210.0
 30
-22.0
 70
   192
  0
VERTEX
  5
8F44
  8
0
 10
122.4748737341529
 20
-210.0
 30
-19.52512626584709
 70
   192
  0
VERTEX
  5
8F45
  8
0
 10
119.9999999999999
 20
-210.0
 30
-18.50000000000001
 70
   192
  0
VERTEX
  5
8F46
  8
0
 10
117.525126265847
 20
-210.0
 30
-19.52512626584709
 70
   192
  0
VERTEX
  5
8F47
  8
0
 10
116.4999999999999
 20
-210.0
 30
-22.0
 70
   192
  0
VERTEX
  5
8F48
  8
0
 10
117.525126265847
 20
-210.0
 30
-24.47487373415292
 70
   192
  0
VERTEX
  5
8F49
  8
0
 10
0.0
 20
0.0
 30
0.0
 70
   128
 71
     6
 72
    -5
 73
    -2
  0
VERTEX
  5
8F4A
  8
0
 10
0.0
 20
0.0
 30
0.0
 70
   128
 71
     2
 72
    -1
 73
    -7
  0
VERTEX
  5
8F4B
  8
0
 10
0.0
 20
0.0
 30
0.0
 70
   128
 71
    -2
 72
     7
 73
    -6
  0
VERTEX
  5
8F4C
  8
0
 10
0.0
 20
0.0
 30
0.0
 70
   128
 71
    -1
 72
     8
 73
    -7
  0
VERTEX
  5
8F4D
  8
0
 10
0.0
 20
0.0
 30
0.0
 70
   128
 71
    -1
 72
     9
 73
    -8
  0
VERTEX
  5
8F4E
  8
0
 10
0.0
 20
0.0
 30
0.0
 70
   128
 71
    -9
 72
     1
 73
    -4
  0
VERTEX
  5
8F4F
  8
0
 10
0.0
 20
0.0
 30
0.0
 70
   128
 71
    -4
 72
    10
 73
    -9
  0
VERTEX
  5
8F50
  8
0
 10
0.0
 20
0.0
 30
0.0
 70
   128
 71
     4
 72
    -3
 73
   -11
  0
VERTEX
  5
8F51
  8
0
 10
0.0
 20
0.0
 30
0.0
 70
   128
 71
    -4
 72
    11
 73
   -10
  0
VERTEX
  5
8F52
  8
0
 10
0.0
 20
0.0
 30
0.0
 70
   128
 71
    -3
 72
    12
 73
   -11
  0
VERTEX
  5
8F53
  8
0
 10
0.0
 20
0.0
 30
0.0
 70
   128
 71
    -3
 72
     5
 73
   -12
  0
VERTEX
  5
8F54
  8
0
 10
0.0
 20
0.0
 30
0.0
 70
   128
 71
     3
 72
    -2
 73
    -5
  0
SEQEND
  5
9220
  8
0
  0
POLYLINE
  5
8F55
  8
0
 66
     1
 10
0.0
 20
0.0
 30
0.0
 70
    64
 71
     8
 72
     6
  0
VERTEX
  5
8F56
  8
0
 10
-28.66025403784443
 20
-204.9999999999999
 30
-17.0
 70
   192
  0
VERTEX
  5
8F57
  8
0
 10
-28.66025403784443
 20
-204.9999999999999
 30
-27.0
 70
   192
  0
VERTEX
  5
8F58
  8
0
 10
-25.00000000000005
 20
-208.6602540378443
 30
-27.0
 70
   192
  0
VERTEX
  5
8F59
  8
0
 10
-25.00000000000005
 20
-208.6602540378443
 30
-17.0
 70
   192
  0
VERTEX
  5
8F5A
  8
0
 10
-30.00000000000005
 20
-199.9999999999999
 30
-17.0
 70
   192
  0
VERTEX
  5
8F5B
  8
0
 10
-30.00000000000004
 20
-199.9999999999999
 30
-27.0
 70
   192
  0
VERTEX
  5
8F5C
  8
0
 10
-20.00000000000004
 20
-209.9999999999999
 30
-27.0
 70
   192
  0
VERTEX
  5
8F5D
  8
0
 10
-20.00000000000004
 20
-210.0
 30
-17.0
 70
   192
  0
VERTEX
  5
8F5E
  8
0
 10
0.0
 20
0.0
 30
0.0
 70
   128
 71
     1
 72
     2
 73
    -3
  0
VERTEX
  5
8F5F
  8
0
 10
0.0
 20
0.0
 30
0.0
 70
   128
 71
    -1
 72
     3
 73
     4
  0
VERTEX
  5
8F60
  8
0
 10
0.0
 20
0.0
 30
0.0
 70
   128
 71
     5
 72
     6
 73
    -2
  0
VERTEX
  5
8F61
  8
0
 10
0.0
 20
0.0
 30
0.0
 70
   128
 71
    -5
 72
     2
 73
     1
  0
VERTEX
  5
8F62
  8
0
 10
0.0
 20
0.0
 30
0.0
 70
   128
 71
     4
 72
     3
 73
    -7
  0
VERTEX
  5
8F63
  8
0
 10
0.0
 20
0.0
 30
0.0
 70
   128
 71
    -4
 72
     7
 73
     8
  0
SEQEND
  5
9221
  8
0
  0
POLYLINE
  5
8F64
  8
0
 66
     1
 10
0.0
 20
0.0
 30
0.0
 70
    64
 71
     4
 72
     2
  0
VERTEX
  5
8F65
  8
0
 10
-30.00000000000004
 20
-199.9999999999999
 30
-17.0
 70
   192
  0
VERTEX
  5
8F66
  8
0
 10
-30.00000000000004
 20
-199.9999999999999
 30
-27.0
 70
   192
  0
VERTEX
  5
8F67
  8
0
 10
-30.00000000000003
 20
-40.0
 30
-27.0
 70
   192
  0
VERTEX
  5
8F68
  8
0
 10
-30.00000000000003
 20
-40.0
 30
-17.0
 70
   192
  0
VERTEX
  5
8F69
  8
0
 10
0.0
 20
0.0
 30
0.0
 70
   128
 71
     1
 72
     4
 73
    -3
  0
VERTEX
  5
8F6A
  8
0
 10
0.0
 20
0.0
 30
0.0
 70
   128
 71
    -1
 72
     3
 73
     2
  0
SEQEND
  5
9222
  8
0
  0
POLYLINE
  5
8F6B
  8
0
 66
     1
 10
0.0
 20
0.0
 30
0.0
 70
    64
 71
     8
 72
     6
  0
VERTEX
  5
8F6C
  8
0
 10
-25.00000000000003
 20
-31.33974596215561
 30
-17.0
 70
   192
  0
VERTEX
  5
8F6D
  8
0
 10
-25.00000000000003
 20
-31.33974596215561
 30
-27.0
 70
   192
  0
VERTEX
  5
8F6E
  8
0
 10
-28.66025403784441
 20
-35.0
 30
-27.0
 70
   192
  0
VERTEX
  5
8F6F
  8
0
 10
-28.66025403784441
 20
-35.0
 30
-17.0
 70
   192
  0
VERTEX
  5
8F70
  8
0
 10
-20.00000000000003
 20
-30.0
 30
-17.0
 70
   192
  0
VERTEX
  5
8F71
  8
0
 10
-20.00000000000002
 20
-30.0
 30
-27.0
 70
   192
  0
VERTEX
  5
8F72
  8
0
 10
-30.00000000000002
 20
-40.0
 30
-27.0
 70
   192
  0
VERTEX
  5
8F73
  8
0
 10
-30.00000000000003
 20
-40.0
 30
-17.0
 70
   192
  0
VERTEX
  5
8F74
  8
0
 10
0.0
 20
0.0
 30
0.0
 70
   128
 71
     1
 72
     2
 73
    -3
  0
VERTEX
  5
8F75
  8
0
 10
0.0
 20
0.0
 30
0.0
 70
   128
 71
    -1
 72
     3
 73
     4
  0
VERTEX
  5
8F76
  8
0
 10
0.0
 20
0.0
 30
0.0
 70
   128
 71
     5
 72
     6
 73
    -2
  0
VERTEX
  5
8F77
  8
0
 10
0.0
 20
0.0
 30
0.0
 70
   128
 71
    -5
 72
     2
 73
     1
  0
VERTEX
  5
8F78
  8
0
 10
0.0
 20
0.0
 30
0.0
 70
   128
 71
     4
 72
     3
 73
    -7
  0
VERTEX
  5
8F79
  8
0
 10
0.0
 20
0.0
 30
0.0
 70
   128
 71
    -4
 72
     7
 73
     8
  0
SEQEND
  5
9223
  8
0
  0
POLYLINE
  5
8F7A
  8
0
 66
     1
 10
0.0
 20
0.0
 30
0.0
 70
    64
 71
     4
 72
     2
  0
VERTEX
  5
8F7B
  8
0
 10
-20.00000000000002
 20
-30.0
 30
-17.0
 70
   192
  0
VERTEX
  5
8F7C
  8
0
 10
-20.00000000000003
 20
-30.0
 30
-27.0
 70
   192
  0
VERTEX
  5
8F7D
  8
0
 10
160.0
 20
-30.0
 30
-27.0
 70
   192
  0
VERTEX
  5
8F7E
  8
0
 10
160.0
 20
-30.0
 30
-17.0
 70
   192
  0
VERTEX
  5
8F7F
  8
0
 10
0.0
 20
0.0
 30
0.0
 70
   128
 71
     1
 72
     4
 73
    -3
  0
VERTEX
  5
8F80
  8
0
 10
0.0
 20
0.0
 30
0.0
 70
   128
 71
    -1
 72
     3
 73
     2
  0
SEQEND
  5
9224
  8
0
  0
POLYLINE
  5
8F81
  8
0
 66
     1
 10
0.0
 20
0.0
 30
0.0
 70
    64
 71
     8
 72
     6
  0
VERTEX
  5
8F82
  8
0
 10
168.6602540378444
 20
-34.99999999999999
 30
-17.0
 70
   192
  0
VERTEX
  5
8F83
  8
0
 10
168.6602540378444
 20
-34.99999999999999
 30
-27.0
 70
   192
  0
VERTEX
  5
8F84
  8
0
 10
165.0
 20
-31.3397459621556
 30
-27.0
 70
   192
  0
VERTEX
  5
8F85
  8
0
 10
165.0
 20
-31.3397459621556
 30
-17.0
 70
   192
  0
VERTEX
  5
8F86
  8
0
 10
170.0
 20
-40.0
 30
-17.0
 70
   192
  0
VERTEX
  5
8F87
  8
0
 10
170.0
 20
-40.0
 30
-27.0
 70
   192
  0
VERTEX
  5
8F88
  8
0
 10
160.0
 20
-29.99999999999999
 30
-27.0
 70
   192
  0
VERTEX
  5
8F89
  8
0
 10
160.0
 20
-30.0
 30
-17.0
 70
   192
  0
VERTEX
  5
8F8A
  8
0
 10
0.0
 20
0.0
 30
0.0
 70
   128
 71
     1
 72
     2
 73
    -3
  0
VERTEX
  5
8F8B
  8
0
 10
0.0
 20
0.0
 30
0.0
 70
   128
 71
    -1
 72
     3
 73
     4
  0
VERTEX
  5
8F8C
  8
0
 10
0.0
 20
0.0
 30
0.0
 70
   128
 71
     5
 72
     6
 73
    -2
  0
VERTEX
  5
8F8D
  8
0
 10
0.0
 20
0.0
 30
0.0
 70
   128
 71
    -5
 72
     2
 73
     1
  0
VERTEX
  5
8F8E
  8
0
 10
0.0
 20
0.0
 30
0.0
 70
   128
 71
     4
 72
     3
 73
    -7
  0
VERTEX
  5
8F8F
  8
0
 10
0.0
 20
0.0
 30
0.0
 70
   128
 71
    -4
 72
     7
 73
     8
  0
SEQEND
  5
9225
  8
0
  0
POLYLINE
  5
8F90
  8
0
 66
     1
 10
0.0
 20
0.0
 30
0.0
 70
    64
 71
     4
 72
     2
  0
VERTEX
  5
8F91
  8
0
 10
170.0
 20
-40.0
 30
-17.0
 70
   192
  0
VERTEX
  5
8F92
  8
0
 10
170.0
 20
-40.0
 30
-27.0
 70
   192
  0
VERTEX
  5
8F93
  8
0
 10
169.9999999999999
 20
-199.9999999999999
 30
-27.0
 70
   192
  0
VERTEX
  5
8F94
  8
0
 10
169.9999999999999
 20
-199.9999999999999
 30
-17.0
 70
   192
  0
VERTEX
  5
8F95
  8
0
 10
0.0
 20
0.0
 30
0.0
 70
   128
 71
     1
 72
     4
 73
    -3
  0
VERTEX
  5
8F96
  8
0
 10
0.0
 20
0.0
 30
0.0
 70
   128
 71
    -1
 72
     3
 73
     2
  0
SEQEND
  5
9226
  8
0
  0
POLYLINE
  5
8F97
  8
0
 66
     1
 10
0.0
 20
0.0
 30
0.0
 70
    64
 71
    16
 72
    14
  0
VERTEX
  5
8F98
  8
0
 10
169.9999999999999
 20
-199.9999999999999
 30
-27.0
 70
   192
  0
VERTEX
  5
8F99
  8
0
 10
168.6602540378443
 20
-204.9999999999999
 30
-27.0
 70
   192
  0
VERTEX
  5
8F9A
  8
0
 10
164.9999999999999
 20
-208.6602540378443
 30
-27.0
 70
   192
  0
VERTEX
  5
8F9B
  8
0
 10
159.9999999999999
 20
-209.9999999999999
 30
-27.0
 70
   192
  0
VERTEX
  5
8F9C
  8
0
 10
-20.00000000000006
 20
-210.0
 30
-27.0
 70
   192
  0
VERTEX
  5
8F9D
  8
0
 10
-25.00000000000005
 20
-208.6602540378443
 30
-27.0
 70
   192
  0
VERTEX
  5
8F9E
  8
0
 10
-28.66025403784443
 20
-204.9999999999999
 30
-27.0
 70
   192
  0
VERTEX
  5
8F9F
  8
0
 10
-30.00000000000005
 20
-199.9999999999999
 30
-27.0
 70
   192
  0
VERTEX
  5
8FA0
  8
0
 10
-30.00000000000003
 20
-40.0
 30
-27.0
 70
   192
  0
VERTEX
  5
8FA1
  8
0
 10
-28.66025403784441
 20
-35.0
 30
-27.0
 70
   192
  0
VERTEX
  5
8FA2
  8
0
 10
-25.00000000000003
 20
-31.33974596215561
 30
-27.0
 70
   192
  0
VERTEX
  5
8FA3
  8
0
 10
-20.00000000000003
 20
-30.0
 30
-27.0
 70
   192
  0
VERTEX
  5
8FA4
  8
0
 10
160.0
 20
-30.0
 30
-27.0
 70
   192
  0
VERTEX
  5
8FA5
  8
0
 10
165.0
 20
-31.3397459621556
 30
-27.0
 70
   192
  0
VERTEX
  5
8FA6
  8
0
 10
168.6602540378444
 20
-34.99999999999999
 30
-27.0
 70
   192
  0
VERTEX
  5
8FA7
  8
0
 10
170.0
 20
-40.0
 30
-27.0
 70
   192
  0
VERTEX
  5
8FA8
  8
0
 10
0.0
 20
0.0
 30
0.0
 70
   128
 71
    15
 72
    16
 73
    -1
  0
VERTEX
  5
8FA9
  8
0
 10
0.0
 20
0.0
 30
0.0
 70
   128
 71
    14
 72
   -15
 73
    -1
  0
VERTEX
  5
8FAA
  8
0
 10
0.0
 20
0.0
 30
0.0
 70
   128
 71
    13
 72
   -14
 73
    -1
  0
VERTEX
  5
8FAB
  8
0
 10
0.0
 20
0.0
 30
0.0
 70
   128
 71
    12
 72
   -13
 73
    -1
  0
VERTEX
  5
8FAC
  8
0
 10
0.0
 20
0.0
 30
0.0
 70
   128
 71
    11
 72
   -12
 73
    -1
  0
VERTEX
  5
8FAD
  8
0
 10
0.0
 20
0.0
 30
0.0
 70
   128
 71
    10
 72
   -11
 73
    -1
  0
VERTEX
  5
8FAE
  8
0
 10
0.0
 20
0.0
 30
0.0
 70
   128
 71
     9
 72
   -10
 73
    -1
  0
VERTEX
  5
8FAF
  8
0
 10
0.0
 20
0.0
 30
0.0
 70
   128
 71
     8
 72
    -9
 73
    -1
  0
VERTEX
  5
8FB0
  8
0
 10
0.0
 20
0.0
 30
0.0
 70
   128
 71
     7
 72
    -8
 73
    -1
  0
VERTEX
  5
8FB1
  8
0
 10
0.0
 20
0.0
 30
0.0
 70
   128
 71
     6
 72
    -7
 73
    -1
  0
VERTEX
  5
8FB2
  8
0
 10
0.0
 20
0.0
 30
0.0
 70
   128
 71
     5
 72
    -6
 73
    -1
  0
VERTEX
  5
8FB3
  8
0
 10
0.0
 20
0.0
 30
0.0
 70
   128
 71
     4
 72
    -5
 73
    -1
  0
VERTEX
  5
8FB4
  8
0
 10
0.0
 20
0.0
 30
0.0
 70
   128
 71
     3
 72
    -4
 73
    -1
  0
VERTEX
  5
8FB5
  8
0
 10
0.0
 20
0.0
 30
0.0
 70
   128
 71
     2
 72
    -3
 73
     1
  0
SEQEND
  5
9227
  8
0
  0
POLYLINE
  5
8FB6
  8
0
 66
     1
 10
0.0
 20
0.0
 30
0.0
 70
    64
 71
    16
 72
    14
  0
VERTEX
  5
8FB7
  8
0
 10
159.9999999999999
 20
-210.0
 30
-17.0
 70
   192
  0
VERTEX
  5
8FB8
  8
0
 10
-20.00000000000004
 20
-209.9999999999999
 30
-17.0
 70
   192
  0
VERTEX
  5
8FB9
  8
0
 10
-25.00000000000005
 20
-208.6602540378443
 30
-17.0
 70
   192
  0
VERTEX
  5
8FBA
  8
0
 10
-28.66025403784443
 20
-204.9999999999999
 30
-17.0
 70
   192
  0
VERTEX
  5
8FBB
  8
0
 10
-30.00000000000004
 20
-199.9999999999999
 30
-17.0
 70
   192
  0
VERTEX
  5
8FBC
  8
0
 10
-30.00000000000002
 20
-40.0
 30
-17.0
 70
   192
  0
VERTEX
  5
8FBD
  8
0
 10
-28.66025403784441
 20
-35.0
 30
-17.0
 70
   192
  0
VERTEX
  5
8FBE
  8
0
 10
-25.00000000000003
 20
-31.33974596215561
 30
-17.0
 70
   192
  0
VERTEX
  5
8FBF
  8
0
 10
-20.00000000000003
 20
-30.0
 30
-17.0
 70
   192
  0
VERTEX
  5
8FC0
  8
0
 10
160.0
 20
-29.99999999999999
 30
-17.0
 70
   192
  0
VERTEX
  5
8FC1
  8
0
 10
165.0
 20
-31.3397459621556
 30
-17.0
 70
   192
  0
VERTEX
  5
8FC2
  8
0
 10
168.6602540378444
 20
-34.99999999999999
 30
-17.0
 70
   192
  0
VERTEX
  5
8FC3
  8
0
 10
170.0
 20
-40.0
 30
-17.0
 70
   192
  0
VERTEX
  5
8FC4
  8
0
 10
169.9999999999999
 20
-199.9999999999999
 30
-17.0
 70
   192
  0
VERTEX
  5
8FC5
  8
0
 10
168.6602540378443
 20
-204.9999999999999
 30
-17.0
 70
   192
  0
VERTEX
  5
8FC6
  8
0
 10
164.9999999999999
 20
-208.6602540378443
 30
-17.0
 70
   192
  0
VERTEX
  5
8FC7
  8
0
 10
0.0
 20
0.0
 30
0.0
 70
   128
 71
     1
 72
    16
 73
   -15
  0
VERTEX
  5
8FC8
  8
0
 10
0.0
 20
0.0
 30
0.0
 70
   128
 71
    -1
 72
    15
 73
   -14
  0
VERTEX
  5
8FC9
  8
0
 10
0.0
 20
0.0
 30
0.0
 70
   128
 71
    -1
 72
    14
 73
   -13
  0
VERTEX
  5
8FCA
  8
0
 10
0.0
 20
0.0
 30
0.0
 70
   128
 71
    -1
 72
    13
 73
   -12
  0
VERTEX
  5
8FCB
  8
0
 10
0.0
 20
0.0
 30
0.0
 70
   128
 71
    -1
 72
    12
 73
   -11
  0
VERTEX
  5
8FCC
  8
0
 10
0.0
 20
0.0
 30
0.0
 70
   128
 71
    -1
 72
    11
 73
   -10
  0
VERTEX
  5
8FCD
  8
0
 10
0.0
 20
0.0
 30
0.0
 70
   128
 71
    -1
 72
    10
 73
    -9
  0
VERTEX
  5
8FCE
  8
0
 10
0.0
 20
0.0
 30
0.0
 70
   128
 71
    -1
 72
     9
 73
    -8
  0
VERTEX
  5
8FCF
  8
0
 10
0.0
 20
0.0
 30
0.0
 70
   128
 71
    -1
 72
     8
 73
    -7
  0
VERTEX
  5
8FD0
  8
0
 10
0.0
 20
0.0
 30
0.0
 70
   128
 71
    -1
 72
     7
 73
    -6
  0
VERTEX
  5
8FD1
  8
0
 10
0.0
 20
0.0
 30
0.0
 70
   128
 71
    -1
 72
     6
 73
    -5
  0
VERTEX
  5
8FD2
  8
0
 10
0.0
 20
0.0
 30
0.0
 70
   128
 71
    -1
 72
     5
 73
    -4
  0
VERTEX
  5
8FD3
  8
0
 10
0.0
 20
0.0
 30
0.0
 70
   128
 71
    -1
 72
     4
 73
    -3
  0
VERTEX
  5
8FD4
  8
0
 10
0.0
 20
0.0
 30
0.0
 70
   128
 71
    -1
 72
     3
 73
     2
  0
SEQEND
  5
9228
  8
0
  0
POLYLINE
  5
8FD5
  8
0
 66
     1
 10
0.0
 20
0.0
 30
0.0
 70
    64
 71
    10
 72
     8
  0
VERTEX
  5
8FD6
  8
0
 10
119.9999999999999
 20
-215.0
 30
-25.5
 70
   192
  0
VERTEX
  5
8FD7
  8
0
 10
119.9999999999999
 20
-215.0
 30
-18.50000000000001
 70
   192
  0
VERTEX
  5
8FD8
  8
0
 10
119.9999999999999
 20
-210.0
 30
-18.50000000000001
 70
   192
  0
VERTEX
  5
8FD9
  8
0
 10
119.9999999999999
 20
-210.0
 30
-25.5
 70
   192
  0
VERTEX
  5
8FDA
  8
0
 10
116.4999999999999
 20
-210.0
 30
-22.0
 70
   192
  0
VERTEX
  5
8FDB
  8
0
 10
116.4999999999999
 20
-215.0
 30
-22.0
 70
   192
  0
VERTEX
  5
8FDC
  8
0
 10
117.525126265847
 20
-210.0
 30
-24.47487373415292
 70
   192
  0
VERTEX
  5
8FDD
  8
0
 10
117.525126265847
 20
-215.0
 30
-24.47487373415292
 70
   192
  0
VERTEX
  5
8FDE
  8
0
 10
117.525126265847
 20
-210.0
 30
-19.52512626584709
 70
   192
  0
VERTEX
  5
8FDF
  8
0
 10
117.525126265847
 20
-215.0
 30
-19.52512626584709
 70
   192
  0
VERTEX
  5
8FE0
  8
0
 10
0.0
 20
0.0
 30
0.0
 70
   128
 71
     8
 72
     7
 73
    -4
  0
VERTEX
  5
8FE1
  8
0
 10
0.0
 20
0.0
 30
0.0
 70
   128
 71
    -8
 72
     4
 73
     1
  0
VERTEX
  5
8FE2
  8
0
 10
0.0
 20
0.0
 30
0.0
 70
   128
 71
     6
 72
     5
 73
    -7
  0
VERTEX
  5
8FE3
  8
0
 10
0.0
 20
0.0
 30
0.0
 70
   128
 71
    -6
 72
     7
 73
     8
  0
VERTEX
  5
8FE4
  8
0
 10
0.0
 20
0.0
 30
0.0
 70
   128
 71
    10
 72
     9
 73
    -5
  0
VERTEX
  5
8FE5
  8
0
 10
0.0
 20
0.0
 30
0.0
 70
   128
 71
   -10
 72
     5
 73
     6
  0
VERTEX
  5
8FE6
  8
0
 10
0.0
 20
0.0
 30
0.0
 70
   128
 71
     2
 72
     3
 73
    -9
  0
VERTEX
  5
8FE7
  8
0
 10
0.0
 20
0.0
 30
0.0
 70
   128
 71
    -2
 72
     9
 73
    10
  0
SEQEND
  5
9229
  8
0
  0
POLYLINE
  5
8FE8
  8
0
 66
     1
 10
0.0
 20
0.0
 30
0.0
 70
    64
 71
     8
 72
     6
  0
VERTEX
  5
8FE9
  8
0
 10
119.9999999999999
 20
-215.0
 30
-18.50000000000001
 70
   192
  0
VERTEX
  5
8FEA
  8
0
 10
117.525126265847
 20
-215.0
 30
-19.52512626584709
 70
   192
  0
VERTEX
  5
8FEB
  8
0
 10
116.4999999999999
 20
-215.0
 30
-22.0
 70
   192
  0
VERTEX
  5
8FEC
  8
0
 10
117.525126265847
 20
-215.0
 30
-24.47487373415292
 70
   192
  0
VERTEX
  5
8FED
  8
0
 10
119.9999999999999
 20
-215.0
 30
-25.5
 70
   192
  0
VERTEX
  5
8FEE
  8
0
 10
122.4748737341529
 20
-215.0
 30
-24.47487373415292
 70
   192
  0
VERTEX
  5
8FEF
  8
0
 10
123.4999999999999
 20
-215.0
 30
-22.0
 70
   192
  0
VERTEX
  5
8FF0
  8
0
 10
122.4748737341529
 20
-215.0
 30
-19.52512626584709
 70
   192
  0
VERTEX
  5
8FF1
  8
0
 10
0.0
 20
0.0
 30
0.0
 70
   128
 71
     7
 72
     8
 73
    -1
  0
VERTEX
  5
8FF2
  8
0
 10
0.0
 20
0.0
 30
0.0
 70
   128
 71
     6
 72
    -7
 73
    -1
  0
VERTEX
  5
8FF3
  8
0
 10
0.0
 20
0.0
 30
0.0
 70
   128
 71
     5
 72
    -6
 73
    -1
  0
VERTEX
  5
8FF4
  8
0
 10
0.0
 20
0.0
 30
0.0
 70
   128
 71
     4
 72
    -5
 73
    -1
  0
VERTEX
  5
8FF5
  8
0
 10
0.0
 20
0.0
 30
0.0
 70
   128
 71
     3
 72
    -4
 73
    -1
  0
VERTEX
  5
8FF6
  8
0
 10
0.0
 20
0.0
 30
0.0
 70
   128
 71
     2
 72
    -3
 73
     1
  0
SEQEND
  5
922A
  8
0
  0
ENDBLK
  5
921D
  8
0
  0
BLOCK
  8
0
  2
*X4
 70
     1
 10
0.0
 20
0.0
 30
0.0
  3
*X4
  1

  0
POLYLINE
  5
8FF8
  8
0
 66
     1
 10
0.0
 20
0.0
 30
0.0
 70
    64
 71
    14
 72
    12
  0
VERTEX
  5
8FF9
  8
0
 10
-288.0
 20
-0.0000000000002078
 30
-22.0
 70
   192
  0
VERTEX
  5
8FFA
  8
0
 10
-288.0
 20
0.0000000000000353
 30
-17.0
 70
   192
  0
VERTEX
  5
8FFB
  8
0
 10
-249.4153162899184
 20
-143.9999999999999
 30
-17.0
 70
   192
  0
VERTEX
  5
8FFC
  8
0
 10
-249.4153162899183
 20
-144.0000000000002
 30
-22.0
 70
   192
  0
VERTEX
  5
8FFD
  8
0
 10
-0.0000000000001119
 20
-288.0
 30
-17.0
 70
   192
  0
VERTEX
  5
8FFE
  8
0
 10
0.0000000000001119
 20
-288.0
 30
-22.0
 70
   192
  0
VERTEX
  5
8FFF
  8
0
 10
-143.9999999999999
 20
-249.4153162899184
 30
-22.0
 70
   192
  0
VERTEX
  5
9000
  8
0
 10
-144.0000000000001
 20
-249.4153162899183
 30
-17.0
 70
   192
  0
VERTEX
  5
9001
  8
0
 10
143.9999999999999
 20
-249.4153162899184
 30
-17.0
 70
   192
  0
VERTEX
  5
9002
  8
0
 10
144.0000000000001
 20
-249.4153162899183
 30
-22.0
 70
   192
  0
VERTEX
  5
9003
  8
0
 10
288.0
 20
-0.0000000000002078
 30
-17.0
 70
   192
  0
VERTEX
  5
9004
  8
0
 10
288.0
 20
0.0000000000000353
 30
-22.0
 70
   192
  0
VERTEX
  5
9005
  8
0
 10
249.4153162899184
 20
-143.9999999999999
 30
-22.0
 70
   192
  0
VERTEX
  5
9006
  8
0
 10
249.4153162899183
 20
-144.0000000000002
 30
-17.0
 70
   192
  0
VERTEX
  5
9007
  8
0
 10
0.0
 20
0.0
 30
0.0
 70
   128
 71
     1
 72
     2
 73
    -3
  0
VERTEX
  5
9008
  8
0
 10
0.0
 20
0.0
 30
0.0
 70
   128
 71
     4
 72
    -1
 73
     3
  0
VERTEX
  5
9009
  8
0
 10
0.0
 20
0.0
 30
0.0
 70
   128
 71
     5
 72
     6
 73
    -7
  0
VERTEX
  5
900A
  8
0
 10
0.0
 20
0.0
 30
0.0
 70
   128
 71
     8
 72
    -5
 73
     7
  0
VERTEX
  5
900B
  8
0
 10
0.0
 20
0.0
 30
0.0
 70
   128
 71
     6
 72
     5
 73
    -9
  0
VERTEX
  5
900C
  8
0
 10
0.0
 20
0.0
 30
0.0
 70
   128
 71
    10
 72
    -6
 73
     9
  0
VERTEX
  5
900D
  8
0
 10
0.0
 20
0.0
 30
0.0
 70
   128
 71
    11
 72
    12
 73
   -13
  0
VERTEX
  5
900E
  8
0
 10
0.0
 20
0.0
 30
0.0
 70
   128
 71
    14
 72
   -11
 73
    13
  0
VERTEX
  5
900F
  8
0
 10
0.0
 20
0.0
 30
0.0
 70
   128
 71
     7
 72
     4
 73
    -3
  0
VERTEX
  5
9010
  8
0
 10
0.0
 20
0.0
 30
0.0
 70
   128
 71
     8
 72
    -7
 73
     3
  0
VERTEX
  5
9011
  8
0
 10
0.0
 20
0.0
 30
0.0
 70
   128
 71
    13
 72
    10
 73
    -9
  0
VERTEX
  5
9012
  8
0
 10
0.0
 20
0.0
 30
0.0
 70
   128
 71
    14
 72
   -13
 73
     9
  0
SEQEND
  5
922D
  8
0
  0
POLYLINE
  5
9013
  8
0
 66
     1
 10
0.0
 20
0.0
 30
0.0
 70
    64
 71
    14
 72
    12
  0
VERTEX
  5
9014
  8
0
 10
264.1377481542538
 20
152.5000000000001
 30
-2.0
 70
   192
  0
VERTEX
  5
9015
  8
0
 10
305.0
 20
0.0000000000001016
 30
-2.0
 70
   192
  0
VERTEX
  5
9016
  8
0
 10
305.0
 20
0.0
 30
-22.0
 70
   192
  0
VERTEX
  5
9017
  8
0
 10
264.1377481542538
 20
152.5000000000001
 30
-22.0
 70
   192
  0
VERTEX
  5
9018
  8
0
 10
152.4999999999999
 20
264.1377481542538
 30
-22.0
 70
   192
  0
VERTEX
  5
9019
  8
0
 10
-0.0000000000000339
 20
305.0
 30
-22.0
 70
   192
  0
VERTEX
  5
901A
  8
0
 10
-0.0000000000000339
 20
305.0
 30
-2.0
 70
   192
  0
VERTEX
  5
901B
  8
0
 10
152.4999999999999
 20
264.1377481542538
 30
-2.0
 70
   192
  0
VERTEX
  5
901C
  8
0
 10
-152.5
 20
264.1377481542538
 30
-2.0
 70
   192
  0
VERTEX
  5
901D
  8
0
 10
-152.5
 20
264.1377481542538
 30
-22.0
 70
   192
  0
VERTEX
  5
901E
  8
0
 10
-264.1377481542538
 20
152.5
 30
-22.0
 70
   192
  0
VERTEX
  5
901F
  8
0
 10
-305.0
 20
0.0000000000000374
 30
-22.0
 70
   192
  0
VERTEX
  5
9020
  8
0
 10
-305.0
 20
0.0000000000000374
 30
-2.0
 70
   192
  0
VERTEX
  5
9021
  8
0
 10
-264.1377481542538
 20
152.5
 30
-2.0
 70
   192
  0
VERTEX
  5
9022
  8
0
 10
0.0
 20
0.0
 30
0.0
 70
   128
 71
     1
 72
     2
 73
    -3
  0
VERTEX
  5
9023
  8
0
 10
0.0
 20
0.0
 30
0.0
 70
   128
 71
    -1
 72
     3
 73
     4
  0
VERTEX
  5
9024
  8
0
 10
0.0
 20
0.0
 30
0.0
 70
   128
 71
     5
 72
     6
 73
    -7
  0
VERTEX
  5
9025
  8
0
 10
0.0
 20
0.0
 30
0.0
 70
   128
 71
    -5
 72
     7
 73
     8
  0
VERTEX
  5
9026
  8
0
 10
0.0
 20
0.0
 30
0.0
 70
   128
 71
     9
 72
     7
 73
    -6
  0
VERTEX
  5
9027
  8
0
 10
0.0
 20
0.0
 30
0.0
 70
   128
 71
    -9
 72
     6
 73
    10
  0
VERTEX
  5
9028
  8
0
 10
0.0
 20
0.0
 30
0.0
 70
   128
 71
    11
 72
    12
 73
   -13
  0
VERTEX
  5
9029
  8
0
 10
0.0
 20
0.0
 30
0.0
 70
   128
 71
   -11
 72
    13
 73
    14
  0
VERTEX
  5
902A
  8
0
 10
0.0
 20
0.0
 30
0.0
 70
   128
 71
     1
 72
     4
 73
    -5
  0
VERTEX
  5
902B
  8
0
 10
0.0
 20
0.0
 30
0.0
 70
   128
 71
    -1
 72
     5
 73
     8
  0
VERTEX
  5
902C
  8
0
 10
0.0
 20
0.0
 30
0.0
 70
   128
 71
     9
 72
    10
 73
   -11
  0
VERTEX
  5
902D
  8
0
 10
0.0
 20
0.0
 30
0.0
 70
   128
 71
    -9
 72
    11
 73
    14
  0
SEQEND
  5
922E
  8
0
  0
POLYLINE
  5
902E
  8
0
 66
     1
 10
0.0
 20
0.0
 30
0.0
 70
    64
 71
    14
 72
    12
  0
VERTEX
  5
902F
  8
0
 10
-165.0000000000001
 20
-285.7883832488647
 30
-0.5
 70
   192
  0
VERTEX
  5
9030
  8
0
 10
-285.7883832488648
 20
-164.9999999999999
 30
-0.5
 70
   192
  0
VERTEX
  5
9031
  8
0
 10
-285.7883832488648
 20
-164.9999999999999
 30
0.0
 70
   192
  0
VERTEX
  5
9032
  8
0
 10
-165.0000000000001
 20
-285.7883832488647
 30
0.0
 70
   192
  0
VERTEX
  5
9033
  8
0
 10
285.7883832488646
 20
-165.0000000000001
 30
-0.5
 70
   192
  0
VERTEX
  5
9034
  8
0
 10
164.9999999999998
 20
-285.7883832488648
 30
-0.5
 70
   192
  0
VERTEX
  5
9035
  8
0
 10
164.9999999999998
 20
-285.7883832488648
 30
0.0
 70
   192
  0
VERTEX
  5
9036
  8
0
 10
285.7883832488646
 20
-165.0000000000001
 30
0.0
 70
   192
  0
VERTEX
  5
9037
  8
0
 10
329.9999999999999
 20
-0.0000000000002381
 30
-0.5
 70
   192
  0
VERTEX
  5
9038
  8
0
 10
329.9999999999999
 20
-0.0000000000002381
 30
0.0
 70
   192
  0
VERTEX
  5
9039
  8
0
 10
-0.0000000000001282
 20
-329.9999999999999
 30
-0.5
 70
   192
  0
VERTEX
  5
903A
  8
0
 10
-0.0000000000001282
 20
-329.9999999999999
 30
0.0
 70
   192
  0
VERTEX
  5
903B
  8
0
 10
-329.9999999999999
 20
0.0000000000000404
 30
-0.5
 70
   192
  0
VERTEX
  5
903C
  8
0
 10
-329.9999999999999
 20
0.0000000000000404
 30
0.0
 70
   192
  0
VERTEX
  5
903D
  8
0
 10
0.0
 20
0.0
 30
0.0
 70
   128
 71
     1
 72
     2
 73
    -3
  0
VERTEX
  5
903E
  8
0
 10
0.0
 20
0.0
 30
0.0
 70
   128
 71
     4
 72
    -1
 73
     3
  0
VERTEX
  5
903F
  8
0
 10
0.0
 20
0.0
 30
0.0
 70
   128
 71
     5
 72
     6
 73
    -7
  0
VERTEX
  5
9040
  8
0
 10
0.0
 20
0.0
 30
0.0
 70
   128
 71
     8
 72
    -5
 73
     7
  0
VERTEX
  5
9041
  8
0
 10
0.0
 20
0.0
 30
0.0
 70
   128
 71
     9
 72
     5
 73
    -8
  0
VERTEX
  5
9042
  8
0
 10
0.0
 20
0.0
 30
0.0
 70
   128
 71
    10
 72
    -9
 73
     8
  0
VERTEX
  5
9043
  8
0
 10
0.0
 20
0.0
 30
0.0
 70
   128
 71
     6
 72
    11
 73
   -12
  0
VERTEX
  5
9044
  8
0
 10
0.0
 20
0.0
 30
0.0
 70
   128
 71
     7
 72
    -6
 73
    12
  0
VERTEX
  5
9045
  8
0
 10
0.0
 20
0.0
 30
0.0
 70
   128
 71
    11
 72
     1
 73
    -4
  0
VERTEX
  5
9046
  8
0
 10
0.0
 20
0.0
 30
0.0
 70
   128
 71
    12
 72
   -11
 73
     4
  0
VERTEX
  5
9047
  8
0
 10
0.0
 20
0.0
 30
0.0
 70
   128
 71
     2
 72
    13
 73
   -14
  0
VERTEX
  5
9048
  8
0
 10
0.0
 20
0.0
 30
0.0
 70
   128
 71
     3
 72
    -2
 73
    14
  0
SEQEND
  5
922F
  8
0
  0
POLYLINE
  5
9049
  8
0
 66
     1
 10
0.0
 20
0.0
 30
0.0
 70
    64
 71
    14
 72
    12
  0
VERTEX
  5
904A
  8
0
 10
268.467875173176
 20
154.9999999999999
 30
0.0
 70
   192
  0
VERTEX
  5
904B
  8
0
 10
309.9999999999999
 20
0.0
 30
0.0
 70
   192
  0
VERTEX
  5
904C
  8
0
 10
309.9999999999999
 20
0.0
 30
-0.5
 70
   192
  0
VERTEX
  5
904D
  8
0
 10
268.467875173176
 20
154.9999999999999
 30
-0.5
 70
   192
  0
VERTEX
  5
904E
  8
0
 10
155.0
 20
268.4678751731759
 30
-0.5
 70
   192
  0
VERTEX
  5
904F
  8
0
 10
0.000000000000086
 20
309.9999999999999
 30
-0.5
 70
   192
  0
VERTEX
  5
9050
  8
0
 10
0.000000000000086
 20
309.9999999999999
 30
0.0
 70
   192
  0
VERTEX
  5
9051
  8
0
 10
155.0
 20
268.4678751731759
 30
0.0
 70
   192
  0
VERTEX
  5
9052
  8
0
 10
-154.9999999999999
 20
268.467875173176
 30
0.0
 70
   192
  0
VERTEX
  5
9053
  8
0
 10
-154.9999999999999
 20
268.467875173176
 30
-0.5
 70
   192
  0
VERTEX
  5
9054
  8
0
 10
-268.4678751731759
 20
155.0000000000001
 30
-0.5
 70
   192
  0
VERTEX
  5
9055
  8
0
 10
-309.9999999999999
 20
0.0000000000001721
 30
-0.5
 70
   192
  0
VERTEX
  5
9056
  8
0
 10
-309.9999999999999
 20
0.000000000000038
 30
0.0
 70
   192
  0
VERTEX
  5
9057
  8
0
 10
-268.4678751731759
 20
155.0000000000001
 30
0.0
 70
   192
  0
VERTEX
  5
9058
  8
0
 10
0.0
 20
0.0
 30
0.0
 70
   128
 71
     1
 72
     2
 73
    -3
  0
VERTEX
  5
9059
  8
0
 10
0.0
 20
0.0
 30
0.0
 70
   128
 71
    -1
 72
     3
 73
     4
  0
VERTEX
  5
905A
  8
0
 10
0.0
 20
0.0
 30
0.0
 70
   128
 71
     5
 72
     6
 73
    -7
  0
VERTEX
  5
905B
  8
0
 10
0.0
 20
0.0
 30
0.0
 70
   128
 71
    -5
 72
     7
 73
     8
  0
VERTEX
  5
905C
  8
0
 10
0.0
 20
0.0
 30
0.0
 70
   128
 71
     9
 72
     7
 73
    -6
  0
VERTEX
  5
905D
  8
0
 10
0.0
 20
0.0
 30
0.0
 70
   128
 71
    -9
 72
     6
 73
    10
  0
VERTEX
  5
905E
  8
0
 10
0.0
 20
0.0
 30
0.0
 70
   128
 71
    11
 72
    12
 73
   -13
  0
VERTEX
  5
905F
  8
0
 10
0.0
 20
0.0
 30
0.0
 70
   128
 71
   -11
 72
    13
 73
    14
  0
VERTEX
  5
9060
  8
0
 10
0.0
 20
0.0
 30
0.0
 70
   128
 71
     1
 72
     4
 73
    -5
  0
VERTEX
  5
9061
  8
0
 10
0.0
 20
0.0
 30
0.0
 70
   128
 71
    -1
 72
     5
 73
     8
  0
VERTEX
  5
9062
  8
0
 10
0.0
 20
0.0
 30
0.0
 70
   128
 71
     9
 72
    10
 73
   -11
  0
VERTEX
  5
9063
  8
0
 10
0.0
 20
0.0
 30
0.0
 70
   128
 71
    -9
 72
    11
 73
    14
  0
SEQEND
  5
9230
  8
0
  0
POLYLINE
  5
9064
  8
0
 66
     1
 10
0.0
 20
0.0
 30
0.0
 70
    64
 71
    14
 72
    12
  0
VERTEX
  5
9065
  8
0
 10
303.1088913245536
 20
175.0
 30
0.0
 70
   192
  0
VERTEX
  5
9066
  8
0
 10
303.1088913245536
 20
175.0
 30
-2.0
 70
   192
  0
VERTEX
  5
9067
  8
0
 10
175.0000000000001
 20
303.1088913245535
 30
-2.0
 70
   192
  0
VERTEX
  5
9068
  8
0
 10
175.0000000000001
 20
303.1088913245535
 30
0.0
 70
   192
  0
VERTEX
  5
9069
  8
0
 10
-174.9999999999999
 20
303.1088913245536
 30
0.0
 70
   192
  0
VERTEX
  5
906A
  8
0
 10
-174.9999999999999
 20
303.1088913245536
 30
-2.0
 70
   192
  0
VERTEX
  5
906B
  8
0
 10
-303.1088913245535
 20
175.0000000000001
 30
-2.0
 70
   192
  0
VERTEX
  5
906C
  8
0
 10
-303.1088913245535
 20
175.0000000000001
 30
0.0
 70
   192
  0
VERTEX
  5
906D
  8
0
 10
-350.0
 20
0.0000000000001943
 30
-2.0
 70
   192
  0
VERTEX
  5
906E
  8
0
 10
-350.0
 20
0.0000000000000429
 30
0.0
 70
   192
  0
VERTEX
  5
906F
  8
0
 10
0.0000000000000971
 20
350.0
 30
0.0
 70
   192
  0
VERTEX
  5
9070
  8
0
 10
0.0000000000000971
 20
350.0
 30
-2.0
 70
   192
  0
VERTEX
  5
9071
  8
0
 10
350.0
 20
0.0
 30
0.0
 70
   192
  0
VERTEX
  5
9072
  8
0
 10
350.0
 20
0.0
 30
-2.0
 70
   192
  0
VERTEX
  5
9073
  8
0
 10
0.0
 20
0.0
 30
0.0
 70
   128
 71
     1
 72
     2
 73
    -3
  0
VERTEX
  5
9074
  8
0
 10
0.0
 20
0.0
 30
0.0
 70
   128
 71
    -1
 72
     3
 73
     4
  0
VERTEX
  5
9075
  8
0
 10
0.0
 20
0.0
 30
0.0
 70
   128
 71
     5
 72
     6
 73
    -7
  0
VERTEX
  5
9076
  8
0
 10
0.0
 20
0.0
 30
0.0
 70
   128
 71
    -5
 72
     7
 73
     8
  0
VERTEX
  5
9077
  8
0
 10
0.0
 20
0.0
 30
0.0
 70
   128
 71
     8
 72
     7
 73
    -9
  0
VERTEX
  5
9078
  8
0
 10
0.0
 20
0.0
 30
0.0
 70
   128
 71
    -8
 72
     9
 73
    10
  0
VERTEX
  5
9079
  8
0
 10
0.0
 20
0.0
 30
0.0
 70
   128
 71
    11
 72
    12
 73
    -6
  0
VERTEX
  5
907A
  8
0
 10
0.0
 20
0.0
 30
0.0
 70
   128
 71
   -11
 72
     6
 73
     5
  0
VERTEX
  5
907B
  8
0
 10
0.0
 20
0.0
 30
0.0
 70
   128
 71
     4
 72
     3
 73
   -12
  0
VERTEX
  5
907C
  8
0
 10
0.0
 20
0.0
 30
0.0
 70
   128
 71
    -4
 72
    12
 73
    11
  0
VERTEX
  5
907D
  8
0
 10
0.0
 20
0.0
 30
0.0
 70
   128
 71
    13
 72
    14
 73
    -2
  0
VERTEX
  5
907E
  8
0
 10
0.0
 20
0.0
 30
0.0
 70
   128
 71
   -13
 72
     2
 73
     1
  0
SEQEND
  5
9231
  8
0
  0
POLYLINE
  5
907F
  8
0
 66
     1
 10
0.0
 20
0.0
 30
0.0
 70
    64
 71
    14
 72
    12
  0
VERTEX
  5
9080
  8
0
 10
-303.1088913245536
 20
-174.9999999999999
 30
0.0
 70
   192
  0
VERTEX
  5
9081
  8
0
 10
-303.1088913245536
 20
-174.9999999999999
 30
-2.0
 70
   192
  0
VERTEX
  5
9082
  8
0
 10
-175.0000000000001
 20
-303.1088913245535
 30
-2.0
 70
   192
  0
VERTEX
  5
9083
  8
0
 10
-175.0000000000001
 20
-303.1088913245535
 30
0.0
 70
   192
  0
VERTEX
  5
9084
  8
0
 10
174.9999999999999
 20
-303.1088913245536
 30
0.0
 70
   192
  0
VERTEX
  5
9085
  8
0
 10
174.9999999999999
 20
-303.1088913245536
 30
-2.0
 70
   192
  0
VERTEX
  5
9086
  8
0
 10
303.1088913245534
 20
-175.0000000000002
 30
-2.0
 70
   192
  0
VERTEX
  5
9087
  8
0
 10
303.1088913245534
 20
-175.0000000000002
 30
0.0
 70
   192
  0
VERTEX
  5
9088
  8
0
 10
350.0
 20
-0.0000000000002526
 30
-2.0
 70
   192
  0
VERTEX
  5
9089
  8
0
 10
350.0
 20
0.0
 30
0.0
 70
   192
  0
VERTEX
  5
908A
  8
0
 10
-0.000000000000136
 20
-350.0
 30
0.0
 70
   192
  0
VERTEX
  5
908B
  8
0
 10
-0.000000000000136
 20
-350.0
 30
-2.0
 70
   192
  0
VERTEX
  5
908C
  8
0
 10
-350.0
 20
0.0000000000000429
 30
0.0
 70
   192
  0
VERTEX
  5
908D
  8
0
 10
-350.0
 20
0.0000000000000429
 30
-2.0
 70
   192
  0
VERTEX
  5
908E
  8
0
 10
0.0
 20
0.0
 30
0.0
 70
   128
 71
     1
 72
     2
 73
    -3
  0
VERTEX
  5
908F
  8
0
 10
0.0
 20
0.0
 30
0.0
 70
   128
 71
    -1
 72
     3
 73
     4
  0
VERTEX
  5
9090
  8
0
 10
0.0
 20
0.0
 30
0.0
 70
   128
 71
     5
 72
     6
 73
    -7
  0
VERTEX
  5
9091
  8
0
 10
0.0
 20
0.0
 30
0.0
 70
   128
 71
    -5
 72
     7
 73
     8
  0
VERTEX
  5
9092
  8
0
 10
0.0
 20
0.0
 30
0.0
 70
   128
 71
     8
 72
     7
 73
    -9
  0
VERTEX
  5
9093
  8
0
 10
0.0
 20
0.0
 30
0.0
 70
   128
 71
    -8
 72
     9
 73
    10
  0
VERTEX
  5
9094
  8
0
 10
0.0
 20
0.0
 30
0.0
 70
   128
 71
    11
 72
    12
 73
    -6
  0
VERTEX
  5
9095
  8
0
 10
0.0
 20
0.0
 30
0.0
 70
   128
 71
   -11
 72
     6
 73
     5
  0
VERTEX
  5
9096
  8
0
 10
0.0
 20
0.0
 30
0.0
 70
   128
 71
     4
 72
     3
 73
   -12
  0
VERTEX
  5
9097
  8
0
 10
0.0
 20
0.0
 30
0.0
 70
   128
 71
    -4
 72
    12
 73
    11
  0
VERTEX
  5
9098
  8
0
 10
0.0
 20
0.0
 30
0.0
 70
   128
 71
    13
 72
    14
 73
    -2
  0
VERTEX
  5
9099
  8
0
 10
0.0
 20
0.0
 30
0.0
 70
   128
 71
   -13
 72
     2
 73
     1
  0
SEQEND
  5
9232
  8
0
  0
POLYLINE
  5
909A
  8
0
 66
     1
 10
0.0
 20
0.0
 30
0.0
 70
    64
 71
    24
 72
    24
  0
VERTEX
  5
909B
  8
0
 10
-350.0
 20
0.0000000000000429
 30
-2.0
 70
   192
  0
VERTEX
  5
909C
  8
0
 10
-303.1088913245536
 20
-174.9999999999999
 30
-2.0
 70
   192
  0
VERTEX
  5
909D
  8
0
 10
-175.0000000000001
 20
-303.1088913245535
 30
-2.0
 70
   192
  0
VERTEX
  5
909E
  8
0
 10
-0.000000000000136
 20
-350.0
 30
-2.0
 70
   192
  0
VERTEX
  5
909F
  8
0
 10
174.9999999999999
 20
-303.1088913245536
 30
-2.0
 70
   192
  0
VERTEX
  5
90A0
  8
0
 10
303.1088913245534
 20
-175.0000000000002
 30
-2.0
 70
   192
  0
VERTEX
  5
90A1
  8
0
 10
350.0
 20
0.0
 30
-2.0
 70
   192
  0
VERTEX
  5
90A2
  8
0
 10
303.1088913245536
 20
175.0
 30
-2.0
 70
   192
  0
VERTEX
  5
90A3
  8
0
 10
175.0000000000001
 20
303.1088913245535
 30
-2.0
 70
   192
  0
VERTEX
  5
90A4
  8
0
 10
0.0000000000000971
 20
350.0
 30
-2.0
 70
   192
  0
VERTEX
  5
90A5
  8
0
 10
-174.9999999999999
 20
303.1088913245536
 30
-2.0
 70
   192
  0
VERTEX
  5
90A6
  8
0
 10
-303.1088913245535
 20
175.0000000000001
 30
-2.0
 70
   192
  0
VERTEX
  5
90A7
  8
0
 10
-305.0
 20
0.0000000000000374
 30
-2.0
 70
   192
  0
VERTEX
  5
90A8
  8
0
 10
-264.1377481542538
 20
152.5
 30
-2.0
 70
   192
  0
VERTEX
  5
90A9
  8
0
 10
-152.5
 20
264.1377481542538
 30
-2.0
 70
   192
  0
VERTEX
  5
90AA
  8
0
 10
-0.0000000000000339
 20
305.0
 30
-2.0
 70
   192
  0
VERTEX
  5
90AB
  8
0
 10
152.4999999999999
 20
264.1377481542538
 30
-2.0
 70
   192
  0
VERTEX
  5
90AC
  8
0
 10
264.1377481542538
 20
152.5000000000001
 30
-2.0
 70
   192
  0
VERTEX
  5
90AD
  8
0
 10
305.0
 20
0.0000000000000374
 30
-2.0
 70
   192
  0
VERTEX
  5
90AE
  8
0
 10
264.1377481542538
 20
-152.4999999999999
 30
-2.0
 70
   192
  0
VERTEX
  5
90AF
  8
0
 10
152.5000000000001
 20
-264.1377481542538
 30
-2.0
 70
   192
  0
VERTEX
  5
90B0
  8
0
 10
0.0000000000001185
 20
-305.0
 30
-2.0
 70
   192
  0
VERTEX
  5
90B1
  8
0
 10
-152.4999999999999
 20
-264.1377481542539
 30
-2.0
 70
   192
  0
VERTEX
  5
90B2
  8
0
 10
-264.1377481542537
 20
-152.5000000000002
 30
-2.0
 70
   192
  0
VERTEX
  5
90B3
  8
0
 10
0.0
 20
0.0
 30
0.0
 70
   128
 71
    14
 72
   -13
 73
    -1
  0
VERTEX
  5
90B4
  8
0
 10
0.0
 20
0.0
 30
0.0
 70
   128
 71
   -14
 72
     1
 73
   -12
  0
VERTEX
  5
90B5
  8
0
 10
0.0
 20
0.0
 30
0.0
 70
   128
 71
    12
 72
   -11
 73
   -15
  0
VERTEX
  5
90B6
  8
0
 10
0.0
 20
0.0
 30
0.0
 70
   128
 71
   -12
 72
    15
 73
   -14
  0
VERTEX
  5
90B7
  8
0
 10
0.0
 20
0.0
 30
0.0
 70
   128
 71
    11
 72
   -10
 73
   -16
  0
VERTEX
  5
90B8
  8
0
 10
0.0
 20
0.0
 30
0.0
 70
   128
 71
   -11
 72
    16
 73
   -15
  0
VERTEX
  5
90B9
  8
0
 10
0.0
 20
0.0
 30
0.0
 70
   128
 71
    10
 72
    -9
 73
   -17
  0
VERTEX
  5
90BA
  8
0
 10
0.0
 20
0.0
 30
0.0
 70
   128
 71
   -10
 72
    17
 73
   -16
  0
VERTEX
  5
90BB
  8
0
 10
0.0
 20
0.0
 30
0.0
 70
   128
 71
     9
 72
    -8
 73
   -18
  0
VERTEX
  5
90BC
  8
0
 10
0.0
 20
0.0
 30
0.0
 70
   128
 71
    -9
 72
    18
 73
   -17
  0
VERTEX
  5
90BD
  8
0
 10
0.0
 20
0.0
 30
0.0
 70
   128
 71
     8
 72
    -7
 73
   -19
  0
VERTEX
  5
90BE
  8
0
 10
0.0
 20
0.0
 30
0.0
 70
   128
 71
    -8
 72
    19
 73
   -18
  0
VERTEX
  5
90BF
  8
0
 10
0.0
 20
0.0
 30
0.0
 70
   128
 71
     7
 72
    -6
 73
   -20
  0
VERTEX
  5
90C0
  8
0
 10
0.0
 20
0.0
 30
0.0
 70
   128
 71
    -7
 72
    20
 73
   -19
  0
VERTEX
  5
90C1
  8
0
 10
0.0
 20
0.0
 30
0.0
 70
   128
 71
     6
 72
    -5
 73
   -21
  0
VERTEX
  5
90C2
  8
0
 10
0.0
 20
0.0
 30
0.0
 70
   128
 71
    -6
 72
    21
 73
   -20
  0
VERTEX
  5
90C3
  8
0
 10
0.0
 20
0.0
 30
0.0
 70
   128
 71
     5
 72
    -4
 73
   -22
  0
VERTEX
  5
90C4
  8
0
 10
0.0
 20
0.0
 30
0.0
 70
   128
 71
    -5
 72
    22
 73
   -21
  0
VERTEX
  5
90C5
  8
0
 10
0.0
 20
0.0
 30
0.0
 70
   128
 71
     4
 72
    -3
 73
   -23
  0
VERTEX
  5
90C6
  8
0
 10
0.0
 20
0.0
 30
0.0
 70
   128
 71
    -4
 72
    23
 73
   -22
  0
VERTEX
  5
90C7
  8
0
 10
0.0
 20
0.0
 30
0.0
 70
   128
 71
     3
 72
    -2
 73
   -24
  0
VERTEX
  5
90C8
  8
0
 10
0.0
 20
0.0
 30
0.0
 70
   128
 71
    -3
 72
    24
 73
   -23
  0
VERTEX
  5
90C9
  8
0
 10
0.0
 20
0.0
 30
0.0
 70
   128
 71
     2
 72
    -1
 73
   -13
  0
VERTEX
  5
90CA
  8
0
 10
0.0
 20
0.0
 30
0.0
 70
   128
 71
    -2
 72
    13
 73
   -24
  0
SEQEND
  5
9233
  8
0
  0
POLYLINE
  5
90CB
  8
0
 66
     1
 10
0.0
 20
0.0
 30
0.0
 70
    64
 71
    24
 72
    24
  0
VERTEX
  5
90CC
  8
0
 10
350.0
 20
0.0
 30
0.0
 70
   192
  0
VERTEX
  5
90CD
  8
0
 10
303.1088913245536
 20
175.0
 30
0.0
 70
   192
  0
VERTEX
  5
90CE
  8
0
 10
175.0000000000001
 20
303.1088913245535
 30
0.0
 70
   192
  0
VERTEX
  5
90CF
  8
0
 10
0.0000000000000971
 20
350.0
 30
0.0
 70
   192
  0
VERTEX
  5
90D0
  8
0
 10
-174.9999999999999
 20
303.1088913245536
 30
0.0
 70
   192
  0
VERTEX
  5
90D1
  8
0
 10
-303.1088913245535
 20
175.0000000000001
 30
0.0
 70
   192
  0
VERTEX
  5
90D2
  8
0
 10
-350.0
 20
0.0000000000001943
 30
0.0
 70
   192
  0
VERTEX
  5
90D3
  8
0
 10
-303.1088913245536
 20
-174.9999999999999
 30
0.0
 70
   192
  0
VERTEX
  5
90D4
  8
0
 10
-175.0000000000001
 20
-303.1088913245535
 30
0.0
 70
   192
  0
VERTEX
  5
90D5
  8
0
 10
-0.000000000000136
 20
-350.0
 30
0.0
 70
   192
  0
VERTEX
  5
90D6
  8
0
 10
174.9999999999999
 20
-303.1088913245536
 30
0.0
 70
   192
  0
VERTEX
  5
90D7
  8
0
 10
303.1088913245534
 20
-175.0000000000002
 30
0.0
 70
   192
  0
VERTEX
  5
90D8
  8
0
 10
-329.9999999999999
 20
0.0000000000001832
 30
0.0
 70
   192
  0
VERTEX
  5
90D9
  8
0
 10
-285.7883832488646
 20
165.0000000000001
 30
0.0
 70
   192
  0
VERTEX
  5
90DA
  8
0
 10
-164.9999999999999
 20
285.7883832488648
 30
0.0
 70
   192
  0
VERTEX
  5
90DB
  8
0
 10
0.0000000000000916
 20
329.9999999999999
 30
0.0
 70
   192
  0
VERTEX
  5
90DC
  8
0
 10
165.0000000000001
 20
285.7883832488647
 30
0.0
 70
   192
  0
VERTEX
  5
90DD
  8
0
 10
285.7883832488647
 20
164.9999999999999
 30
0.0
 70
   192
  0
VERTEX
  5
90DE
  8
0
 10
329.9999999999999
 20
0.0
 30
0.0
 70
   192
  0
VERTEX
  5
90DF
  8
0
 10
285.7883832488646
 20
-165.0000000000001
 30
0.0
 70
   192
  0
VERTEX
  5
90E0
  8
0
 10
164.9999999999998
 20
-285.7883832488648
 30
0.0
 70
   192
  0
VERTEX
  5
90E1
  8
0
 10
-0.0000000000001282
 20
-329.9999999999999
 30
0.0
 70
   192
  0
VERTEX
  5
90E2
  8
0
 10
-165.0000000000001
 20
-285.7883832488647
 30
0.0
 70
   192
  0
VERTEX
  5
90E3
  8
0
 10
-285.7883832488648
 20
-164.9999999999999
 30
0.0
 70
   192
  0
VERTEX
  5
90E4
  8
0
 10
0.0
 20
0.0
 30
0.0
 70
   128
 71
    -7
 72
    13
 73
   -14
  0
VERTEX
  5
90E5
  8
0
 10
0.0
 20
0.0
 30
0.0
 70
   128
 71
     6
 72
    -7
 73
   -14
  0
VERTEX
  5
90E6
  8
0
 10
0.0
 20
0.0
 30
0.0
 70
   128
 71
   -15
 72
     5
 73
    -6
  0
VERTEX
  5
90E7
  8
0
 10
0.0
 20
0.0
 30
0.0
 70
   128
 71
    14
 72
   -15
 73
    -6
  0
VERTEX
  5
90E8
  8
0
 10
0.0
 20
0.0
 30
0.0
 70
   128
 71
   -16
 72
     4
 73
    -5
  0
VERTEX
  5
90E9
  8
0
 10
0.0
 20
0.0
 30
0.0
 70
   128
 71
    15
 72
   -16
 73
    -5
  0
VERTEX
  5
90EA
  8
0
 10
0.0
 20
0.0
 30
0.0
 70
   128
 71
   -17
 72
     3
 73
    -4
  0
VERTEX
  5
90EB
  8
0
 10
0.0
 20
0.0
 30
0.0
 70
   128
 71
    16
 72
   -17
 73
    -4
  0
VERTEX
  5
90EC
  8
0
 10
0.0
 20
0.0
 30
0.0
 70
   128
 71
   -18
 72
     2
 73
    -3
  0
VERTEX
  5
90ED
  8
0
 10
0.0
 20
0.0
 30
0.0
 70
   128
 71
    17
 72
   -18
 73
    -3
  0
VERTEX
  5
90EE
  8
0
 10
0.0
 20
0.0
 30
0.0
 70
   128
 71
   -19
 72
     1
 73
    -2
  0
VERTEX
  5
90EF
  8
0
 10
0.0
 20
0.0
 30
0.0
 70
   128
 71
    18
 72
   -19
 73
    -2
  0
VERTEX
  5
90F0
  8
0
 10
0.0
 20
0.0
 30
0.0
 70
   128
 71
   -20
 72
    12
 73
    -1
  0
VERTEX
  5
90F1
  8
0
 10
0.0
 20
0.0
 30
0.0
 70
   128
 71
    19
 72
   -20
 73
    -1
  0
VERTEX
  5
90F2
  8
0
 10
0.0
 20
0.0
 30
0.0
 70
   128
 71
   -21
 72
    11
 73
   -12
  0
VERTEX
  5
90F3
  8
0
 10
0.0
 20
0.0
 30
0.0
 70
   128
 71
    20
 72
   -21
 73
   -12
  0
VERTEX
  5
90F4
  8
0
 10
0.0
 20
0.0
 30
0.0
 70
   128
 71
   -22
 72
    10
 73
   -11
  0
VERTEX
  5
90F5
  8
0
 10
0.0
 20
0.0
 30
0.0
 70
   128
 71
    21
 72
   -22
 73
   -11
  0
VERTEX
  5
90F6
  8
0
 10
0.0
 20
0.0
 30
0.0
 70
   128
 71
   -23
 72
     9
 73
   -10
  0
VERTEX
  5
90F7
  8
0
 10
0.0
 20
0.0
 30
0.0
 70
   128
 71
    22
 72
   -23
 73
   -10
  0
VERTEX
  5
90F8
  8
0
 10
0.0
 20
0.0
 30
0.0
 70
   128
 71
   -24
 72
     8
 73
    -9
  0
VERTEX
  5
90F9
  8
0
 10
0.0
 20
0.0
 30
0.0
 70
   128
 71
    23
 72
   -24
 73
    -9
  0
VERTEX
  5
90FA
  8
0
 10
0.0
 20
0.0
 30
0.0
 70
   128
 71
   -13
 72
     7
 73
    -8
  0
VERTEX
  5
90FB
  8
0
 10
0.0
 20
0.0
 30
0.0
 70
   128
 71
    24
 72
   -13
 73
    -8
  0
SEQEND
  5
9234
  8
0
  0
POLYLINE
  5
90FC
  8
0
 66
     1
 10
0.0
 20
0.0
 30
0.0
 70
    64
 71
    14
 72
    12
  0
VERTEX
  5
90FD
  8
0
 10
-268.467875173176
 20
-154.9999999999999
 30
0.0
 70
   192
  0
VERTEX
  5
90FE
  8
0
 10
-309.9999999999999
 20
0.000000000000038
 30
0.0
 70
   192
  0
VERTEX
  5
90FF
  8
0
 10
-309.9999999999999
 20
0.000000000000038
 30
-0.5
 70
   192
  0
VERTEX
  5
9100
  8
0
 10
-268.467875173176
 20
-154.9999999999999
 30
-0.5
 70
   192
  0
VERTEX
  5
9101
  8
0
 10
-155.0000000000001
 20
-268.4678751731759
 30
-0.5
 70
   192
  0
VERTEX
  5
9102
  8
0
 10
-0.0000000000001205
 20
-309.9999999999999
 30
-0.5
 70
   192
  0
VERTEX
  5
9103
  8
0
 10
-0.0000000000001205
 20
-309.9999999999999
 30
0.0
 70
   192
  0
VERTEX
  5
9104
  8
0
 10
-155.0000000000001
 20
-268.4678751731759
 30
0.0
 70
   192
  0
VERTEX
  5
9105
  8
0
 10
154.9999999999999
 20
-268.467875173176
 30
0.0
 70
   192
  0
VERTEX
  5
9106
  8
0
 10
154.9999999999999
 20
-268.467875173176
 30
-0.5
 70
   192
  0
VERTEX
  5
9107
  8
0
 10
268.4678751731759
 20
-155.0000000000001
 30
-0.5
 70
   192
  0
VERTEX
  5
9108
  8
0
 10
309.9999999999999
 20
-0.0000000000002237
 30
-0.5
 70
   192
  0
VERTEX
  5
9109
  8
0
 10
309.9999999999999
 20
0.0
 30
0.0
 70
   192
  0
VERTEX
  5
910A
  8
0
 10
268.4678751731759
 20
-155.0000000000001
 30
0.0
 70
   192
  0
VERTEX
  5
910B
  8
0
 10
0.0
 20
0.0
 30
0.0
 70
   128
 71
     1
 72
     2
 73
    -3
  0
VERTEX
  5
910C
  8
0
 10
0.0
 20
0.0
 30
0.0
 70
   128
 71
    -1
 72
     3
 73
     4
  0
VERTEX
  5
910D
  8
0
 10
0.0
 20
0.0
 30
0.0
 70
   128
 71
     5
 72
     6
 73
    -7
  0
VERTEX
  5
910E
  8
0
 10
0.0
 20
0.0
 30
0.0
 70
   128
 71
    -5
 72
     7
 73
     8
  0
VERTEX
  5
910F
  8
0
 10
0.0
 20
0.0
 30
0.0
 70
   128
 71
     9
 72
     7
 73
    -6
  0
VERTEX
  5
9110
  8
0
 10
0.0
 20
0.0
 30
0.0
 70
   128
 71
    -9
 72
     6
 73
    10
  0
VERTEX
  5
9111
  8
0
 10
0.0
 20
0.0
 30
0.0
 70
   128
 71
    11
 72
    12
 73
   -13
  0
VERTEX
  5
9112
  8
0
 10
0.0
 20
0.0
 30
0.0
 70
   128
 71
   -11
 72
    13
 73
    14
  0
VERTEX
  5
9113
  8
0
 10
0.0
 20
0.0
 30
0.0
 70
   128
 71
     1
 72
     4
 73
    -5
  0
VERTEX
  5
9114
  8
0
 10
0.0
 20
0.0
 30
0.0
 70
   128
 71
    -1
 72
     5
 73
     8
  0
VERTEX
  5
9115
  8
0
 10
0.0
 20
0.0
 30
0.0
 70
   128
 71
     9
 72
    10
 73
   -11
  0
VERTEX
  5
9116
  8
0
 10
0.0
 20
0.0
 30
0.0
 70
   128
 71
    -9
 72
    11
 73
    14
  0
SEQEND
  5
9235
  8
0
  0
POLYLINE
  5
9117
  8
0
 66
     1
 10
0.0
 20
0.0
 30
0.0
 70
    64
 71
    14
 72
    12
  0
VERTEX
  5
9118
  8
0
 10
165.0000000000001
 20
285.7883832488647
 30
-0.5
 70
   192
  0
VERTEX
  5
9119
  8
0
 10
285.7883832488647
 20
164.9999999999999
 30
-0.5
 70
   192
  0
VERTEX
  5
911A
  8
0
 10
285.7883832488647
 20
164.9999999999999
 30
0.0
 70
   192
  0
VERTEX
  5
911B
  8
0
 10
165.0000000000001
 20
285.7883832488647
 30
0.0
 70
   192
  0
VERTEX
  5
911C
  8
0
 10
-285.7883832488646
 20
165.0000000000001
 30
-0.5
 70
   192
  0
VERTEX
  5
911D
  8
0
 10
-164.9999999999999
 20
285.7883832488648
 30
-0.5
 70
   192
  0
VERTEX
  5
911E
  8
0
 10
-164.9999999999999
 20
285.7883832488648
 30
0.0
 70
   192
  0
VERTEX
  5
911F
  8
0
 10
-285.7883832488646
 20
165.0000000000001
 30
0.0
 70
   192
  0
VERTEX
  5
9120
  8
0
 10
-329.9999999999999
 20
0.0000000000000404
 30
-0.5
 70
   192
  0
VERTEX
  5
9121
  8
0
 10
-329.9999999999999
 20
0.0000000000000404
 30
0.0
 70
   192
  0
VERTEX
  5
9122
  8
0
 10
0.0000000000000916
 20
329.9999999999999
 30
-0.5
 70
   192
  0
VERTEX
  5
9123
  8
0
 10
0.0000000000000916
 20
329.9999999999999
 30
0.0
 70
   192
  0
VERTEX
  5
9124
  8
0
 10
329.9999999999999
 20
0.0
 30
-0.5
 70
   192
  0
VERTEX
  5
9125
  8
0
 10
329.9999999999999
 20
0.0
 30
0.0
 70
   192
  0
VERTEX
  5
9126
  8
0
 10
0.0
 20
0.0
 30
0.0
 70
   128
 71
     1
 72
     2
 73
    -3
  0
VERTEX
  5
9127
  8
0
 10
0.0
 20
0.0
 30
0.0
 70
   128
 71
     4
 72
    -1
 73
     3
  0
VERTEX
  5
9128
  8
0
 10
0.0
 20
0.0
 30
0.0
 70
   128
 71
     5
 72
     6
 73
    -7
  0
VERTEX
  5
9129
  8
0
 10
0.0
 20
0.0
 30
0.0
 70
   128
 71
     8
 72
    -5
 73
     7
  0
VERTEX
  5
912A
  8
0
 10
0.0
 20
0.0
 30
0.0
 70
   128
 71
     9
 72
     5
 73
    -8
  0
VERTEX
  5
912B
  8
0
 10
0.0
 20
0.0
 30
0.0
 70
   128
 71
    10
 72
    -9
 73
     8
  0
VERTEX
  5
912C
  8
0
 10
0.0
 20
0.0
 30
0.0
 70
   128
 71
     6
 72
    11
 73
   -12
  0
VERTEX
  5
912D
  8
0
 10
0.0
 20
0.0
 30
0.0
 70
   128
 71
     7
 72
    -6
 73
    12
  0
VERTEX
  5
912E
  8
0
 10
0.0
 20
0.0
 30
0.0
 70
   128
 71
    11
 72
     1
 73
    -4
  0
VERTEX
  5
912F
  8
0
 10
0.0
 20
0.0
 30
0.0
 70
   128
 71
    12
 72
   -11
 73
     4
  0
VERTEX
  5
9130
  8
0
 10
0.0
 20
0.0
 30
0.0
 70
   128
 71
     2
 72
    13
 73
   -14
  0
VERTEX
  5
9131
  8
0
 10
0.0
 20
0.0
 30
0.0
 70
   128
 71
     3
 72
    -2
 73
    14
  0
SEQEND
  5
9236
  8
0
  0
POLYLINE
  5
9132
  8
0
 66
     1
 10
0.0
 20
0.0
 30
0.0
 70
    64
 71
    24
 72
    24
  0
VERTEX
  5
9133
  8
0
 10
329.9999999999999
 20
0.0
 30
-0.5
 70
   192
  0
VERTEX
  5
9134
  8
0
 10
285.7883832488647
 20
164.9999999999999
 30
-0.5
 70
   192
  0
VERTEX
  5
9135
  8
0
 10
165.0000000000001
 20
285.7883832488647
 30
-0.5
 70
   192
  0
VERTEX
  5
9136
  8
0
 10
0.0000000000000916
 20
329.9999999999999
 30
-0.5
 70
   192
  0
VERTEX
  5
9137
  8
0
 10
-164.9999999999999
 20
285.7883832488648
 30
-0.5
 70
   192
  0
VERTEX
  5
9138
  8
0
 10
-285.7883832488646
 20
165.0000000000001
 30
-0.5
 70
   192
  0
VERTEX
  5
9139
  8
0
 10
-329.9999999999999
 20
0.0000000000001832
 30
-0.5
 70
   192
  0
VERTEX
  5
913A
  8
0
 10
-285.7883832488648
 20
-164.9999999999999
 30
-0.5
 70
   192
  0
VERTEX
  5
913B
  8
0
 10
-165.0000000000001
 20
-285.7883832488647
 30
-0.5
 70
   192
  0
VERTEX
  5
913C
  8
0
 10
-0.0000000000001282
 20
-329.9999999999999
 30
-0.5
 70
   192
  0
VERTEX
  5
913D
  8
0
 10
164.9999999999998
 20
-285.7883832488648
 30
-0.5
 70
   192
  0
VERTEX
  5
913E
  8
0
 10
285.7883832488646
 20
-165.0000000000001
 30
-0.5
 70
   192
  0
VERTEX
  5
913F
  8
0
 10
-309.9999999999999
 20
0.0000000000001721
 30
-0.5
 70
   192
  0
VERTEX
  5
9140
  8
0
 10
-268.4678751731759
 20
155.0000000000001
 30
-0.5
 70
   192
  0
VERTEX
  5
9141
  8
0
 10
-154.9999999999999
 20
268.467875173176
 30
-0.5
 70
   192
  0
VERTEX
  5
9142
  8
0
 10
0.000000000000086
 20
309.9999999999999
 30
-0.5
 70
   192
  0
VERTEX
  5
9143
  8
0
 10
155.0
 20
268.4678751731759
 30
-0.5
 70
   192
  0
VERTEX
  5
9144
  8
0
 10
268.467875173176
 20
154.9999999999999
 30
-0.5
 70
   192
  0
VERTEX
  5
9145
  8
0
 10
309.9999999999999
 20
0.0
 30
-0.5
 70
   192
  0
VERTEX
  5
9146
  8
0
 10
268.4678751731759
 20
-155.0000000000001
 30
-0.5
 70
   192
  0
VERTEX
  5
9147
  8
0
 10
154.9999999999999
 20
-268.467875173176
 30
-0.5
 70
   192
  0
VERTEX
  5
9148
  8
0
 10
-0.0000000000001205
 20
-309.9999999999999
 30
-0.5
 70
   192
  0
VERTEX
  5
9149
  8
0
 10
-155.0000000000001
 20
-268.4678751731759
 30
-0.5
 70
   192
  0
VERTEX
  5
914A
  8
0
 10
-268.467875173176
 20
-154.9999999999999
 30
-0.5
 70
   192
  0
VERTEX
  5
914B
  8
0
 10
0.0
 20
0.0
 30
0.0
 70
   128
 71
    -7
 72
    13
 73
   -14
  0
VERTEX
  5
914C
  8
0
 10
0.0
 20
0.0
 30
0.0
 70
   128
 71
     6
 72
    -7
 73
   -14
  0
VERTEX
  5
914D
  8
0
 10
0.0
 20
0.0
 30
0.0
 70
   128
 71
   -15
 72
     5
 73
    -6
  0
VERTEX
  5
914E
  8
0
 10
0.0
 20
0.0
 30
0.0
 70
   128
 71
    14
 72
   -15
 73
    -6
  0
VERTEX
  5
914F
  8
0
 10
0.0
 20
0.0
 30
0.0
 70
   128
 71
   -16
 72
     4
 73
    -5
  0
VERTEX
  5
9150
  8
0
 10
0.0
 20
0.0
 30
0.0
 70
   128
 71
    15
 72
   -16
 73
    -5
  0
VERTEX
  5
9151
  8
0
 10
0.0
 20
0.0
 30
0.0
 70
   128
 71
   -17
 72
     3
 73
    -4
  0
VERTEX
  5
9152
  8
0
 10
0.0
 20
0.0
 30
0.0
 70
   128
 71
    16
 72
   -17
 73
    -4
  0
VERTEX
  5
9153
  8
0
 10
0.0
 20
0.0
 30
0.0
 70
   128
 71
   -18
 72
     2
 73
    -3
  0
VERTEX
  5
9154
  8
0
 10
0.0
 20
0.0
 30
0.0
 70
   128
 71
    17
 72
   -18
 73
    -3
  0
VERTEX
  5
9155
  8
0
 10
0.0
 20
0.0
 30
0.0
 70
   128
 71
   -19
 72
     1
 73
    -2
  0
VERTEX
  5
9156
  8
0
 10
0.0
 20
0.0
 30
0.0
 70
   128
 71
    18
 72
   -19
 73
    -2
  0
VERTEX
  5
9157
  8
0
 10
0.0
 20
0.0
 30
0.0
 70
   128
 71
   -20
 72
    12
 73
    -1
  0
VERTEX
  5
9158
  8
0
 10
0.0
 20
0.0
 30
0.0
 70
   128
 71
    19
 72
   -20
 73
    -1
  0
VERTEX
  5
9159
  8
0
 10
0.0
 20
0.0
 30
0.0
 70
   128
 71
   -21
 72
    11
 73
   -12
  0
VERTEX
  5
915A
  8
0
 10
0.0
 20
0.0
 30
0.0
 70
   128
 71
    20
 72
   -21
 73
   -12
  0
VERTEX
  5
915B
  8
0
 10
0.0
 20
0.0
 30
0.0
 70
   128
 71
   -22
 72
    10
 73
   -11
  0
VERTEX
  5
915C
  8
0
 10
0.0
 20
0.0
 30
0.0
 70
   128
 71
    21
 72
   -22
 73
   -11
  0
VERTEX
  5
915D
  8
0
 10
0.0
 20
0.0
 30
0.0
 70
   128
 71
   -23
 72
     9
 73
   -10
  0
VERTEX
  5
915E
  8
0
 10
0.0
 20
0.0
 30
0.0
 70
   128
 71
    22
 72
   -23
 73
   -10
  0
VERTEX
  5
915F
  8
0
 10
0.0
 20
0.0
 30
0.0
 70
   128
 71
   -24
 72
     8
 73
    -9
  0
VERTEX
  5
9160
  8
0
 10
0.0
 20
0.0
 30
0.0
 70
   128
 71
    23
 72
   -24
 73
    -9
  0
VERTEX
  5
9161
  8
0
 10
0.0
 20
0.0
 30
0.0
 70
   128
 71
   -13
 72
     7
 73
    -8
  0
VERTEX
  5
9162
  8
0
 10
0.0
 20
0.0
 30
0.0
 70
   128
 71
    24
 72
   -13
 73
    -8
  0
SEQEND
  5
9237
  8
0
  0
POLYLINE
  5
9163
  8
0
 66
     1
 10
0.0
 20
0.0
 30
0.0
 70
    64
 71
    12
 72
    10
  0
VERTEX
  5
9164
  8
0
 10
309.9999999999999
 20
0.0
 30
0.0
 70
   192
  0
VERTEX
  5
9165
  8
0
 10
268.467875173176
 20
154.9999999999999
 30
0.0
 70
   192
  0
VERTEX
  5
9166
  8
0
 10
155.0
 20
268.4678751731759
 30
0.0
 70
   192
  0
VERTEX
  5
9167
  8
0
 10
0.000000000000086
 20
309.9999999999999
 30
0.0
 70
   192
  0
VERTEX
  5
9168
  8
0
 10
-154.9999999999999
 20
268.467875173176
 30
0.0
 70
   192
  0
VERTEX
  5
9169
  8
0
 10
-268.4678751731759
 20
155.0000000000001
 30
0.0
 70
   192
  0
VERTEX
  5
916A
  8
0
 10
-309.9999999999999
 20
0.0000000000001721
 30
0.0
 70
   192
  0
VERTEX
  5
916B
  8
0
 10
-268.467875173176
 20
-154.9999999999999
 30
0.0
 70
   192
  0
VERTEX
  5
916C
  8
0
 10
-155.0000000000001
 20
-268.4678751731759
 30
0.0
 70
   192
  0
VERTEX
  5
916D
  8
0
 10
-0.0000000000001205
 20
-309.9999999999999
 30
0.0
 70
   192
  0
VERTEX
  5
916E
  8
0
 10
154.9999999999999
 20
-268.467875173176
 30
0.0
 70
   192
  0
VERTEX
  5
916F
  8
0
 10
268.4678751731759
 20
-155.0000000000001
 30
0.0
 70
   192
  0
VERTEX
  5
9170
  8
0
 10
0.0
 20
0.0
 30
0.0
 70
   128
 71
    11
 72
    12
 73
    -1
  0
VERTEX
  5
9171
  8
0
 10
0.0
 20
0.0
 30
0.0
 70
   128
 71
    10
 72
   -11
 73
    -1
  0
VERTEX
  5
9172
  8
0
 10
0.0
 20
0.0
 30
0.0
 70
   128
 71
     9
 72
   -10
 73
    -1
  0
VERTEX
  5
9173
  8
0
 10
0.0
 20
0.0
 30
0.0
 70
   128
 71
     8
 72
    -9
 73
    -1
  0
VERTEX
  5
9174
  8
0
 10
0.0
 20
0.0
 30
0.0
 70
   128
 71
     7
 72
    -8
 73
    -1
  0
VERTEX
  5
9175
  8
0
 10
0.0
 20
0.0
 30
0.0
 70
   128
 71
     6
 72
    -7
 73
    -1
  0
VERTEX
  5
9176
  8
0
 10
0.0
 20
0.0
 30
0.0
 70
   128
 71
     5
 72
    -6
 73
    -1
  0
VERTEX
  5
9177
  8
0
 10
0.0
 20
0.0
 30
0.0
 70
   128
 71
     4
 72
    -5
 73
    -1
  0
VERTEX
  5
9178
  8
0
 10
0.0
 20
0.0
 30
0.0
 70
   128
 71
     3
 72
    -4
 73
    -1
  0
VERTEX
  5
9179
  8
0
 10
0.0
 20
0.0
 30
0.0
 70
   128
 71
     2
 72
    -3
 73
     1
  0
SEQEND
  5
9238
  8
0
  0
POLYLINE
  5
917A
  8
0
 66
     1
 10
0.0
 20
0.0
 30
0.0
 70
    64
 71
    14
 72
    12
  0
VERTEX
  5
917B
  8
0
 10
-264.1377481542537
 20
-152.5000000000002
 30
-2.0
 70
   192
  0
VERTEX
  5
917C
  8
0
 10
-305.0
 20
-0.0000000000002201
 30
-2.0
 70
   192
  0
VERTEX
  5
917D
  8
0
 10
-305.0
 20
0.0000000000000374
 30
-22.0
 70
   192
  0
VERTEX
  5
917E
  8
0
 10
-264.1377481542537
 20
-152.5000000000002
 30
-22.0
 70
   192
  0
VERTEX
  5
917F
  8
0
 10
-152.4999999999999
 20
-264.1377481542539
 30
-22.0
 70
   192
  0
VERTEX
  5
9180
  8
0
 10
0.0000000000001185
 20
-305.0
 30
-22.0
 70
   192
  0
VERTEX
  5
9181
  8
0
 10
0.0000000000001185
 20
-305.0
 30
-2.0
 70
   192
  0
VERTEX
  5
9182
  8
0
 10
-152.4999999999999
 20
-264.1377481542539
 30
-2.0
 70
   192
  0
VERTEX
  5
9183
  8
0
 10
152.5000000000001
 20
-264.1377481542538
 30
-2.0
 70
   192
  0
VERTEX
  5
9184
  8
0
 10
152.5000000000001
 20
-264.1377481542538
 30
-22.0
 70
   192
  0
VERTEX
  5
9185
  8
0
 10
264.1377481542538
 20
-152.4999999999999
 30
-22.0
 70
   192
  0
VERTEX
  5
9186
  8
0
 10
305.0
 20
0.0000000000000374
 30
-22.0
 70
   192
  0
VERTEX
  5
9187
  8
0
 10
305.0
 20
0.0
 30
-2.0
 70
   192
  0
VERTEX
  5
9188
  8
0
 10
264.1377481542538
 20
-152.4999999999999
 30
-2.0
 70
   192
  0
VERTEX
  5
9189
  8
0
 10
0.0
 20
0.0
 30
0.0
 70
   128
 71
     1
 72
     2
 73
    -3
  0
VERTEX
  5
918A
  8
0
 10
0.0
 20
0.0
 30
0.0
 70
   128
 71
    -1
 72
     3
 73
     4
  0
VERTEX
  5
918B
  8
0
 10
0.0
 20
0.0
 30
0.0
 70
   128
 71
     5
 72
     6
 73
    -7
  0
VERTEX
  5
918C
  8
0
 10
0.0
 20
0.0
 30
0.0
 70
   128
 71
    -5
 72
     7
 73
     8
  0
VERTEX
  5
918D
  8
0
 10
0.0
 20
0.0
 30
0.0
 70
   128
 71
     9
 72
     7
 73
    -6
  0
VERTEX
  5
918E
  8
0
 10
0.0
 20
0.0
 30
0.0
 70
   128
 71
    -9
 72
     6
 73
    10
  0
VERTEX
  5
918F
  8
0
 10
0.0
 20
0.0
 30
0.0
 70
   128
 71
    11
 72
    12
 73
   -13
  0
VERTEX
  5
9190
  8
0
 10
0.0
 20
0.0
 30
0.0
 70
   128
 71
   -11
 72
    13
 73
    14
  0
VERTEX
  5
9191
  8
0
 10
0.0
 20
0.0
 30
0.0
 70
   128
 71
     1
 72
     4
 73
    -5
  0
VERTEX
  5
9192
  8
0
 10
0.0
 20
0.0
 30
0.0
 70
   128
 71
    -1
 72
     5
 73
     8
  0
VERTEX
  5
9193
  8
0
 10
0.0
 20
0.0
 30
0.0
 70
   128
 71
     9
 72
    10
 73
   -11
  0
VERTEX
  5
9194
  8
0
 10
0.0
 20
0.0
 30
0.0
 70
   128
 71
    -9
 72
    11
 73
    14
  0
SEQEND
  5
9239
  8
0
  0
POLYLINE
  5
9195
  8
0
 66
     1
 10
0.0
 20
0.0
 30
0.0
 70
    64
 71
    24
 72
    24
  0
VERTEX
  5
9196
  8
0
 10
305.0
 20
0.0000000000000374
 30
-22.0
 70
   192
  0
VERTEX
  5
9197
  8
0
 10
264.1377481542538
 20
-152.4999999999999
 30
-22.0
 70
   192
  0
VERTEX
  5
9198
  8
0
 10
152.5000000000001
 20
-264.1377481542538
 30
-22.0
 70
   192
  0
VERTEX
  5
9199
  8
0
 10
0.0000000000001185
 20
-305.0
 30
-22.0
 70
   192
  0
VERTEX
  5
919A
  8
0
 10
-152.4999999999999
 20
-264.1377481542539
 30
-22.0
 70
   192
  0
VERTEX
  5
919B
  8
0
 10
-264.1377481542537
 20
-152.5000000000002
 30
-22.0
 70
   192
  0
VERTEX
  5
919C
  8
0
 10
-305.0
 20
-0.0000000000002201
 30
-22.0
 70
   192
  0
VERTEX
  5
919D
  8
0
 10
-264.1377481542538
 20
152.5
 30
-22.0
 70
   192
  0
VERTEX
  5
919E
  8
0
 10
-152.5
 20
264.1377481542538
 30
-22.0
 70
   192
  0
VERTEX
  5
919F
  8
0
 10
-0.0000000000000339
 20
305.0
 30
-22.0
 70
   192
  0
VERTEX
  5
91A0
  8
0
 10
152.4999999999999
 20
264.1377481542538
 30
-22.0
 70
   192
  0
VERTEX
  5
91A1
  8
0
 10
264.1377481542538
 20
152.5000000000001
 30
-22.0
 70
   192
  0
VERTEX
  5
91A2
  8
0
 10
-288.0
 20
-0.0000000000002078
 30
-22.0
 70
   192
  0
VERTEX
  5
91A3
  8
0
 10
-249.4153162899183
 20
-144.0000000000002
 30
-22.0
 70
   192
  0
VERTEX
  5
91A4
  8
0
 10
-143.9999999999999
 20
-249.4153162899184
 30
-22.0
 70
   192
  0
VERTEX
  5
91A5
  8
0
 10
0.0000000000001119
 20
-288.0
 30
-22.0
 70
   192
  0
VERTEX
  5
91A6
  8
0
 10
144.0000000000001
 20
-249.4153162899183
 30
-22.0
 70
   192
  0
VERTEX
  5
91A7
  8
0
 10
249.4153162899184
 20
-143.9999999999999
 30
-22.0
 70
   192
  0
VERTEX
  5
91A8
  8
0
 10
288.0
 20
0.0000000000000353
 30
-22.0
 70
   192
  0
VERTEX
  5
91A9
  8
0
 10
249.4153162899183
 20
144.0000000000001
 30
-22.0
 70
   192
  0
VERTEX
  5
91AA
  8
0
 10
143.9999999999999
 20
249.4153162899183
 30
-22.0
 70
   192
  0
VERTEX
  5
91AB
  8
0
 10
-0.000000000000032
 20
288.0
 30
-22.0
 70
   192
  0
VERTEX
  5
91AC
  8
0
 10
-144.0
 20
249.4153162899183
 30
-22.0
 70
   192
  0
VERTEX
  5
91AD
  8
0
 10
-249.4153162899183
 20
144.0
 30
-22.0
 70
   192
  0
VERTEX
  5
91AE
  8
0
 10
0.0
 20
0.0
 30
0.0
 70
   128
 71
    -7
 72
    13
 73
   -14
  0
VERTEX
  5
91AF
  8
0
 10
0.0
 20
0.0
 30
0.0
 70
   128
 71
     6
 72
    -7
 73
   -14
  0
VERTEX
  5
91B0
  8
0
 10
0.0
 20
0.0
 30
0.0
 70
   128
 71
   -15
 72
     5
 73
    -6
  0
VERTEX
  5
91B1
  8
0
 10
0.0
 20
0.0
 30
0.0
 70
   128
 71
    14
 72
   -15
 73
    -6
  0
VERTEX
  5
91B2
  8
0
 10
0.0
 20
0.0
 30
0.0
 70
   128
 71
   -16
 72
     4
 73
    -5
  0
VERTEX
  5
91B3
  8
0
 10
0.0
 20
0.0
 30
0.0
 70
   128
 71
    15
 72
   -16
 73
    -5
  0
VERTEX
  5
91B4
  8
0
 10
0.0
 20
0.0
 30
0.0
 70
   128
 71
   -17
 72
     3
 73
    -4
  0
VERTEX
  5
91B5
  8
0
 10
0.0
 20
0.0
 30
0.0
 70
   128
 71
    16
 72
   -17
 73
    -4
  0
VERTEX
  5
91B6
  8
0
 10
0.0
 20
0.0
 30
0.0
 70
   128
 71
   -18
 72
     2
 73
    -3
  0
VERTEX
  5
91B7
  8
0
 10
0.0
 20
0.0
 30
0.0
 70
   128
 71
    17
 72
   -18
 73
    -3
  0
VERTEX
  5
91B8
  8
0
 10
0.0
 20
0.0
 30
0.0
 70
   128
 71
   -19
 72
     1
 73
    -2
  0
VERTEX
  5
91B9
  8
0
 10
0.0
 20
0.0
 30
0.0
 70
   128
 71
    18
 72
   -19
 73
    -2
  0
VERTEX
  5
91BA
  8
0
 10
0.0
 20
0.0
 30
0.0
 70
   128
 71
   -20
 72
    12
 73
    -1
  0
VERTEX
  5
91BB
  8
0
 10
0.0
 20
0.0
 30
0.0
 70
   128
 71
    19
 72
   -20
 73
    -1
  0
VERTEX
  5
91BC
  8
0
 10
0.0
 20
0.0
 30
0.0
 70
   128
 71
   -21
 72
    11
 73
   -12
  0
VERTEX
  5
91BD
  8
0
 10
0.0
 20
0.0
 30
0.0
 70
   128
 71
    20
 72
   -21
 73
   -12
  0
VERTEX
  5
91BE
  8
0
 10
0.0
 20
0.0
 30
0.0
 70
   128
 71
   -22
 72
    10
 73
   -11
  0
VERTEX
  5
91BF
  8
0
 10
0.0
 20
0.0
 30
0.0
 70
   128
 71
    21
 72
   -22
 73
   -11
  0
VERTEX
  5
91C0
  8
0
 10
0.0
 20
0.0
 30
0.0
 70
   128
 71
   -23
 72
     9
 73
   -10
  0
VERTEX
  5
91C1
  8
0
 10
0.0
 20
0.0
 30
0.0
 70
   128
 71
    22
 72
   -23
 73
   -10
  0
VERTEX
  5
91C2
  8
0
 10
0.0
 20
0.0
 30
0.0
 70
   128
 71
   -24
 72
     8
 73
    -9
  0
VERTEX
  5
91C3
  8
0
 10
0.0
 20
0.0
 30
0.0
 70
   128
 71
    23
 72
   -24
 73
    -9
  0
VERTEX
  5
91C4
  8
0
 10
0.0
 20
0.0
 30
0.0
 70
   128
 71
   -13
 72
     7
 73
    -8
  0
VERTEX
  5
91C5
  8
0
 10
0.0
 20
0.0
 30
0.0
 70
   128
 71
    24
 72
   -13
 73
    -8
  0
SEQEND
  5
923A
  8
0
  0
POLYLINE
  5
91C6
  8
0
 66
     1
 10
0.0
 20
0.0
 30
0.0
 70
    64
 71
    12
 72
    10
  0
VERTEX
  5
91C7
  8
0
 10
-288.0
 20
0.0000000000000353
 30
-17.0
 70
   192
  0
VERTEX
  5
91C8
  8
0
 10
-249.4153162899184
 20
-143.9999999999999
 30
-17.0
 70
   192
  0
VERTEX
  5
91C9
  8
0
 10
-144.0000000000001
 20
-249.4153162899183
 30
-17.0
 70
   192
  0
VERTEX
  5
91CA
  8
0
 10
-0.0000000000001119
 20
-288.0
 30
-17.0
 70
   192
  0
VERTEX
  5
91CB
  8
0
 10
143.9999999999999
 20
-249.4153162899184
 30
-17.0
 70
   192
  0
VERTEX
  5
91CC
  8
0
 10
249.4153162899183
 20
-144.0000000000002
 30
-17.0
 70
   192
  0
VERTEX
  5
91CD
  8
0
 10
288.0
 20
0.0
 30
-17.0
 70
   192
  0
VERTEX
  5
91CE
  8
0
 10
249.4153162899183
 20
144.0
 30
-17.0
 70
   192
  0
VERTEX
  5
91CF
  8
0
 10
144.0000000000001
 20
249.4153162899183
 30
-17.0
 70
   192
  0
VERTEX
  5
91D0
  8
0
 10
0.0000000000000799
 20
288.0
 30
-17.0
 70
   192
  0
VERTEX
  5
91D1
  8
0
 10
-143.9999999999999
 20
249.4153162899184
 30
-17.0
 70
   192
  0
VERTEX
  5
91D2
  8
0
 10
-249.4153162899183
 20
144.0000000000001
 30
-17.0
 70
   192
  0
VERTEX
  5
91D3
  8
0
 10
0.0
 20
0.0
 30
0.0
 70
   128
 71
     1
 72
    12
 73
   -11
  0
VERTEX
  5
91D4
  8
0
 10
0.0
 20
0.0
 30
0.0
 70
   128
 71
    -1
 72
    11
 73
   -10
  0
VERTEX
  5
91D5
  8
0
 10
0.0
 20
0.0
 30
0.0
 70
   128
 71
    -1
 72
    10
 73
    -9
  0
VERTEX
  5
91D6
  8
0
 10
0.0
 20
0.0
 30
0.0
 70
   128
 71
    -1
 72
     9
 73
    -8
  0
VERTEX
  5
91D7
  8
0
 10
0.0
 20
0.0
 30
0.0
 70
   128
 71
    -1
 72
     8
 73
    -7
  0
VERTEX
  5
91D8
  8
0
 10
0.0
 20
0.0
 30
0.0
 70
   128
 71
    -1
 72
     7
 73
    -6
  0
VERTEX
  5
91D9
  8
0
 10
0.0
 20
0.0
 30
0.0
 70
   128
 71
    -1
 72
     6
 73
    -5
  0
VERTEX
  5
91DA
  8
0
 10
0.0
 20
0.0
 30
0.0
 70
   128
 71
    -1
 72
     5
 73
    -4
  0
VERTEX
  5
91DB
  8
0
 10
0.0
 20
0.0
 30
0.0
 70
   128
 71
    -1
 72
     4
 73
    -3
  0
VERTEX
  5
91DC
  8
0
 10
0.0
 20
0.0
 30
0.0
 70
   128
 71
    -1
 72
     3
 73
     2
  0
SEQEND
  5
923B
  8
0
  0
POLYLINE
  5
91DD
  8
0
 66
     1
 10
0.0
 20
0.0
 30
0.0
 70
    64
 71
    14
 72
    12
  0
VERTEX
  5
91DE
  8
0
 10
288.0
 20
0.0000000000000959
 30
-22.0
 70
   192
  0
VERTEX
  5
91DF
  8
0
 10
288.0
 20
0.0
 30
-17.0
 70
   192
  0
VERTEX
  5
91E0
  8
0
 10
249.4153162899183
 20
144.0
 30
-17.0
 70
   192
  0
VERTEX
  5
91E1
  8
0
 10
249.4153162899183
 20
144.0000000000001
 30
-22.0
 70
   192
  0
VERTEX
  5
91E2
  8
0
 10
0.0000000000000799
 20
288.0
 30
-17.0
 70
   192
  0
VERTEX
  5
91E3
  8
0
 10
-0.000000000000032
 20
288.0
 30
-22.0
 70
   192
  0
VERTEX
  5
91E4
  8
0
 10
143.9999999999999
 20
249.4153162899183
 30
-22.0
 70
   192
  0
VERTEX
  5
91E5
  8
0
 10
144.0000000000001
 20
249.4153162899183
 30
-17.0
 70
   192
  0
VERTEX
  5
91E6
  8
0
 10
-143.9999999999999
 20
249.4153162899184
 30
-17.0
 70
   192
  0
VERTEX
  5
91E7
  8
0
 10
-144.0
 20
249.4153162899183
 30
-22.0
 70
   192
  0
VERTEX
  5
91E8
  8
0
 10
-288.0
 20
0.0000000000000353
 30
-17.0
 70
   192
  0
VERTEX
  5
91E9
  8
0
 10
-288.0
 20
0.0000000000000353
 30
-22.0
 70
   192
  0
VERTEX
  5
91EA
  8
0
 10
-249.4153162899183
 20
144.0
 30
-22.0
 70
   192
  0
VERTEX
  5
91EB
  8
0
 10
-249.4153162899183
 20
144.0000000000001
 30
-17.0
 70
   192
  0
VERTEX
  5
91EC
  8
0
 10
0.0
 20
0.0
 30
0.0
 70
   128
 71
     1
 72
     2
 73
    -3
  0
VERTEX
  5
91ED
  8
0
 10
0.0
 20
0.0
 30
0.0
 70
   128
 71
     4
 72
    -1
 73
     3
  0
VERTEX
  5
91EE
  8
0
 10
0.0
 20
0.0
 30
0.0
 70
   128
 71
     5
 72
     6
 73
    -7
  0
VERTEX
  5
91EF
  8
0
 10
0.0
 20
0.0
 30
0.0
 70
   128
 71
     8
 72
    -5
 73
     7
  0
VERTEX
  5
91F0
  8
0
 10
0.0
 20
0.0
 30
0.0
 70
   128
 71
     6
 72
     5
 73
    -9
  0
VERTEX
  5
91F1
  8
0
 10
0.0
 20
0.0
 30
0.0
 70
   128
 71
    10
 72
    -6
 73
     9
  0
VERTEX
  5
91F2
  8
0
 10
0.0
 20
0.0
 30
0.0
 70
   128
 71
    11
 72
    12
 73
   -13
  0
VERTEX
  5
91F3
  8
0
 10
0.0
 20
0.0
 30
0.0
 70
   128
 71
    14
 72
   -11
 73
    13
  0
VERTEX
  5
91F4
  8
0
 10
0.0
 20
0.0
 30
0.0
 70
   128
 71
     7
 72
     4
 73
    -3
  0
VERTEX
  5
91F5
  8
0
 10
0.0
 20
0.0
 30
0.0
 70
   128
 71
     8
 72
    -7
 73
     3
  0
VERTEX
  5
91F6
  8
0
 10
0.0
 20
0.0
 30
0.0
 70
   128
 71
    13
 72
    10
 73
    -9
  0
VERTEX
  5
91F7
  8
0
 10
0.0
 20
0.0
 30
0.0
 70
   128
 71
    14
 72
   -13
 73
     9
  0
SEQEND
  5
923C
  8
0
  0
ENDBLK
  5
922C
  8
0
  0
ENDSEC
  0
SECTION
  2
ENTITIES
  0
INSERT
  5
8986
  8
0
  2
*X1
 10
0.0
 20
0.0
 30
0.0
  0
INSERT
  5
8987
  8
0
  2
*X2
 10
0.0
 20
0.0
 30
0.0
  0
INSERT
  5
8988
  8
0
  2
*X3
 10
0.0
 20
0.0
 30
0.0
  0
INSERT
  5
8989
  8
0
  2
*X4
 10
0.0
 20
0.0
 30
0.0
  0
ENDSEC
  0
EOF
