  0
SECTION
  2
HEADER
  9
$ACADVER
  1
AC1009
  9
$DWGCODEPAGE
  3
ansi_1250
  9
$INSBASE
 10
0.0
 20
0.0
 30
0.0
  9
$EXTMIN
 10
-400.0
 20
-400.0000000000007
 30
-30.0
  9
$EXTMAX
 10
400.0
 20
400.0000000000007
 30
0.0000000000000853
  9
$LIMMIN
 10
0.0
 20
0.0
  9
$LIMMAX
 10
420.0
 20
297.0
  9
$ORTHOMODE
 70
     0
  9
$REGENMODE
 70
     1
  9
$FILLMODE
 70
     1
  9
$QTEXTMODE
 70
     0
  9
$MIRRTEXT
 70
     0
  9
$DRAGMODE
 70
     2
  9
$LTSCALE
 40
1.0
  9
$OSMODE
 70
   511
  9
$ATTMODE
 70
     1
  9
$TEXTSIZE
 40
2.5
  9
$TRACEWID
 40
1.0
  9
$TEXTSTYLE
  7
STANDARD
  9
$CLAYER
  8
0
  9
$CELTYPE
  6
BYLAYER
  9
$CECOLOR
 62
   256
  9
$DIMSCALE
 40
1.0
  9
$DIMASZ
 40
2.5
  9
$DIMEXO
 40
0.625
  9
$DIMDLI
 40
3.75
  9
$DIMRND
 40
0.0
  9
$DIMDLE
 40
0.0
  9
$DIMEXE
 40
1.25
  9
$DIMTP
 40
0.0
  9
$DIMTM
 40
0.0
  9
$DIMTXT
 40
2.5
  9
$DIMCEN
 40
-2.5
  9
$DIMTSZ
 40
0.0
  9
$DIMTOL
 70
     0
  9
$DIMLIM
 70
     0
  9
$DIMTIH
 70
     0
  9
$DIMTOH
 70
     0
  9
$DIMSE1
 70
     0
  9
$DIMSE2
 70
     0
  9
$DIMTAD
 70
     1
  9
$DIMZIN
 70
     8
  9
$DIMBLK
  1

  9
$DIMASO
 70
     1
  9
$DIMSHO
 70
     1
  9
$DIMPOST
  1

  9
$DIMAPOST
  1

  9
$DIMALT
 70
     0
  9
$DIMALTD
 70
     3
  9
$DIMALTF
 40
0.03937007874016
  9
$DIMLFAC
 40
1.0
  9
$DIMTOFL
 70
     1
  9
$DIMTVP
 40
0.0
  9
$DIMTIX
 70
     0
  9
$DIMSOXD
 70
     0
  9
$DIMSAH
 70
     0
  9
$DIMBLK1
  1

  9
$DIMBLK2
  1

  9
$DIMSTYLE
  2
ISO-25
  9
$DIMCLRD
 70
     0
  9
$DIMCLRE
 70
     0
  9
$DIMCLRT
 70
     0
  9
$DIMTFAC
 40
1.0
  9
$DIMGAP
 40
0.625
  9
$LUNITS
 70
     2
  9
$LUPREC
 70
     3
  9
$SKETCHINC
 40
1.0
  9
$FILLETRAD
 40
10.0
  9
$AUNITS
 70
     0
  9
$AUPREC
 70
     0
  9
$MENU
  1
.
  9
$ELEVATION
 40
0.0
  9
$PELEVATION
 40
0.0
  9
$THICKNESS
 40
0.0
  9
$LIMCHECK
 70
     0
  9
$CHAMFERA
 40
10.0
  9
$CHAMFERB
 40
10.0
  9
$SKPOLY
 70
     0
  9
$TDCREATE
 40
2455022.720692848
  9
$TDUPDATE
 40
2460521.495674433
  9
$TDINDWG
 40
0.1663930671
  9
$TDUSRTIMER
 40
0.1663930671
  9
$USRTIMER
 70
     1
  9
$ANGBASE
 50
0.0
  9
$ANGDIR
 70
     0
  9
$PDMODE
 70
     0
  9
$PDSIZE
 40
0.0
  9
$PLINEWID
 40
0.0
  9
$COORDS
 70
     1
  9
$SPLFRAME
 70
     0
  9
$SPLINETYPE
 70
     6
  9
$SPLINESEGS
 70
     8
  9
$ATTDIA
 70
     0
  9
$ATTREQ
 70
     1
  9
$HANDLING
 70
     1
  9
$HANDSEED
  5
9AF4
  9
$SURFTAB1
 70
     6
  9
$SURFTAB2
 70
     6
  9
$SURFTYPE
 70
     6
  9
$SURFU
 70
     6
  9
$SURFV
 70
     6
  9
$UCSNAME
  2

  9
$UCSORG
 10
0.0
 20
0.0
 30
0.0
  9
$UCSXDIR
 10
1.0
 20
0.0
 30
0.0
  9
$UCSYDIR
 10
0.0
 20
1.0
 30
0.0
  9
$PUCSNAME
  2

  9
$PUCSORG
 10
0.0
 20
0.0
 30
0.0
  9
$PUCSXDIR
 10
1.0
 20
0.0
 30
0.0
  9
$PUCSYDIR
 10
0.0
 20
1.0
 30
0.0
  9
$USERI1
 70
     0
  9
$USERI2
 70
     0
  9
$USERI3
 70
     0
  9
$USERI4
 70
     0
  9
$USERI5
 70
     0
  9
$USERR1
 40
0.0
  9
$USERR2
 40
0.0
  9
$USERR3
 40
0.0
  9
$USERR4
 40
0.0
  9
$USERR5
 40
0.0
  9
$WORLDVIEW
 70
     1
  9
$SHADEDGE
 70
     3
  9
$SHADEDIF
 70
    70
  9
$TILEMODE
 70
     1
  9
$MAXACTVP
 70
    64
  9
$PLIMCHECK
 70
     0
  9
$PEXTMIN
 10
1.000000000000000E+20
 20
1.000000000000000E+20
 30
1.000000000000000E+20
  9
$PEXTMAX
 10
-1.000000000000000E+20
 20
-1.000000000000000E+20
 30
-1.000000000000000E+20
  9
$PLIMMIN
 10
0.0
 20
0.0
  9
$PLIMMAX
 10
0.0
 20
0.0
  9
$UNITMODE
 70
     0
  9
$VISRETAIN
 70
     1
  9
$PLINEGEN
 70
     0
  9
$PSLTSCALE
 70
     1
  0
ENDSEC
  0
SECTION
  2
TABLES
  0
TABLE
  2
VPORT
 70
     1
  0
VPORT
  2
*ACTIVE
 70
     0
 10
0.0
 20
0.0
 11
1.0
 21
1.0
 12
-116.6110757937285
 22
90.81470093901663
 13
0.0
 23
0.0
 14
10.0
 24
10.0
 15
10.0
 25
10.0
 16
0.5773502691896262
 26
0.5773502691896262
 36
0.5773502691896262
 17
-41.66599977993164
 27
123.2469651304761
 37
-82.93435654674934
 40
770.3645241053097
 41
1.88293897882939
 42
50.0
 43
0.0
 44
0.0
 50
0.0
 51
0.0
 71
    16
 72
  1000
 73
     1
 74
     3
 75
     0
 76
     0
 77
     0
 78
     0
  0
ENDTAB
  0
TABLE
  2
LTYPE
 70
     1
  0
LTYPE
  2
CONTINUOUS
 70
     0
  3
Solid line
 72
    65
 73
     0
 40
0.0
  0
ENDTAB
  0
TABLE
  2
LAYER
 70
     1
  0
LAYER
  2
0
 70
     0
 62
     7
  6
CONTINUOUS
  0
ENDTAB
  0
TABLE
  2
STYLE
 70
     2
  0
STYLE
  2
STANDARD
 70
     0
 40
0.0
 41
1.0
 50
0.0
 71
     0
 42
2.5
  3
arial.ttf
  4

  0
STYLE
  2
ANNOTATIVE
 70
     0
 40
0.0
 41
1.0
 50
0.0
 71
     0
 42
2.5
  3
arial.ttf
  4

  0
ENDTAB
  0
TABLE
  2
VIEW
 70
     0
  0
ENDTAB
  0
TABLE
  2
UCS
 70
     0
  0
ENDTAB
  0
TABLE
  2
APPID
 70
     2
  0
APPID
  2
ACAD
 70
     0
  0
APPID
  2
ACADANNOTATIVE
 70
     0
  0
ENDTAB
  0
TABLE
  2
DIMSTYLE
 70
     2
  0
DIMSTYLE
  2
ISO-25
 70
     0
  3

  4

  5

  6

  7

 40
1.0
 41
2.5
 42
0.625
 43
3.75
 44
1.25
 45
0.0
 46
0.0
 47
0.0
 48
0.0
140
2.5
141
-2.5
142
0.0
143
0.03937007874016
144
1.0
145
0.0
146
1.0
147
0.625
 71
     0
 72
     0
 73
     0
 74
     0
 75
     0
 76
     0
 77
     1
 78
     8
170
     0
171
     3
172
     1
173
     0
174
     0
175
     0
176
     0
177
     0
178
     0
  0
DIMSTYLE
  2
ANNOTATIVE
 70
     0
  3

  4

  5

  6

  7

 40
0.0
 41
2.5
 42
0.625
 43
3.75
 44
1.25
 45
0.0
 46
0.0
 47
0.0
 48
0.0
140
2.5
141
-2.5
142
0.0
143
0.03937007874016
144
1.0
145
0.0
146
1.0
147
0.625
 71
     0
 72
     0
 73
     0
 74
     0
 75
     0
 76
     0
 77
     1
 78
     8
170
     0
171
     3
172
     1
173
     0
174
     0
175
     0
176
     0
177
     0
178
     0
  0
ENDTAB
  0
ENDSEC
  0
SECTION
  2
BLOCKS
  0
BLOCK
  8
0
  2
$MODEL_SPACE
 70
     0
 10
0.0
 20
0.0
 30
0.0
  3
$MODEL_SPACE
  1

  0
ENDBLK
  5
21
  8
0
  0
BLOCK
 67
     1
  8
0
  2
$PAPER_SPACE
 70
     0
 10
0.0
 20
0.0
 30
0.0
  3
$PAPER_SPACE
  1

  0
ENDBLK
  5
1D
 67
     1
  8
0
  0
BLOCK
  8
0
  2
*X1
 70
     1
 10
0.0
 20
0.0
 30
0.0
  3
*X1
  1

  0
POLYLINE
  5
969F
  8
0
 66
     1
 10
0.0
 20
0.0
 30
0.0
 70
    64
 71
     6
 72
     4
  0
VERTEX
  5
96A0
  8
0
 10
-182.9999999999999
 20
200.0
 30
-27.0
 70
   192
  0
VERTEX
  5
96A1
  8
0
 10
-216.9999999999998
 20
200.0
 30
-27.0
 70
   192
  0
VERTEX
  5
96A2
  8
0
 10
-216.9999999999998
 20
200.0
 30
-20.0
 70
   192
  0
VERTEX
  5
96A3
  8
0
 10
-219.9999999999998
 20
200.0
 30
-20.0
 70
   192
  0
VERTEX
  5
96A4
  8
0
 10
-219.9999999999998
 20
200.0
 30
-30.0
 70
   192
  0
VERTEX
  5
96A5
  8
0
 10
-182.9999999999999
 20
200.0
 30
-30.0
 70
   192
  0
VERTEX
  5
96A6
  8
0
 10
0.0
 20
0.0
 30
0.0
 70
   128
 71
     6
 72
     1
 73
    -2
  0
VERTEX
  5
96A7
  8
0
 10
0.0
 20
0.0
 30
0.0
 70
   128
 71
     5
 72
    -6
 73
    -2
  0
VERTEX
  5
96A8
  8
0
 10
0.0
 20
0.0
 30
0.0
 70
   128
 71
     3
 72
     4
 73
    -5
  0
VERTEX
  5
96A9
  8
0
 10
0.0
 20
0.0
 30
0.0
 70
   128
 71
     2
 72
    -3
 73
    -5
  0
SEQEND
  5
9AB1
  8
0
  0
POLYLINE
  5
96AA
  8
0
 66
     1
 10
0.0
 20
0.0
 30
0.0
 70
    64
 71
     6
 72
     4
  0
VERTEX
  5
96AB
  8
0
 10
-219.9999999999998
 20
165.0
 30
-17.0
 70
   192
  0
VERTEX
  5
96AC
  8
0
 10
-219.9999999999998
 20
225.0
 30
-17.0
 70
   192
  0
VERTEX
  5
96AD
  8
0
 10
-219.9999999999998
 20
225.0
 30
-30.0
 70
   192
  0
VERTEX
  5
96AE
  8
0
 10
-219.9999999999998
 20
200.0
 30
-30.0
 70
   192
  0
VERTEX
  5
96AF
  8
0
 10
-219.9999999999998
 20
200.0
 30
-20.0
 70
   192
  0
VERTEX
  5
96B0
  8
0
 10
-219.9999999999998
 20
165.0
 30
-20.0
 70
   192
  0
VERTEX
  5
96B1
  8
0
 10
0.0
 20
0.0
 30
0.0
 70
   128
 71
     3
 72
     4
 73
    -5
  0
VERTEX
  5
96B2
  8
0
 10
0.0
 20
0.0
 30
0.0
 70
   128
 71
     2
 72
    -3
 73
    -5
  0
VERTEX
  5
96B3
  8
0
 10
0.0
 20
0.0
 30
0.0
 70
   128
 71
     6
 72
     1
 73
    -2
  0
VERTEX
  5
96B4
  8
0
 10
0.0
 20
0.0
 30
0.0
 70
   128
 71
     5
 72
    -6
 73
    -2
  0
SEQEND
  5
9AB2
  8
0
  0
POLYLINE
  5
96B5
  8
0
 66
     1
 10
0.0
 20
0.0
 30
0.0
 70
    64
 71
     4
 72
     2
  0
VERTEX
  5
96B6
  8
0
 10
-219.9999999999998
 20
225.0
 30
-17.0
 70
   192
  0
VERTEX
  5
96B7
  8
0
 10
-219.9999999999998
 20
225.0
 30
-30.0
 70
   192
  0
VERTEX
  5
96B8
  8
0
 10
-139.9999999999999
 20
225.0
 30
-30.0
 70
   192
  0
VERTEX
  5
96B9
  8
0
 10
-139.9999999999999
 20
225.0
 30
-17.0
 70
   192
  0
VERTEX
  5
96BA
  8
0
 10
0.0
 20
0.0
 30
0.0
 70
   128
 71
     1
 72
     4
 73
    -3
  0
VERTEX
  5
96BB
  8
0
 10
0.0
 20
0.0
 30
0.0
 70
   128
 71
    -1
 72
     3
 73
     2
  0
SEQEND
  5
9AB3
  8
0
  0
POLYLINE
  5
96BC
  8
0
 66
     1
 10
0.0
 20
0.0
 30
0.0
 70
    64
 71
     6
 72
     4
  0
VERTEX
  5
96BD
  8
0
 10
-139.9999999999999
 20
225.0
 30
-17.0
 70
   192
  0
VERTEX
  5
96BE
  8
0
 10
-139.9999999999999
 20
225.0
 30
-30.0
 70
   192
  0
VERTEX
  5
96BF
  8
0
 10
-140.0
 20
200.0
 30
-30.0
 70
   192
  0
VERTEX
  5
96C0
  8
0
 10
-140.0
 20
200.0
 30
-20.0
 70
   192
  0
VERTEX
  5
96C1
  8
0
 10
-140.0000000000001
 20
165.0
 30
-20.0
 70
   192
  0
VERTEX
  5
96C2
  8
0
 10
-140.0000000000001
 20
165.0
 30
-17.0
 70
   192
  0
VERTEX
  5
96C3
  8
0
 10
0.0
 20
0.0
 30
0.0
 70
   128
 71
     4
 72
     3
 73
    -2
  0
VERTEX
  5
96C4
  8
0
 10
0.0
 20
0.0
 30
0.0
 70
   128
 71
    -4
 72
     2
 73
    -1
  0
VERTEX
  5
96C5
  8
0
 10
0.0
 20
0.0
 30
0.0
 70
   128
 71
     1
 72
     6
 73
    -5
  0
VERTEX
  5
96C6
  8
0
 10
0.0
 20
0.0
 30
0.0
 70
   128
 71
    -1
 72
     5
 73
    -4
  0
SEQEND
  5
9AB4
  8
0
  0
POLYLINE
  5
96C7
  8
0
 66
     1
 10
0.0
 20
0.0
 30
0.0
 70
    64
 71
     4
 72
     2
  0
VERTEX
  5
96C8
  8
0
 10
-140.0000000000001
 20
165.0
 30
-17.0
 70
   192
  0
VERTEX
  5
96C9
  8
0
 10
-219.9999999999998
 20
165.0
 30
-17.0
 70
   192
  0
VERTEX
  5
96CA
  8
0
 10
-219.9999999999998
 20
165.0
 30
-20.0
 70
   192
  0
VERTEX
  5
96CB
  8
0
 10
-140.0000000000001
 20
165.0
 30
-20.0
 70
   192
  0
VERTEX
  5
96CC
  8
0
 10
0.0
 20
0.0
 30
0.0
 70
   128
 71
     3
 72
     4
 73
    -1
  0
VERTEX
  5
96CD
  8
0
 10
0.0
 20
0.0
 30
0.0
 70
   128
 71
     2
 72
    -3
 73
     1
  0
SEQEND
  5
9AB5
  8
0
  0
POLYLINE
  5
96CE
  8
0
 66
     1
 10
0.0
 20
0.0
 30
0.0
 70
    64
 71
     8
 72
     6
  0
VERTEX
  5
96CF
  8
0
 10
-142.9999999999999
 20
222.0
 30
-20.0
 70
   192
  0
VERTEX
  5
96D0
  8
0
 10
-216.9999999999998
 20
222.0
 30
-20.0
 70
   192
  0
VERTEX
  5
96D1
  8
0
 10
-216.9999999999998
 20
200.0
 30
-20.0
 70
   192
  0
VERTEX
  5
96D2
  8
0
 10
-219.9999999999998
 20
200.0
 30
-20.0
 70
   192
  0
VERTEX
  5
96D3
  8
0
 10
-219.9999999999998
 20
165.0
 30
-20.0
 70
   192
  0
VERTEX
  5
96D4
  8
0
 10
-140.0000000000001
 20
165.0
 30
-20.0
 70
   192
  0
VERTEX
  5
96D5
  8
0
 10
-140.0
 20
200.0
 30
-20.0
 70
   192
  0
VERTEX
  5
96D6
  8
0
 10
-142.9999999999999
 20
200.0
 30
-20.0
 70
   192
  0
VERTEX
  5
96D7
  8
0
 10
0.0
 20
0.0
 30
0.0
 70
   128
 71
     8
 72
     7
 73
    -6
  0
VERTEX
  5
96D8
  8
0
 10
0.0
 20
0.0
 30
0.0
 70
   128
 71
     3
 72
     2
 73
    -1
  0
VERTEX
  5
96D9
  8
0
 10
0.0
 20
0.0
 30
0.0
 70
   128
 71
    -3
 72
     1
 73
    -8
  0
VERTEX
  5
96DA
  8
0
 10
0.0
 20
0.0
 30
0.0
 70
   128
 71
    -8
 72
     6
 73
    -5
  0
VERTEX
  5
96DB
  8
0
 10
0.0
 20
0.0
 30
0.0
 70
   128
 71
    -8
 72
    -5
 73
    -3
  0
VERTEX
  5
96DC
  8
0
 10
0.0
 20
0.0
 30
0.0
 70
   128
 71
     5
 72
     4
 73
    -3
  0
SEQEND
  5
9AB6
  8
0
  0
POLYLINE
  5
96DD
  8
0
 66
     1
 10
0.0
 20
0.0
 30
0.0
 70
    64
 71
     4
 72
     2
  0
VERTEX
  5
96DE
  8
0
 10
-219.9999999999998
 20
225.0
 30
-17.0
 70
   192
  0
VERTEX
  5
96DF
  8
0
 10
-219.9999999999998
 20
165.0
 30
-17.0
 70
   192
  0
VERTEX
  5
96E0
  8
0
 10
-140.0000000000001
 20
165.0
 30
-17.0
 70
   192
  0
VERTEX
  5
96E1
  8
0
 10
-139.9999999999999
 20
225.0
 30
-17.0
 70
   192
  0
VERTEX
  5
96E2
  8
0
 10
0.0
 20
0.0
 30
0.0
 70
   128
 71
     3
 72
     4
 73
    -1
  0
VERTEX
  5
96E3
  8
0
 10
0.0
 20
0.0
 30
0.0
 70
   128
 71
     2
 72
    -3
 73
     1
  0
SEQEND
  5
9AB7
  8
0
  0
POLYLINE
  5
96E4
  8
0
 66
     1
 10
0.0
 20
0.0
 30
0.0
 70
    64
 71
     4
 72
     2
  0
VERTEX
  5
96E5
  8
0
 10
-176.9999999999998
 20
220.0
 30
-27.0
 70
   192
  0
VERTEX
  5
96E6
  8
0
 10
-182.9999999999999
 20
220.0
 30
-27.0
 70
   192
  0
VERTEX
  5
96E7
  8
0
 10
-182.9999999999999
 20
220.0
 30
-30.0
 70
   192
  0
VERTEX
  5
96E8
  8
0
 10
-176.9999999999998
 20
220.0
 30
-30.0
 70
   192
  0
VERTEX
  5
96E9
  8
0
 10
0.0
 20
0.0
 30
0.0
 70
   128
 71
     3
 72
     4
 73
    -1
  0
VERTEX
  5
96EA
  8
0
 10
0.0
 20
0.0
 30
0.0
 70
   128
 71
     2
 72
    -3
 73
     1
  0
SEQEND
  5
9AB8
  8
0
  0
POLYLINE
  5
96EB
  8
0
 66
     1
 10
0.0
 20
0.0
 30
0.0
 70
    64
 71
     4
 72
     2
  0
VERTEX
  5
96EC
  8
0
 10
-182.9999999999999
 20
220.0
 30
-27.0
 70
   192
  0
VERTEX
  5
96ED
  8
0
 10
-182.9999999999999
 20
200.0
 30
-27.0
 70
   192
  0
VERTEX
  5
96EE
  8
0
 10
-182.9999999999999
 20
200.0
 30
-30.0
 70
   192
  0
VERTEX
  5
96EF
  8
0
 10
-182.9999999999999
 20
220.0
 30
-30.0
 70
   192
  0
VERTEX
  5
96F0
  8
0
 10
0.0
 20
0.0
 30
0.0
 70
   128
 71
     3
 72
     4
 73
    -1
  0
VERTEX
  5
96F1
  8
0
 10
0.0
 20
0.0
 30
0.0
 70
   128
 71
     2
 72
    -3
 73
     1
  0
SEQEND
  5
9AB9
  8
0
  0
POLYLINE
  5
96F2
  8
0
 66
     1
 10
0.0
 20
0.0
 30
0.0
 70
    64
 71
     6
 72
     4
  0
VERTEX
  5
96F3
  8
0
 10
-143.0
 20
200.0
 30
-20.0
 70
   192
  0
VERTEX
  5
96F4
  8
0
 10
-143.0
 20
200.0
 30
-27.0
 70
   192
  0
VERTEX
  5
96F5
  8
0
 10
-176.9999999999998
 20
200.0
 30
-27.0
 70
   192
  0
VERTEX
  5
96F6
  8
0
 10
-176.9999999999998
 20
200.0
 30
-30.0
 70
   192
  0
VERTEX
  5
96F7
  8
0
 10
-140.0
 20
200.0
 30
-30.0
 70
   192
  0
VERTEX
  5
96F8
  8
0
 10
-140.0
 20
200.0
 30
-20.0
 70
   192
  0
VERTEX
  5
96F9
  8
0
 10
0.0
 20
0.0
 30
0.0
 70
   128
 71
     6
 72
     1
 73
    -2
  0
VERTEX
  5
96FA
  8
0
 10
0.0
 20
0.0
 30
0.0
 70
   128
 71
     5
 72
    -6
 73
    -2
  0
VERTEX
  5
96FB
  8
0
 10
0.0
 20
0.0
 30
0.0
 70
   128
 71
     3
 72
     4
 73
    -5
  0
VERTEX
  5
96FC
  8
0
 10
0.0
 20
0.0
 30
0.0
 70
   128
 71
     2
 72
    -3
 73
    -5
  0
SEQEND
  5
9ABA
  8
0
  0
POLYLINE
  5
96FD
  8
0
 66
     1
 10
0.0
 20
0.0
 30
0.0
 70
    64
 71
     4
 72
     2
  0
VERTEX
  5
96FE
  8
0
 10
-176.9999999999998
 20
200.0
 30
-27.0
 70
   192
  0
VERTEX
  5
96FF
  8
0
 10
-176.9999999999998
 20
220.0
 30
-27.0
 70
   192
  0
VERTEX
  5
9700
  8
0
 10
-176.9999999999998
 20
220.0
 30
-30.0
 70
   192
  0
VERTEX
  5
9701
  8
0
 10
-176.9999999999998
 20
200.0
 30
-30.0
 70
   192
  0
VERTEX
  5
9702
  8
0
 10
0.0
 20
0.0
 30
0.0
 70
   128
 71
     3
 72
     4
 73
    -1
  0
VERTEX
  5
9703
  8
0
 10
0.0
 20
0.0
 30
0.0
 70
   128
 71
     2
 72
    -3
 73
     1
  0
SEQEND
  5
9ABB
  8
0
  0
POLYLINE
  5
9704
  8
0
 66
     1
 10
0.0
 20
0.0
 30
0.0
 70
    64
 71
     8
 72
     6
  0
VERTEX
  5
9705
  8
0
 10
-176.9999999999998
 20
220.0
 30
-30.0
 70
   192
  0
VERTEX
  5
9706
  8
0
 10
-182.9999999999999
 20
220.0
 30
-30.0
 70
   192
  0
VERTEX
  5
9707
  8
0
 10
-182.9999999999999
 20
200.0
 30
-30.0
 70
   192
  0
VERTEX
  5
9708
  8
0
 10
-219.9999999999998
 20
200.0
 30
-30.0
 70
   192
  0
VERTEX
  5
9709
  8
0
 10
-219.9999999999998
 20
225.0
 30
-30.0
 70
   192
  0
VERTEX
  5
970A
  8
0
 10
-139.9999999999999
 20
225.0
 30
-30.0
 70
   192
  0
VERTEX
  5
970B
  8
0
 10
-139.9999999999999
 20
200.0
 30
-30.0
 70
   192
  0
VERTEX
  5
970C
  8
0
 10
-176.9999999999998
 20
200.0
 30
-30.0
 70
   192
  0
VERTEX
  5
970D
  8
0
 10
0.0
 20
0.0
 30
0.0
 70
   128
 71
     7
 72
     8
 73
    -1
  0
VERTEX
  5
970E
  8
0
 10
0.0
 20
0.0
 30
0.0
 70
   128
 71
     6
 72
    -7
 73
    -1
  0
VERTEX
  5
970F
  8
0
 10
0.0
 20
0.0
 30
0.0
 70
   128
 71
    -6
 72
     1
 73
    -2
  0
VERTEX
  5
9710
  8
0
 10
0.0
 20
0.0
 30
0.0
 70
   128
 71
     5
 72
    -6
 73
    -2
  0
VERTEX
  5
9711
  8
0
 10
0.0
 20
0.0
 30
0.0
 70
   128
 71
     3
 72
     4
 73
    -5
  0
VERTEX
  5
9712
  8
0
 10
0.0
 20
0.0
 30
0.0
 70
   128
 71
     2
 72
    -3
 73
    -5
  0
SEQEND
  5
9ABC
  8
0
  0
POLYLINE
  5
9713
  8
0
 66
     1
 10
0.0
 20
0.0
 30
0.0
 70
    64
 71
     4
 72
     2
  0
VERTEX
  5
9714
  8
0
 10
-216.9999999999998
 20
200.0
 30
-20.0
 70
   192
  0
VERTEX
  5
9715
  8
0
 10
-216.9999999999998
 20
222.0
 30
-20.0
 70
   192
  0
VERTEX
  5
9716
  8
0
 10
-216.9999999999998
 20
222.0
 30
-27.0
 70
   192
  0
VERTEX
  5
9717
  8
0
 10
-216.9999999999998
 20
200.0
 30
-27.0
 70
   192
  0
VERTEX
  5
9718
  8
0
 10
0.0
 20
0.0
 30
0.0
 70
   128
 71
     1
 72
     4
 73
    -3
  0
VERTEX
  5
9719
  8
0
 10
0.0
 20
0.0
 30
0.0
 70
   128
 71
    -1
 72
     3
 73
     2
  0
SEQEND
  5
9ABD
  8
0
  0
POLYLINE
  5
971A
  8
0
 66
     1
 10
0.0
 20
0.0
 30
0.0
 70
    64
 71
     4
 72
     2
  0
VERTEX
  5
971B
  8
0
 10
-142.9999999999999
 20
222.0
 30
-20.0
 70
   192
  0
VERTEX
  5
971C
  8
0
 10
-216.9999999999998
 20
222.0
 30
-20.0
 70
   192
  0
VERTEX
  5
971D
  8
0
 10
-216.9999999999998
 20
222.0
 30
-27.0
 70
   192
  0
VERTEX
  5
971E
  8
0
 10
-142.9999999999999
 20
222.0
 30
-27.0
 70
   192
  0
VERTEX
  5
971F
  8
0
 10
0.0
 20
0.0
 30
0.0
 70
   128
 71
     3
 72
     4
 73
    -1
  0
VERTEX
  5
9720
  8
0
 10
0.0
 20
0.0
 30
0.0
 70
   128
 71
     2
 72
    -3
 73
     1
  0
SEQEND
  5
9ABE
  8
0
  0
POLYLINE
  5
9721
  8
0
 66
     1
 10
0.0
 20
0.0
 30
0.0
 70
    64
 71
     4
 72
     2
  0
VERTEX
  5
9722
  8
0
 10
-142.9999999999999
 20
200.0
 30
-20.0
 70
   192
  0
VERTEX
  5
9723
  8
0
 10
-142.9999999999999
 20
222.0
 30
-20.0
 70
   192
  0
VERTEX
  5
9724
  8
0
 10
-142.9999999999999
 20
222.0
 30
-27.0
 70
   192
  0
VERTEX
  5
9725
  8
0
 10
-143.0
 20
200.0
 30
-27.0
 70
   192
  0
VERTEX
  5
9726
  8
0
 10
0.0
 20
0.0
 30
0.0
 70
   128
 71
     3
 72
     4
 73
    -1
  0
VERTEX
  5
9727
  8
0
 10
0.0
 20
0.0
 30
0.0
 70
   128
 71
     2
 72
    -3
 73
     1
  0
SEQEND
  5
9ABF
  8
0
  0
POLYLINE
  5
9728
  8
0
 66
     1
 10
0.0
 20
0.0
 30
0.0
 70
    64
 71
     8
 72
     6
  0
VERTEX
  5
9729
  8
0
 10
-182.9999999999999
 20
220.0
 30
-27.0
 70
   192
  0
VERTEX
  5
972A
  8
0
 10
-182.9999999999999
 20
200.0
 30
-27.0
 70
   192
  0
VERTEX
  5
972B
  8
0
 10
-216.9999999999998
 20
200.0
 30
-27.0
 70
   192
  0
VERTEX
  5
972C
  8
0
 10
-216.9999999999998
 20
222.0
 30
-27.0
 70
   192
  0
VERTEX
  5
972D
  8
0
 10
-142.9999999999999
 20
222.0
 30
-27.0
 70
   192
  0
VERTEX
  5
972E
  8
0
 10
-143.0
 20
200.0
 30
-27.0
 70
   192
  0
VERTEX
  5
972F
  8
0
 10
-176.9999999999998
 20
200.0
 30
-27.0
 70
   192
  0
VERTEX
  5
9730
  8
0
 10
-176.9999999999998
 20
220.0
 30
-27.0
 70
   192
  0
VERTEX
  5
9731
  8
0
 10
0.0
 20
0.0
 30
0.0
 70
   128
 71
     8
 72
     7
 73
    -6
  0
VERTEX
  5
9732
  8
0
 10
0.0
 20
0.0
 30
0.0
 70
   128
 71
    -8
 72
     6
 73
    -5
  0
VERTEX
  5
9733
  8
0
 10
0.0
 20
0.0
 30
0.0
 70
   128
 71
    -5
 72
     1
 73
    -8
  0
VERTEX
  5
9734
  8
0
 10
0.0
 20
0.0
 30
0.0
 70
   128
 71
     5
 72
    -4
 73
    -1
  0
VERTEX
  5
9735
  8
0
 10
0.0
 20
0.0
 30
0.0
 70
   128
 71
     4
 72
     3
 73
    -2
  0
VERTEX
  5
9736
  8
0
 10
0.0
 20
0.0
 30
0.0
 70
   128
 71
    -4
 72
     2
 73
    -1
  0
SEQEND
  5
9AC0
  8
0
  0
ENDBLK
  5
9AB0
  8
0
  0
BLOCK
  8
0
  2
*X2
 70
     1
 10
0.0
 20
0.0
 30
0.0
  3
*X2
  1

  0
POLYLINE
  5
9738
  8
0
 66
     1
 10
0.0
 20
0.0
 30
0.0
 70
    64
 71
     8
 72
     6
  0
VERTEX
  5
9739
  8
0
 10
140.0000000000005
 20
200.0000000000001
 30
-20.0
 70
   192
  0
VERTEX
  5
973A
  8
0
 10
140.0000000000004
 20
165.0000000000006
 30
-20.0
 70
   192
  0
VERTEX
  5
973B
  8
0
 10
219.9999999999991
 20
165.0000000000008
 30
-20.0
 70
   192
  0
VERTEX
  5
973C
  8
0
 10
219.9999999999991
 20
200.0000000000001
 30
-20.0
 70
   192
  0
VERTEX
  5
973D
  8
0
 10
216.9999999999991
 20
200.0000000000001
 30
-20.0
 70
   192
  0
VERTEX
  5
973E
  8
0
 10
216.9999999999991
 20
222.0
 30
-20.0
 70
   192
  0
VERTEX
  5
973F
  8
0
 10
143.0000000000005
 20
222.0
 30
-20.0
 70
   192
  0
VERTEX
  5
9740
  8
0
 10
143.0000000000005
 20
200.0000000000001
 30
-20.0
 70
   192
  0
VERTEX
  5
9741
  8
0
 10
0.0
 20
0.0
 30
0.0
 70
   128
 71
     5
 72
    -4
 73
    -8
  0
VERTEX
  5
9742
  8
0
 10
0.0
 20
0.0
 30
0.0
 70
   128
 71
     8
 72
     7
 73
    -6
  0
VERTEX
  5
9743
  8
0
 10
0.0
 20
0.0
 30
0.0
 70
   128
 71
    -8
 72
     6
 73
    -5
  0
VERTEX
  5
9744
  8
0
 10
0.0
 20
0.0
 30
0.0
 70
   128
 71
     4
 72
     3
 73
    -2
  0
VERTEX
  5
9745
  8
0
 10
0.0
 20
0.0
 30
0.0
 70
   128
 71
    -4
 72
    -2
 73
    -8
  0
VERTEX
  5
9746
  8
0
 10
0.0
 20
0.0
 30
0.0
 70
   128
 71
     2
 72
     1
 73
    -8
  0
SEQEND
  5
9AC3
  8
0
  0
POLYLINE
  5
9747
  8
0
 66
     1
 10
0.0
 20
0.0
 30
0.0
 70
    64
 71
     6
 72
     4
  0
VERTEX
  5
9748
  8
0
 10
140.0000000000004
 20
165.0000000000006
 30
-17.0
 70
   192
  0
VERTEX
  5
9749
  8
0
 10
140.0000000000005
 20
225.0
 30
-17.0
 70
   192
  0
VERTEX
  5
974A
  8
0
 10
140.0000000000005
 20
225.0
 30
-30.0
 70
   192
  0
VERTEX
  5
974B
  8
0
 10
140.0000000000004
 20
200.0000000000001
 30
-30.0
 70
   192
  0
VERTEX
  5
974C
  8
0
 10
140.0000000000004
 20
200.0000000000001
 30
-20.0
 70
   192
  0
VERTEX
  5
974D
  8
0
 10
140.0000000000004
 20
165.0000000000006
 30
-20.0
 70
   192
  0
VERTEX
  5
974E
  8
0
 10
0.0
 20
0.0
 30
0.0
 70
   128
 71
     3
 72
     4
 73
    -5
  0
VERTEX
  5
974F
  8
0
 10
0.0
 20
0.0
 30
0.0
 70
   128
 71
     2
 72
    -3
 73
    -5
  0
VERTEX
  5
9750
  8
0
 10
0.0
 20
0.0
 30
0.0
 70
   128
 71
     6
 72
     1
 73
    -2
  0
VERTEX
  5
9751
  8
0
 10
0.0
 20
0.0
 30
0.0
 70
   128
 71
     5
 72
    -6
 73
    -2
  0
SEQEND
  5
9AC4
  8
0
  0
POLYLINE
  5
9752
  8
0
 66
     1
 10
0.0
 20
0.0
 30
0.0
 70
    64
 71
     4
 72
     2
  0
VERTEX
  5
9753
  8
0
 10
140.0000000000005
 20
225.0
 30
-17.0
 70
   192
  0
VERTEX
  5
9754
  8
0
 10
140.0000000000005
 20
225.0
 30
-30.0
 70
   192
  0
VERTEX
  5
9755
  8
0
 10
219.9999999999991
 20
225.0
 30
-30.0
 70
   192
  0
VERTEX
  5
9756
  8
0
 10
219.9999999999991
 20
225.0
 30
-17.0
 70
   192
  0
VERTEX
  5
9757
  8
0
 10
0.0
 20
0.0
 30
0.0
 70
   128
 71
     1
 72
     4
 73
    -3
  0
VERTEX
  5
9758
  8
0
 10
0.0
 20
0.0
 30
0.0
 70
   128
 71
    -1
 72
     3
 73
     2
  0
SEQEND
  5
9AC5
  8
0
  0
POLYLINE
  5
9759
  8
0
 66
     1
 10
0.0
 20
0.0
 30
0.0
 70
    64
 71
     6
 72
     4
  0
VERTEX
  5
975A
  8
0
 10
219.9999999999991
 20
225.0
 30
-17.0
 70
   192
  0
VERTEX
  5
975B
  8
0
 10
219.9999999999991
 20
225.0
 30
-30.0
 70
   192
  0
VERTEX
  5
975C
  8
0
 10
219.9999999999991
 20
200.0000000000001
 30
-30.0
 70
   192
  0
VERTEX
  5
975D
  8
0
 10
219.9999999999991
 20
200.0000000000001
 30
-20.0
 70
   192
  0
VERTEX
  5
975E
  8
0
 10
219.9999999999991
 20
165.0000000000008
 30
-20.0
 70
   192
  0
VERTEX
  5
975F
  8
0
 10
219.9999999999991
 20
165.0000000000008
 30
-17.0
 70
   192
  0
VERTEX
  5
9760
  8
0
 10
0.0
 20
0.0
 30
0.0
 70
   128
 71
     4
 72
     3
 73
    -2
  0
VERTEX
  5
9761
  8
0
 10
0.0
 20
0.0
 30
0.0
 70
   128
 71
    -4
 72
     2
 73
    -1
  0
VERTEX
  5
9762
  8
0
 10
0.0
 20
0.0
 30
0.0
 70
   128
 71
     1
 72
     6
 73
    -5
  0
VERTEX
  5
9763
  8
0
 10
0.0
 20
0.0
 30
0.0
 70
   128
 71
    -1
 72
     5
 73
    -4
  0
SEQEND
  5
9AC6
  8
0
  0
POLYLINE
  5
9764
  8
0
 66
     1
 10
0.0
 20
0.0
 30
0.0
 70
    64
 71
     4
 72
     2
  0
VERTEX
  5
9765
  8
0
 10
219.999999999999
 20
165.0000000000008
 30
-17.0
 70
   192
  0
VERTEX
  5
9766
  8
0
 10
140.0000000000004
 20
165.0000000000006
 30
-17.0
 70
   192
  0
VERTEX
  5
9767
  8
0
 10
140.0000000000004
 20
165.0000000000006
 30
-20.0
 70
   192
  0
VERTEX
  5
9768
  8
0
 10
219.999999999999
 20
165.0000000000008
 30
-20.0
 70
   192
  0
VERTEX
  5
9769
  8
0
 10
0.0
 20
0.0
 30
0.0
 70
   128
 71
     3
 72
     4
 73
    -1
  0
VERTEX
  5
976A
  8
0
 10
0.0
 20
0.0
 30
0.0
 70
   128
 71
     2
 72
    -3
 73
     1
  0
SEQEND
  5
9AC7
  8
0
  0
POLYLINE
  5
976B
  8
0
 66
     1
 10
0.0
 20
0.0
 30
0.0
 70
    64
 71
     4
 72
     2
  0
VERTEX
  5
976C
  8
0
 10
140.0000000000005
 20
225.0
 30
-17.0
 70
   192
  0
VERTEX
  5
976D
  8
0
 10
140.0000000000004
 20
165.0000000000006
 30
-17.0
 70
   192
  0
VERTEX
  5
976E
  8
0
 10
219.999999999999
 20
165.0000000000008
 30
-17.0
 70
   192
  0
VERTEX
  5
976F
  8
0
 10
219.9999999999991
 20
225.0
 30
-17.0
 70
   192
  0
VERTEX
  5
9770
  8
0
 10
0.0
 20
0.0
 30
0.0
 70
   128
 71
     3
 72
     4
 73
    -1
  0
VERTEX
  5
9771
  8
0
 10
0.0
 20
0.0
 30
0.0
 70
   128
 71
     2
 72
    -3
 73
     1
  0
SEQEND
  5
9AC8
  8
0
  0
POLYLINE
  5
9772
  8
0
 66
     1
 10
0.0
 20
0.0
 30
0.0
 70
    64
 71
     4
 72
     2
  0
VERTEX
  5
9773
  8
0
 10
176.9999999999998
 20
220.0000000000001
 30
-30.0
 70
   192
  0
VERTEX
  5
9774
  8
0
 10
176.9999999999998
 20
200.0000000000001
 30
-30.0
 70
   192
  0
VERTEX
  5
9775
  8
0
 10
176.9999999999998
 20
200.0000000000001
 30
-27.0
 70
   192
  0
VERTEX
  5
9776
  8
0
 10
176.9999999999998
 20
220.0000000000001
 30
-27.0
 70
   192
  0
VERTEX
  5
9777
  8
0
 10
0.0
 20
0.0
 30
0.0
 70
   128
 71
     1
 72
     4
 73
    -3
  0
VERTEX
  5
9778
  8
0
 10
0.0
 20
0.0
 30
0.0
 70
   128
 71
    -1
 72
     3
 73
     2
  0
SEQEND
  5
9AC9
  8
0
  0
POLYLINE
  5
9779
  8
0
 66
     1
 10
0.0
 20
0.0
 30
0.0
 70
    64
 71
     6
 72
     4
  0
VERTEX
  5
977A
  8
0
 10
176.9999999999998
 20
200.0000000000001
 30
-27.0
 70
   192
  0
VERTEX
  5
977B
  8
0
 10
176.9999999999998
 20
200.0000000000001
 30
-30.0
 70
   192
  0
VERTEX
  5
977C
  8
0
 10
140.0000000000004
 20
200.0000000000001
 30
-30.0
 70
   192
  0
VERTEX
  5
977D
  8
0
 10
140.0000000000004
 20
200.0000000000001
 30
-20.0
 70
   192
  0
VERTEX
  5
977E
  8
0
 10
143.0000000000005
 20
200.0000000000001
 30
-20.0
 70
   192
  0
VERTEX
  5
977F
  8
0
 10
143.0000000000005
 20
200.0000000000001
 30
-27.0
 70
   192
  0
VERTEX
  5
9780
  8
0
 10
0.0
 20
0.0
 30
0.0
 70
   128
 71
     6
 72
     5
 73
    -4
  0
VERTEX
  5
9781
  8
0
 10
0.0
 20
0.0
 30
0.0
 70
   128
 71
    -6
 72
     4
 73
    -3
  0
VERTEX
  5
9782
  8
0
 10
0.0
 20
0.0
 30
0.0
 70
   128
 71
     3
 72
     2
 73
    -1
  0
VERTEX
  5
9783
  8
0
 10
0.0
 20
0.0
 30
0.0
 70
   128
 71
    -3
 72
     1
 73
    -6
  0
SEQEND
  5
9ACA
  8
0
  0
POLYLINE
  5
9784
  8
0
 66
     1
 10
0.0
 20
0.0
 30
0.0
 70
    64
 71
     6
 72
     4
  0
VERTEX
  5
9785
  8
0
 10
216.9999999999991
 20
200.0000000000001
 30
-20.0
 70
   192
  0
VERTEX
  5
9786
  8
0
 10
219.9999999999991
 20
200.0000000000001
 30
-20.0
 70
   192
  0
VERTEX
  5
9787
  8
0
 10
219.9999999999991
 20
200.0000000000001
 30
-30.0
 70
   192
  0
VERTEX
  5
9788
  8
0
 10
182.9999999999999
 20
200.0000000000001
 30
-30.0
 70
   192
  0
VERTEX
  5
9789
  8
0
 10
182.9999999999999
 20
200.0000000000001
 30
-27.0
 70
   192
  0
VERTEX
  5
978A
  8
0
 10
216.9999999999991
 20
200.0000000000001
 30
-27.0
 70
   192
  0
VERTEX
  5
978B
  8
0
 10
0.0
 20
0.0
 30
0.0
 70
   128
 71
     6
 72
     5
 73
    -4
  0
VERTEX
  5
978C
  8
0
 10
0.0
 20
0.0
 30
0.0
 70
   128
 71
    -6
 72
     4
 73
    -3
  0
VERTEX
  5
978D
  8
0
 10
0.0
 20
0.0
 30
0.0
 70
   128
 71
     3
 72
     2
 73
    -1
  0
VERTEX
  5
978E
  8
0
 10
0.0
 20
0.0
 30
0.0
 70
   128
 71
    -3
 72
     1
 73
    -6
  0
SEQEND
  5
9ACB
  8
0
  0
POLYLINE
  5
978F
  8
0
 66
     1
 10
0.0
 20
0.0
 30
0.0
 70
    64
 71
     4
 72
     2
  0
VERTEX
  5
9790
  8
0
 10
182.9999999999999
 20
200.0000000000001
 30
-30.0
 70
   192
  0
VERTEX
  5
9791
  8
0
 10
182.9999999999999
 20
220.0000000000001
 30
-30.0
 70
   192
  0
VERTEX
  5
9792
  8
0
 10
182.9999999999999
 20
220.0000000000001
 30
-27.0
 70
   192
  0
VERTEX
  5
9793
  8
0
 10
182.9999999999999
 20
200.0000000000001
 30
-27.0
 70
   192
  0
VERTEX
  5
9794
  8
0
 10
0.0
 20
0.0
 30
0.0
 70
   128
 71
     1
 72
     4
 73
    -3
  0
VERTEX
  5
9795
  8
0
 10
0.0
 20
0.0
 30
0.0
 70
   128
 71
    -1
 72
     3
 73
     2
  0
SEQEND
  5
9ACC
  8
0
  0
POLYLINE
  5
9796
  8
0
 66
     1
 10
0.0
 20
0.0
 30
0.0
 70
    64
 71
     4
 72
     2
  0
VERTEX
  5
9797
  8
0
 10
182.9999999999999
 20
220.0000000000001
 30
-30.0
 70
   192
  0
VERTEX
  5
9798
  8
0
 10
176.9999999999998
 20
220.0000000000001
 30
-30.0
 70
   192
  0
VERTEX
  5
9799
  8
0
 10
176.9999999999998
 20
220.0000000000001
 30
-27.0
 70
   192
  0
VERTEX
  5
979A
  8
0
 10
182.9999999999999
 20
220.0000000000001
 30
-27.0
 70
   192
  0
VERTEX
  5
979B
  8
0
 10
0.0
 20
0.0
 30
0.0
 70
   128
 71
     1
 72
     4
 73
    -3
  0
VERTEX
  5
979C
  8
0
 10
0.0
 20
0.0
 30
0.0
 70
   128
 71
    -1
 72
     3
 73
     2
  0
SEQEND
  5
9ACD
  8
0
  0
POLYLINE
  5
979D
  8
0
 66
     1
 10
0.0
 20
0.0
 30
0.0
 70
    64
 71
     8
 72
     6
  0
VERTEX
  5
979E
  8
0
 10
176.9999999999998
 20
220.0000000000001
 30
-30.0
 70
   192
  0
VERTEX
  5
979F
  8
0
 10
176.9999999999998
 20
200.0000000000001
 30
-30.0
 70
   192
  0
VERTEX
  5
97A0
  8
0
 10
140.0000000000004
 20
200.0000000000001
 30
-30.0
 70
   192
  0
VERTEX
  5
97A1
  8
0
 10
140.0000000000005
 20
225.0
 30
-30.0
 70
   192
  0
VERTEX
  5
97A2
  8
0
 10
219.9999999999991
 20
225.0
 30
-30.0
 70
   192
  0
VERTEX
  5
97A3
  8
0
 10
219.9999999999991
 20
200.0000000000001
 30
-30.0
 70
   192
  0
VERTEX
  5
97A4
  8
0
 10
182.9999999999999
 20
200.0000000000001
 30
-30.0
 70
   192
  0
VERTEX
  5
97A5
  8
0
 10
182.9999999999999
 20
220.0000000000001
 30
-30.0
 70
   192
  0
VERTEX
  5
97A6
  8
0
 10
0.0
 20
0.0
 30
0.0
 70
   128
 71
     6
 72
     7
 73
    -8
  0
VERTEX
  5
97A7
  8
0
 10
0.0
 20
0.0
 30
0.0
 70
   128
 71
     5
 72
    -6
 73
    -8
  0
VERTEX
  5
97A8
  8
0
 10
0.0
 20
0.0
 30
0.0
 70
   128
 71
    -1
 72
     4
 73
    -5
  0
VERTEX
  5
97A9
  8
0
 10
0.0
 20
0.0
 30
0.0
 70
   128
 71
     8
 72
    -1
 73
    -5
  0
VERTEX
  5
97AA
  8
0
 10
0.0
 20
0.0
 30
0.0
 70
   128
 71
     2
 72
     3
 73
    -4
  0
VERTEX
  5
97AB
  8
0
 10
0.0
 20
0.0
 30
0.0
 70
   128
 71
     1
 72
    -2
 73
    -4
  0
SEQEND
  5
9ACE
  8
0
  0
POLYLINE
  5
97AC
  8
0
 66
     1
 10
0.0
 20
0.0
 30
0.0
 70
    64
 71
     4
 72
     2
  0
VERTEX
  5
97AD
  8
0
 10
143.0000000000004
 20
200.0000000000001
 30
-20.0
 70
   192
  0
VERTEX
  5
97AE
  8
0
 10
143.0000000000005
 20
222.0
 30
-20.0
 70
   192
  0
VERTEX
  5
97AF
  8
0
 10
143.0000000000005
 20
222.0
 30
-27.0
 70
   192
  0
VERTEX
  5
97B0
  8
0
 10
143.0000000000005
 20
200.0000000000001
 30
-27.0
 70
   192
  0
VERTEX
  5
97B1
  8
0
 10
0.0
 20
0.0
 30
0.0
 70
   128
 71
     1
 72
     4
 73
    -3
  0
VERTEX
  5
97B2
  8
0
 10
0.0
 20
0.0
 30
0.0
 70
   128
 71
    -1
 72
     3
 73
     2
  0
SEQEND
  5
9ACF
  8
0
  0
POLYLINE
  5
97B3
  8
0
 66
     1
 10
0.0
 20
0.0
 30
0.0
 70
    64
 71
     4
 72
     2
  0
VERTEX
  5
97B4
  8
0
 10
216.9999999999991
 20
222.0
 30
-20.0
 70
   192
  0
VERTEX
  5
97B5
  8
0
 10
143.0000000000005
 20
222.0
 30
-20.0
 70
   192
  0
VERTEX
  5
97B6
  8
0
 10
143.0000000000005
 20
222.0
 30
-27.0
 70
   192
  0
VERTEX
  5
97B7
  8
0
 10
216.9999999999991
 20
222.0
 30
-27.0
 70
   192
  0
VERTEX
  5
97B8
  8
0
 10
0.0
 20
0.0
 30
0.0
 70
   128
 71
     3
 72
     4
 73
    -1
  0
VERTEX
  5
97B9
  8
0
 10
0.0
 20
0.0
 30
0.0
 70
   128
 71
     2
 72
    -3
 73
     1
  0
SEQEND
  5
9AD0
  8
0
  0
POLYLINE
  5
97BA
  8
0
 66
     1
 10
0.0
 20
0.0
 30
0.0
 70
    64
 71
     4
 72
     2
  0
VERTEX
  5
97BB
  8
0
 10
216.9999999999991
 20
200.0000000000001
 30
-20.0
 70
   192
  0
VERTEX
  5
97BC
  8
0
 10
216.9999999999991
 20
222.0
 30
-20.0
 70
   192
  0
VERTEX
  5
97BD
  8
0
 10
216.9999999999991
 20
222.0
 30
-27.0
 70
   192
  0
VERTEX
  5
97BE
  8
0
 10
216.9999999999991
 20
200.0000000000001
 30
-27.0
 70
   192
  0
VERTEX
  5
97BF
  8
0
 10
0.0
 20
0.0
 30
0.0
 70
   128
 71
     3
 72
     4
 73
    -1
  0
VERTEX
  5
97C0
  8
0
 10
0.0
 20
0.0
 30
0.0
 70
   128
 71
     2
 72
    -3
 73
     1
  0
SEQEND
  5
9AD1
  8
0
  0
POLYLINE
  5
97C1
  8
0
 66
     1
 10
0.0
 20
0.0
 30
0.0
 70
    64
 71
     8
 72
     6
  0
VERTEX
  5
97C2
  8
0
 10
176.9999999999998
 20
200.0000000000001
 30
-27.0
 70
   192
  0
VERTEX
  5
97C3
  8
0
 10
143.0000000000005
 20
200.0000000000001
 30
-27.0
 70
   192
  0
VERTEX
  5
97C4
  8
0
 10
143.0000000000005
 20
222.0
 30
-27.0
 70
   192
  0
VERTEX
  5
97C5
  8
0
 10
216.9999999999991
 20
222.0
 30
-27.0
 70
   192
  0
VERTEX
  5
97C6
  8
0
 10
216.9999999999991
 20
200.0000000000001
 30
-27.0
 70
   192
  0
VERTEX
  5
97C7
  8
0
 10
182.9999999999999
 20
200.0000000000001
 30
-27.0
 70
   192
  0
VERTEX
  5
97C8
  8
0
 10
182.9999999999999
 20
220.0000000000001
 30
-27.0
 70
   192
  0
VERTEX
  5
97C9
  8
0
 10
176.9999999999998
 20
220.0000000000001
 30
-27.0
 70
   192
  0
VERTEX
  5
97CA
  8
0
 10
0.0
 20
0.0
 30
0.0
 70
   128
 71
     7
 72
     6
 73
    -5
  0
VERTEX
  5
97CB
  8
0
 10
0.0
 20
0.0
 30
0.0
 70
   128
 71
    -7
 72
     5
 73
    -4
  0
VERTEX
  5
97CC
  8
0
 10
0.0
 20
0.0
 30
0.0
 70
   128
 71
    -4
 72
     8
 73
    -7
  0
VERTEX
  5
97CD
  8
0
 10
0.0
 20
0.0
 30
0.0
 70
   128
 71
     4
 72
    -3
 73
    -8
  0
VERTEX
  5
97CE
  8
0
 10
0.0
 20
0.0
 30
0.0
 70
   128
 71
     3
 72
     2
 73
    -1
  0
VERTEX
  5
97CF
  8
0
 10
0.0
 20
0.0
 30
0.0
 70
   128
 71
    -3
 72
     1
 73
    -8
  0
SEQEND
  5
9AD2
  8
0
  0
ENDBLK
  5
9AC2
  8
0
  0
BLOCK
  8
0
  2
*X3
 70
     1
 10
0.0
 20
0.0
 30
0.0
  3
*X3
  1

  0
POLYLINE
  5
97D1
  8
0
 66
     1
 10
0.0
 20
0.0
 30
0.0
 70
    64
 71
    10
 72
     8
  0
VERTEX
  5
97D2
  8
0
 10
120.0
 20
-275.0
 30
-18.50000000000001
 70
   192
  0
VERTEX
  5
97D3
  8
0
 10
120.0
 20
-275.0
 30
-25.5
 70
   192
  0
VERTEX
  5
97D4
  8
0
 10
120.0
 20
-270.0
 30
-25.5
 70
   192
  0
VERTEX
  5
97D5
  8
0
 10
120.0
 20
-270.0
 30
-18.50000000000001
 70
   192
  0
VERTEX
  5
97D6
  8
0
 10
123.5
 20
-270.0
 30
-22.0
 70
   192
  0
VERTEX
  5
97D7
  8
0
 10
123.5
 20
-275.0
 30
-22.0
 70
   192
  0
VERTEX
  5
97D8
  8
0
 10
122.4748737341529
 20
-270.0
 30
-19.52512626584709
 70
   192
  0
VERTEX
  5
97D9
  8
0
 10
122.4748737341529
 20
-275.0
 30
-19.52512626584709
 70
   192
  0
VERTEX
  5
97DA
  8
0
 10
122.4748737341529
 20
-270.0
 30
-24.47487373415292
 70
   192
  0
VERTEX
  5
97DB
  8
0
 10
122.4748737341529
 20
-275.0
 30
-24.47487373415292
 70
   192
  0
VERTEX
  5
97DC
  8
0
 10
0.0
 20
0.0
 30
0.0
 70
   128
 71
     7
 72
     4
 73
    -1
  0
VERTEX
  5
97DD
  8
0
 10
0.0
 20
0.0
 30
0.0
 70
   128
 71
    -7
 72
     1
 73
     8
  0
VERTEX
  5
97DE
  8
0
 10
0.0
 20
0.0
 30
0.0
 70
   128
 71
     6
 72
     5
 73
    -7
  0
VERTEX
  5
97DF
  8
0
 10
0.0
 20
0.0
 30
0.0
 70
   128
 71
    -6
 72
     7
 73
     8
  0
VERTEX
  5
97E0
  8
0
 10
0.0
 20
0.0
 30
0.0
 70
   128
 71
    10
 72
     9
 73
    -5
  0
VERTEX
  5
97E1
  8
0
 10
0.0
 20
0.0
 30
0.0
 70
   128
 71
   -10
 72
     5
 73
     6
  0
VERTEX
  5
97E2
  8
0
 10
0.0
 20
0.0
 30
0.0
 70
   128
 71
     2
 72
     3
 73
    -9
  0
VERTEX
  5
97E3
  8
0
 10
0.0
 20
0.0
 30
0.0
 70
   128
 71
    -2
 72
     9
 73
    10
  0
SEQEND
  5
9AD5
  8
0
  0
POLYLINE
  5
97E4
  8
0
 66
     1
 10
0.0
 20
0.0
 30
0.0
 70
    64
 71
     8
 72
     6
  0
VERTEX
  5
97E5
  8
0
 10
165.0
 20
-268.6602540378444
 30
-17.0
 70
   192
  0
VERTEX
  5
97E6
  8
0
 10
165.0
 20
-268.6602540378444
 30
-27.0
 70
   192
  0
VERTEX
  5
97E7
  8
0
 10
168.6602540378444
 20
-265.0
 30
-27.0
 70
   192
  0
VERTEX
  5
97E8
  8
0
 10
168.6602540378444
 20
-265.0
 30
-17.0
 70
   192
  0
VERTEX
  5
97E9
  8
0
 10
160.0
 20
-270.0
 30
-17.0
 70
   192
  0
VERTEX
  5
97EA
  8
0
 10
160.0
 20
-270.0
 30
-27.0
 70
   192
  0
VERTEX
  5
97EB
  8
0
 10
170.0
 20
-260.0
 30
-27.0
 70
   192
  0
VERTEX
  5
97EC
  8
0
 10
170.0
 20
-260.0
 30
-17.0
 70
   192
  0
VERTEX
  5
97ED
  8
0
 10
0.0
 20
0.0
 30
0.0
 70
   128
 71
     1
 72
     2
 73
    -3
  0
VERTEX
  5
97EE
  8
0
 10
0.0
 20
0.0
 30
0.0
 70
   128
 71
    -1
 72
     3
 73
     4
  0
VERTEX
  5
97EF
  8
0
 10
0.0
 20
0.0
 30
0.0
 70
   128
 71
     5
 72
     6
 73
    -2
  0
VERTEX
  5
97F0
  8
0
 10
0.0
 20
0.0
 30
0.0
 70
   128
 71
    -5
 72
     2
 73
     1
  0
VERTEX
  5
97F1
  8
0
 10
0.0
 20
0.0
 30
0.0
 70
   128
 71
     4
 72
     3
 73
    -7
  0
VERTEX
  5
97F2
  8
0
 10
0.0
 20
0.0
 30
0.0
 70
   128
 71
    -4
 72
     7
 73
     8
  0
SEQEND
  5
9AD6
  8
0
  0
POLYLINE
  5
97F3
  8
0
 66
     1
 10
0.0
 20
0.0
 30
0.0
 70
    64
 71
    12
 72
    12
  0
VERTEX
  5
97F4
  8
0
 10
160.0
 20
-270.0
 30
-17.0
 70
   192
  0
VERTEX
  5
97F5
  8
0
 10
160.0
 20
-270.0
 30
-27.0
 70
   192
  0
VERTEX
  5
97F6
  8
0
 10
-20.00000000000001
 20
-270.0
 30
-27.0
 70
   192
  0
VERTEX
  5
97F7
  8
0
 10
-20.00000000000003
 20
-270.0
 30
-17.0
 70
   192
  0
VERTEX
  5
97F8
  8
0
 10
120.0
 20
-270.0
 30
-25.5
 70
   192
  0
VERTEX
  5
97F9
  8
0
 10
122.4748737341529
 20
-270.0
 30
-24.47487373415292
 70
   192
  0
VERTEX
  5
97FA
  8
0
 10
123.5
 20
-270.0
 30
-22.0
 70
   192
  0
VERTEX
  5
97FB
  8
0
 10
122.4748737341529
 20
-270.0
 30
-19.52512626584709
 70
   192
  0
VERTEX
  5
97FC
  8
0
 10
120.0
 20
-270.0
 30
-18.50000000000001
 70
   192
  0
VERTEX
  5
97FD
  8
0
 10
117.5251262658471
 20
-270.0
 30
-19.52512626584709
 70
   192
  0
VERTEX
  5
97FE
  8
0
 10
116.5
 20
-270.0
 30
-22.0
 70
   192
  0
VERTEX
  5
97FF
  8
0
 10
117.5251262658471
 20
-270.0
 30
-24.47487373415292
 70
   192
  0
VERTEX
  5
9800
  8
0
 10
0.0
 20
0.0
 30
0.0
 70
   128
 71
     6
 72
    -5
 73
    -2
  0
VERTEX
  5
9801
  8
0
 10
0.0
 20
0.0
 30
0.0
 70
   128
 71
     2
 72
    -1
 73
    -7
  0
VERTEX
  5
9802
  8
0
 10
0.0
 20
0.0
 30
0.0
 70
   128
 71
    -2
 72
     7
 73
    -6
  0
VERTEX
  5
9803
  8
0
 10
0.0
 20
0.0
 30
0.0
 70
   128
 71
    -1
 72
     8
 73
    -7
  0
VERTEX
  5
9804
  8
0
 10
0.0
 20
0.0
 30
0.0
 70
   128
 71
    -1
 72
     9
 73
    -8
  0
VERTEX
  5
9805
  8
0
 10
0.0
 20
0.0
 30
0.0
 70
   128
 71
    -9
 72
     1
 73
    -4
  0
VERTEX
  5
9806
  8
0
 10
0.0
 20
0.0
 30
0.0
 70
   128
 71
    -4
 72
    10
 73
    -9
  0
VERTEX
  5
9807
  8
0
 10
0.0
 20
0.0
 30
0.0
 70
   128
 71
     4
 72
    -3
 73
   -11
  0
VERTEX
  5
9808
  8
0
 10
0.0
 20
0.0
 30
0.0
 70
   128
 71
    -4
 72
    11
 73
   -10
  0
VERTEX
  5
9809
  8
0
 10
0.0
 20
0.0
 30
0.0
 70
   128
 71
    -3
 72
    12
 73
   -11
  0
VERTEX
  5
980A
  8
0
 10
0.0
 20
0.0
 30
0.0
 70
   128
 71
    -3
 72
     5
 73
   -12
  0
VERTEX
  5
980B
  8
0
 10
0.0
 20
0.0
 30
0.0
 70
   128
 71
     3
 72
    -2
 73
    -5
  0
SEQEND
  5
9AD7
  8
0
  0
POLYLINE
  5
980C
  8
0
 66
     1
 10
0.0
 20
0.0
 30
0.0
 70
    64
 71
     8
 72
     6
  0
VERTEX
  5
980D
  8
0
 10
-28.66025403784441
 20
-265.0
 30
-17.0
 70
   192
  0
VERTEX
  5
980E
  8
0
 10
-28.66025403784441
 20
-265.0
 30
-27.0
 70
   192
  0
VERTEX
  5
980F
  8
0
 10
-25.00000000000002
 20
-268.6602540378444
 30
-27.0
 70
   192
  0
VERTEX
  5
9810
  8
0
 10
-25.00000000000002
 20
-268.6602540378444
 30
-17.0
 70
   192
  0
VERTEX
  5
9811
  8
0
 10
-30.00000000000002
 20
-260.0
 30
-17.0
 70
   192
  0
VERTEX
  5
9812
  8
0
 10
-30.00000000000002
 20
-260.0
 30
-27.0
 70
   192
  0
VERTEX
  5
9813
  8
0
 10
-20.00000000000001
 20
-270.0
 30
-27.0
 70
   192
  0
VERTEX
  5
9814
  8
0
 10
-20.00000000000001
 20
-270.0
 30
-17.0
 70
   192
  0
VERTEX
  5
9815
  8
0
 10
0.0
 20
0.0
 30
0.0
 70
   128
 71
     1
 72
     2
 73
    -3
  0
VERTEX
  5
9816
  8
0
 10
0.0
 20
0.0
 30
0.0
 70
   128
 71
    -1
 72
     3
 73
     4
  0
VERTEX
  5
9817
  8
0
 10
0.0
 20
0.0
 30
0.0
 70
   128
 71
     5
 72
     6
 73
    -2
  0
VERTEX
  5
9818
  8
0
 10
0.0
 20
0.0
 30
0.0
 70
   128
 71
    -5
 72
     2
 73
     1
  0
VERTEX
  5
9819
  8
0
 10
0.0
 20
0.0
 30
0.0
 70
   128
 71
     4
 72
     3
 73
    -7
  0
VERTEX
  5
981A
  8
0
 10
0.0
 20
0.0
 30
0.0
 70
   128
 71
    -4
 72
     7
 73
     8
  0
SEQEND
  5
9AD8
  8
0
  0
POLYLINE
  5
981B
  8
0
 66
     1
 10
0.0
 20
0.0
 30
0.0
 70
    64
 71
     4
 72
     2
  0
VERTEX
  5
981C
  8
0
 10
-30.00000000000002
 20
-260.0
 30
-17.0
 70
   192
  0
VERTEX
  5
981D
  8
0
 10
-30.00000000000002
 20
-260.0
 30
-27.0
 70
   192
  0
VERTEX
  5
981E
  8
0
 10
-30.00000000000001
 20
-100.0000000000001
 30
-27.0
 70
   192
  0
VERTEX
  5
981F
  8
0
 10
-30.0
 20
-100.0000000000001
 30
-17.0
 70
   192
  0
VERTEX
  5
9820
  8
0
 10
0.0
 20
0.0
 30
0.0
 70
   128
 71
     1
 72
     4
 73
    -3
  0
VERTEX
  5
9821
  8
0
 10
0.0
 20
0.0
 30
0.0
 70
   128
 71
    -1
 72
     3
 73
     2
  0
SEQEND
  5
9AD9
  8
0
  0
POLYLINE
  5
9822
  8
0
 66
     1
 10
0.0
 20
0.0
 30
0.0
 70
    64
 71
     8
 72
     6
  0
VERTEX
  5
9823
  8
0
 10
-25.0
 20
-91.33974596215566
 30
-17.0
 70
   192
  0
VERTEX
  5
9824
  8
0
 10
-25.0
 20
-91.33974596215566
 30
-27.0
 70
   192
  0
VERTEX
  5
9825
  8
0
 10
-28.66025403784439
 20
-95.00000000000006
 30
-27.0
 70
   192
  0
VERTEX
  5
9826
  8
0
 10
-28.66025403784439
 20
-95.00000000000006
 30
-17.0
 70
   192
  0
VERTEX
  5
9827
  8
0
 10
-20.0
 20
-90.00000000000006
 30
-17.0
 70
   192
  0
VERTEX
  5
9828
  8
0
 10
-20.0
 20
-90.00000000000006
 30
-27.0
 70
   192
  0
VERTEX
  5
9829
  8
0
 10
-30.0
 20
-100.0000000000001
 30
-27.0
 70
   192
  0
VERTEX
  5
982A
  8
0
 10
-30.00000000000001
 20
-100.0000000000001
 30
-17.0
 70
   192
  0
VERTEX
  5
982B
  8
0
 10
0.0
 20
0.0
 30
0.0
 70
   128
 71
     1
 72
     2
 73
    -3
  0
VERTEX
  5
982C
  8
0
 10
0.0
 20
0.0
 30
0.0
 70
   128
 71
    -1
 72
     3
 73
     4
  0
VERTEX
  5
982D
  8
0
 10
0.0
 20
0.0
 30
0.0
 70
   128
 71
     5
 72
     6
 73
    -2
  0
VERTEX
  5
982E
  8
0
 10
0.0
 20
0.0
 30
0.0
 70
   128
 71
    -5
 72
     2
 73
     1
  0
VERTEX
  5
982F
  8
0
 10
0.0
 20
0.0
 30
0.0
 70
   128
 71
     4
 72
     3
 73
    -7
  0
VERTEX
  5
9830
  8
0
 10
0.0
 20
0.0
 30
0.0
 70
   128
 71
    -4
 72
     7
 73
     8
  0
SEQEND
  5
9ADA
  8
0
  0
POLYLINE
  5
9831
  8
0
 66
     1
 10
0.0
 20
0.0
 30
0.0
 70
    64
 71
     4
 72
     2
  0
VERTEX
  5
9832
  8
0
 10
-20.0
 20
-90.00000000000006
 30
-17.0
 70
   192
  0
VERTEX
  5
9833
  8
0
 10
-20.0
 20
-90.00000000000006
 30
-27.0
 70
   192
  0
VERTEX
  5
9834
  8
0
 10
160.0
 20
-90.00000000000006
 30
-27.0
 70
   192
  0
VERTEX
  5
9835
  8
0
 10
160.0
 20
-90.00000000000006
 30
-17.0
 70
   192
  0
VERTEX
  5
9836
  8
0
 10
0.0
 20
0.0
 30
0.0
 70
   128
 71
     1
 72
     4
 73
    -3
  0
VERTEX
  5
9837
  8
0
 10
0.0
 20
0.0
 30
0.0
 70
   128
 71
    -1
 72
     3
 73
     2
  0
SEQEND
  5
9ADB
  8
0
  0
POLYLINE
  5
9838
  8
0
 66
     1
 10
0.0
 20
0.0
 30
0.0
 70
    64
 71
     8
 72
     6
  0
VERTEX
  5
9839
  8
0
 10
168.6602540378444
 20
-95.00000000000003
 30
-17.0
 70
   192
  0
VERTEX
  5
983A
  8
0
 10
168.6602540378444
 20
-95.00000000000003
 30
-27.0
 70
   192
  0
VERTEX
  5
983B
  8
0
 10
165.0
 20
-91.33974596215565
 30
-27.0
 70
   192
  0
VERTEX
  5
983C
  8
0
 10
165.0
 20
-91.33974596215565
 30
-17.0
 70
   192
  0
VERTEX
  5
983D
  8
0
 10
170.0
 20
-100.0
 30
-17.0
 70
   192
  0
VERTEX
  5
983E
  8
0
 10
170.0
 20
-100.0
 30
-27.0
 70
   192
  0
VERTEX
  5
983F
  8
0
 10
160.0
 20
-90.00000000000003
 30
-27.0
 70
   192
  0
VERTEX
  5
9840
  8
0
 10
160.0
 20
-90.00000000000006
 30
-17.0
 70
   192
  0
VERTEX
  5
9841
  8
0
 10
0.0
 20
0.0
 30
0.0
 70
   128
 71
     1
 72
     2
 73
    -3
  0
VERTEX
  5
9842
  8
0
 10
0.0
 20
0.0
 30
0.0
 70
   128
 71
    -1
 72
     3
 73
     4
  0
VERTEX
  5
9843
  8
0
 10
0.0
 20
0.0
 30
0.0
 70
   128
 71
     5
 72
     6
 73
    -2
  0
VERTEX
  5
9844
  8
0
 10
0.0
 20
0.0
 30
0.0
 70
   128
 71
    -5
 72
     2
 73
     1
  0
VERTEX
  5
9845
  8
0
 10
0.0
 20
0.0
 30
0.0
 70
   128
 71
     4
 72
     3
 73
    -7
  0
VERTEX
  5
9846
  8
0
 10
0.0
 20
0.0
 30
0.0
 70
   128
 71
    -4
 72
     7
 73
     8
  0
SEQEND
  5
9ADC
  8
0
  0
POLYLINE
  5
9847
  8
0
 66
     1
 10
0.0
 20
0.0
 30
0.0
 70
    64
 71
     4
 72
     2
  0
VERTEX
  5
9848
  8
0
 10
170.0
 20
-100.0
 30
-17.0
 70
   192
  0
VERTEX
  5
9849
  8
0
 10
170.0
 20
-100.0
 30
-27.0
 70
   192
  0
VERTEX
  5
984A
  8
0
 10
170.0
 20
-260.0
 30
-27.0
 70
   192
  0
VERTEX
  5
984B
  8
0
 10
170.0
 20
-260.0
 30
-17.0
 70
   192
  0
VERTEX
  5
984C
  8
0
 10
0.0
 20
0.0
 30
0.0
 70
   128
 71
     1
 72
     4
 73
    -3
  0
VERTEX
  5
984D
  8
0
 10
0.0
 20
0.0
 30
0.0
 70
   128
 71
    -1
 72
     3
 73
     2
  0
SEQEND
  5
9ADD
  8
0
  0
POLYLINE
  5
984E
  8
0
 66
     1
 10
0.0
 20
0.0
 30
0.0
 70
    64
 71
    16
 72
    14
  0
VERTEX
  5
984F
  8
0
 10
170.0
 20
-260.0
 30
-27.0
 70
   192
  0
VERTEX
  5
9850
  8
0
 10
168.6602540378444
 20
-265.0
 30
-27.0
 70
   192
  0
VERTEX
  5
9851
  8
0
 10
165.0
 20
-268.6602540378444
 30
-27.0
 70
   192
  0
VERTEX
  5
9852
  8
0
 10
160.0
 20
-270.0
 30
-27.0
 70
   192
  0
VERTEX
  5
9853
  8
0
 10
-20.00000000000003
 20
-270.0
 30
-27.0
 70
   192
  0
VERTEX
  5
9854
  8
0
 10
-25.00000000000002
 20
-268.6602540378444
 30
-27.0
 70
   192
  0
VERTEX
  5
9855
  8
0
 10
-28.66025403784441
 20
-265.0
 30
-27.0
 70
   192
  0
VERTEX
  5
9856
  8
0
 10
-30.00000000000002
 20
-260.0
 30
-27.0
 70
   192
  0
VERTEX
  5
9857
  8
0
 10
-30.0
 20
-100.0000000000001
 30
-27.0
 70
   192
  0
VERTEX
  5
9858
  8
0
 10
-28.66025403784439
 20
-95.00000000000006
 30
-27.0
 70
   192
  0
VERTEX
  5
9859
  8
0
 10
-25.0
 20
-91.33974596215566
 30
-27.0
 70
   192
  0
VERTEX
  5
985A
  8
0
 10
-20.0
 20
-90.00000000000006
 30
-27.0
 70
   192
  0
VERTEX
  5
985B
  8
0
 10
160.0
 20
-90.00000000000006
 30
-27.0
 70
   192
  0
VERTEX
  5
985C
  8
0
 10
165.0
 20
-91.33974596215565
 30
-27.0
 70
   192
  0
VERTEX
  5
985D
  8
0
 10
168.6602540378444
 20
-95.00000000000003
 30
-27.0
 70
   192
  0
VERTEX
  5
985E
  8
0
 10
170.0
 20
-100.0
 30
-27.0
 70
   192
  0
VERTEX
  5
985F
  8
0
 10
0.0
 20
0.0
 30
0.0
 70
   128
 71
    15
 72
    16
 73
    -1
  0
VERTEX
  5
9860
  8
0
 10
0.0
 20
0.0
 30
0.0
 70
   128
 71
    14
 72
   -15
 73
    -1
  0
VERTEX
  5
9861
  8
0
 10
0.0
 20
0.0
 30
0.0
 70
   128
 71
    13
 72
   -14
 73
    -1
  0
VERTEX
  5
9862
  8
0
 10
0.0
 20
0.0
 30
0.0
 70
   128
 71
    12
 72
   -13
 73
    -1
  0
VERTEX
  5
9863
  8
0
 10
0.0
 20
0.0
 30
0.0
 70
   128
 71
    11
 72
   -12
 73
    -1
  0
VERTEX
  5
9864
  8
0
 10
0.0
 20
0.0
 30
0.0
 70
   128
 71
    10
 72
   -11
 73
    -1
  0
VERTEX
  5
9865
  8
0
 10
0.0
 20
0.0
 30
0.0
 70
   128
 71
     9
 72
   -10
 73
    -1
  0
VERTEX
  5
9866
  8
0
 10
0.0
 20
0.0
 30
0.0
 70
   128
 71
     8
 72
    -9
 73
    -1
  0
VERTEX
  5
9867
  8
0
 10
0.0
 20
0.0
 30
0.0
 70
   128
 71
     7
 72
    -8
 73
    -1
  0
VERTEX
  5
9868
  8
0
 10
0.0
 20
0.0
 30
0.0
 70
   128
 71
     6
 72
    -7
 73
    -1
  0
VERTEX
  5
9869
  8
0
 10
0.0
 20
0.0
 30
0.0
 70
   128
 71
     5
 72
    -6
 73
    -1
  0
VERTEX
  5
986A
  8
0
 10
0.0
 20
0.0
 30
0.0
 70
   128
 71
     4
 72
    -5
 73
    -1
  0
VERTEX
  5
986B
  8
0
 10
0.0
 20
0.0
 30
0.0
 70
   128
 71
     3
 72
    -4
 73
    -1
  0
VERTEX
  5
986C
  8
0
 10
0.0
 20
0.0
 30
0.0
 70
   128
 71
     2
 72
    -3
 73
     1
  0
SEQEND
  5
9ADE
  8
0
  0
POLYLINE
  5
986D
  8
0
 66
     1
 10
0.0
 20
0.0
 30
0.0
 70
    64
 71
    16
 72
    14
  0
VERTEX
  5
986E
  8
0
 10
160.0
 20
-270.0
 30
-17.0
 70
   192
  0
VERTEX
  5
986F
  8
0
 10
-20.00000000000001
 20
-270.0
 30
-17.0
 70
   192
  0
VERTEX
  5
9870
  8
0
 10
-25.00000000000002
 20
-268.6602540378444
 30
-17.0
 70
   192
  0
VERTEX
  5
9871
  8
0
 10
-28.66025403784441
 20
-265.0
 30
-17.0
 70
   192
  0
VERTEX
  5
9872
  8
0
 10
-30.00000000000002
 20
-260.0
 30
-17.0
 70
   192
  0
VERTEX
  5
9873
  8
0
 10
-30.0
 20
-100.0000000000001
 30
-17.0
 70
   192
  0
VERTEX
  5
9874
  8
0
 10
-28.66025403784439
 20
-95.00000000000006
 30
-17.0
 70
   192
  0
VERTEX
  5
9875
  8
0
 10
-25.0
 20
-91.33974596215566
 30
-17.0
 70
   192
  0
VERTEX
  5
9876
  8
0
 10
-20.0
 20
-90.00000000000006
 30
-17.0
 70
   192
  0
VERTEX
  5
9877
  8
0
 10
160.0
 20
-90.00000000000003
 30
-17.0
 70
   192
  0
VERTEX
  5
9878
  8
0
 10
165.0
 20
-91.33974596215565
 30
-17.0
 70
   192
  0
VERTEX
  5
9879
  8
0
 10
168.6602540378444
 20
-95.00000000000003
 30
-17.0
 70
   192
  0
VERTEX
  5
987A
  8
0
 10
170.0
 20
-100.0
 30
-17.0
 70
   192
  0
VERTEX
  5
987B
  8
0
 10
170.0
 20
-260.0
 30
-17.0
 70
   192
  0
VERTEX
  5
987C
  8
0
 10
168.6602540378444
 20
-265.0
 30
-17.0
 70
   192
  0
VERTEX
  5
987D
  8
0
 10
165.0
 20
-268.6602540378444
 30
-17.0
 70
   192
  0
VERTEX
  5
987E
  8
0
 10
0.0
 20
0.0
 30
0.0
 70
   128
 71
     1
 72
    16
 73
   -15
  0
VERTEX
  5
987F
  8
0
 10
0.0
 20
0.0
 30
0.0
 70
   128
 71
    -1
 72
    15
 73
   -14
  0
VERTEX
  5
9880
  8
0
 10
0.0
 20
0.0
 30
0.0
 70
   128
 71
    -1
 72
    14
 73
   -13
  0
VERTEX
  5
9881
  8
0
 10
0.0
 20
0.0
 30
0.0
 70
   128
 71
    -1
 72
    13
 73
   -12
  0
VERTEX
  5
9882
  8
0
 10
0.0
 20
0.0
 30
0.0
 70
   128
 71
    -1
 72
    12
 73
   -11
  0
VERTEX
  5
9883
  8
0
 10
0.0
 20
0.0
 30
0.0
 70
   128
 71
    -1
 72
    11
 73
   -10
  0
VERTEX
  5
9884
  8
0
 10
0.0
 20
0.0
 30
0.0
 70
   128
 71
    -1
 72
    10
 73
    -9
  0
VERTEX
  5
9885
  8
0
 10
0.0
 20
0.0
 30
0.0
 70
   128
 71
    -1
 72
     9
 73
    -8
  0
VERTEX
  5
9886
  8
0
 10
0.0
 20
0.0
 30
0.0
 70
   128
 71
    -1
 72
     8
 73
    -7
  0
VERTEX
  5
9887
  8
0
 10
0.0
 20
0.0
 30
0.0
 70
   128
 71
    -1
 72
     7
 73
    -6
  0
VERTEX
  5
9888
  8
0
 10
0.0
 20
0.0
 30
0.0
 70
   128
 71
    -1
 72
     6
 73
    -5
  0
VERTEX
  5
9889
  8
0
 10
0.0
 20
0.0
 30
0.0
 70
   128
 71
    -1
 72
     5
 73
    -4
  0
VERTEX
  5
988A
  8
0
 10
0.0
 20
0.0
 30
0.0
 70
   128
 71
    -1
 72
     4
 73
    -3
  0
VERTEX
  5
988B
  8
0
 10
0.0
 20
0.0
 30
0.0
 70
   128
 71
    -1
 72
     3
 73
     2
  0
SEQEND
  5
9ADF
  8
0
  0
POLYLINE
  5
988C
  8
0
 66
     1
 10
0.0
 20
0.0
 30
0.0
 70
    64
 71
    10
 72
     8
  0
VERTEX
  5
988D
  8
0
 10
120.0
 20
-275.0
 30
-25.5
 70
   192
  0
VERTEX
  5
988E
  8
0
 10
120.0
 20
-275.0
 30
-18.50000000000001
 70
   192
  0
VERTEX
  5
988F
  8
0
 10
120.0
 20
-270.0
 30
-18.50000000000001
 70
   192
  0
VERTEX
  5
9890
  8
0
 10
120.0
 20
-270.0
 30
-25.5
 70
   192
  0
VERTEX
  5
9891
  8
0
 10
116.5
 20
-270.0
 30
-22.0
 70
   192
  0
VERTEX
  5
9892
  8
0
 10
116.5
 20
-275.0
 30
-22.0
 70
   192
  0
VERTEX
  5
9893
  8
0
 10
117.5251262658471
 20
-270.0
 30
-24.47487373415292
 70
   192
  0
VERTEX
  5
9894
  8
0
 10
117.5251262658471
 20
-275.0
 30
-24.47487373415292
 70
   192
  0
VERTEX
  5
9895
  8
0
 10
117.5251262658471
 20
-270.0
 30
-19.52512626584709
 70
   192
  0
VERTEX
  5
9896
  8
0
 10
117.5251262658471
 20
-275.0
 30
-19.52512626584709
 70
   192
  0
VERTEX
  5
9897
  8
0
 10
0.0
 20
0.0
 30
0.0
 70
   128
 71
     8
 72
     7
 73
    -4
  0
VERTEX
  5
9898
  8
0
 10
0.0
 20
0.0
 30
0.0
 70
   128
 71
    -8
 72
     4
 73
     1
  0
VERTEX
  5
9899
  8
0
 10
0.0
 20
0.0
 30
0.0
 70
   128
 71
     6
 72
     5
 73
    -7
  0
VERTEX
  5
989A
  8
0
 10
0.0
 20
0.0
 30
0.0
 70
   128
 71
    -6
 72
     7
 73
     8
  0
VERTEX
  5
989B
  8
0
 10
0.0
 20
0.0
 30
0.0
 70
   128
 71
    10
 72
     9
 73
    -5
  0
VERTEX
  5
989C
  8
0
 10
0.0
 20
0.0
 30
0.0
 70
   128
 71
   -10
 72
     5
 73
     6
  0
VERTEX
  5
989D
  8
0
 10
0.0
 20
0.0
 30
0.0
 70
   128
 71
     2
 72
     3
 73
    -9
  0
VERTEX
  5
989E
  8
0
 10
0.0
 20
0.0
 30
0.0
 70
   128
 71
    -2
 72
     9
 73
    10
  0
SEQEND
  5
9AE0
  8
0
  0
POLYLINE
  5
989F
  8
0
 66
     1
 10
0.0
 20
0.0
 30
0.0
 70
    64
 71
     8
 72
     6
  0
VERTEX
  5
98A0
  8
0
 10
120.0
 20
-275.0
 30
-18.50000000000001
 70
   192
  0
VERTEX
  5
98A1
  8
0
 10
117.5251262658471
 20
-275.0
 30
-19.52512626584709
 70
   192
  0
VERTEX
  5
98A2
  8
0
 10
116.5
 20
-275.0
 30
-22.0
 70
   192
  0
VERTEX
  5
98A3
  8
0
 10
117.5251262658471
 20
-275.0
 30
-24.47487373415292
 70
   192
  0
VERTEX
  5
98A4
  8
0
 10
120.0
 20
-275.0
 30
-25.5
 70
   192
  0
VERTEX
  5
98A5
  8
0
 10
122.4748737341529
 20
-275.0
 30
-24.47487373415292
 70
   192
  0
VERTEX
  5
98A6
  8
0
 10
123.5
 20
-275.0
 30
-22.0
 70
   192
  0
VERTEX
  5
98A7
  8
0
 10
122.4748737341529
 20
-275.0
 30
-19.52512626584709
 70
   192
  0
VERTEX
  5
98A8
  8
0
 10
0.0
 20
0.0
 30
0.0
 70
   128
 71
     7
 72
     8
 73
    -1
  0
VERTEX
  5
98A9
  8
0
 10
0.0
 20
0.0
 30
0.0
 70
   128
 71
     6
 72
    -7
 73
    -1
  0
VERTEX
  5
98AA
  8
0
 10
0.0
 20
0.0
 30
0.0
 70
   128
 71
     5
 72
    -6
 73
    -1
  0
VERTEX
  5
98AB
  8
0
 10
0.0
 20
0.0
 30
0.0
 70
   128
 71
     4
 72
    -5
 73
    -1
  0
VERTEX
  5
98AC
  8
0
 10
0.0
 20
0.0
 30
0.0
 70
   128
 71
     3
 72
    -4
 73
    -1
  0
VERTEX
  5
98AD
  8
0
 10
0.0
 20
0.0
 30
0.0
 70
   128
 71
     2
 72
    -3
 73
     1
  0
SEQEND
  5
9AE1
  8
0
  0
ENDBLK
  5
9AD4
  8
0
  0
BLOCK
  8
0
  2
*X4
 70
     1
 10
0.0
 20
0.0
 30
0.0
  3
*X4
  1

  0
POLYLINE
  5
98AF
  8
0
 66
     1
 10
0.0
 20
0.0
 30
0.0
 70
    64
 71
    14
 72
    12
  0
VERTEX
  5
98B0
  8
0
 10
-337.9999999999999
 20
-0.0000000000002439
 30
-22.0
 70
   192
  0
VERTEX
  5
98B1
  8
0
 10
-337.9999999999999
 20
0.0000000000000414
 30
-17.0
 70
   192
  0
VERTEX
  5
98B2
  8
0
 10
-292.7165864791403
 20
-168.9999999999999
 30
-17.0
 70
   192
  0
VERTEX
  5
98B3
  8
0
 10
-292.7165864791401
 20
-169.0000000000002
 30
-22.0
 70
   192
  0
VERTEX
  5
98B4
  8
0
 10
-0.0000000000001313
 20
-337.9999999999999
 30
-17.0
 70
   192
  0
VERTEX
  5
98B5
  8
0
 10
0.0000000000001313
 20
-337.9999999999999
 30
-22.0
 70
   192
  0
VERTEX
  5
98B6
  8
0
 10
-168.9999999999998
 20
-292.7165864791403
 30
-22.0
 70
   192
  0
VERTEX
  5
98B7
  8
0
 10
-169.0000000000001
 20
-292.7165864791402
 30
-17.0
 70
   192
  0
VERTEX
  5
98B8
  8
0
 10
168.9999999999998
 20
-292.7165864791403
 30
-17.0
 70
   192
  0
VERTEX
  5
98B9
  8
0
 10
169.0000000000001
 20
-292.7165864791402
 30
-22.0
 70
   192
  0
VERTEX
  5
98BA
  8
0
 10
337.9999999999999
 20
-0.0000000000002439
 30
-17.0
 70
   192
  0
VERTEX
  5
98BB
  8
0
 10
337.9999999999999
 20
0.0000000000000414
 30
-22.0
 70
   192
  0
VERTEX
  5
98BC
  8
0
 10
292.7165864791403
 20
-168.9999999999999
 30
-22.0
 70
   192
  0
VERTEX
  5
98BD
  8
0
 10
292.7165864791401
 20
-169.0000000000002
 30
-17.0
 70
   192
  0
VERTEX
  5
98BE
  8
0
 10
0.0
 20
0.0
 30
0.0
 70
   128
 71
     1
 72
     2
 73
    -3
  0
VERTEX
  5
98BF
  8
0
 10
0.0
 20
0.0
 30
0.0
 70
   128
 71
     4
 72
    -1
 73
     3
  0
VERTEX
  5
98C0
  8
0
 10
0.0
 20
0.0
 30
0.0
 70
   128
 71
     5
 72
     6
 73
    -7
  0
VERTEX
  5
98C1
  8
0
 10
0.0
 20
0.0
 30
0.0
 70
   128
 71
     8
 72
    -5
 73
     7
  0
VERTEX
  5
98C2
  8
0
 10
0.0
 20
0.0
 30
0.0
 70
   128
 71
     6
 72
     5
 73
    -9
  0
VERTEX
  5
98C3
  8
0
 10
0.0
 20
0.0
 30
0.0
 70
   128
 71
    10
 72
    -6
 73
     9
  0
VERTEX
  5
98C4
  8
0
 10
0.0
 20
0.0
 30
0.0
 70
   128
 71
    11
 72
    12
 73
   -13
  0
VERTEX
  5
98C5
  8
0
 10
0.0
 20
0.0
 30
0.0
 70
   128
 71
    14
 72
   -11
 73
    13
  0
VERTEX
  5
98C6
  8
0
 10
0.0
 20
0.0
 30
0.0
 70
   128
 71
     7
 72
     4
 73
    -3
  0
VERTEX
  5
98C7
  8
0
 10
0.0
 20
0.0
 30
0.0
 70
   128
 71
     8
 72
    -7
 73
     3
  0
VERTEX
  5
98C8
  8
0
 10
0.0
 20
0.0
 30
0.0
 70
   128
 71
    13
 72
    10
 73
    -9
  0
VERTEX
  5
98C9
  8
0
 10
0.0
 20
0.0
 30
0.0
 70
   128
 71
    14
 72
   -13
 73
     9
  0
SEQEND
  5
9AE4
  8
0
  0
POLYLINE
  5
98CA
  8
0
 66
     1
 10
0.0
 20
0.0
 30
0.0
 70
    64
 71
    14
 72
    12
  0
VERTEX
  5
98CB
  8
0
 10
307.4390183434757
 20
177.5000000000001
 30
-2.0
 70
   192
  0
VERTEX
  5
98CC
  8
0
 10
355.0
 20
0.0000000000001182
 30
-2.0
 70
   192
  0
VERTEX
  5
98CD
  8
0
 10
355.0
 20
0.0
 30
-22.0
 70
   192
  0
VERTEX
  5
98CE
  8
0
 10
307.4390183434757
 20
177.5000000000001
 30
-22.0
 70
   192
  0
VERTEX
  5
98CF
  8
0
 10
177.4999999999999
 20
307.4390183434758
 30
-22.0
 70
   192
  0
VERTEX
  5
98D0
  8
0
 10
-0.0000000000000394
 20
355.0
 30
-22.0
 70
   192
  0
VERTEX
  5
98D1
  8
0
 10
-0.0000000000000394
 20
355.0
 30
-2.0
 70
   192
  0
VERTEX
  5
98D2
  8
0
 10
177.4999999999999
 20
307.4390183434758
 30
-2.0
 70
   192
  0
VERTEX
  5
98D3
  8
0
 10
-177.5
 20
307.4390183434757
 30
-2.0
 70
   192
  0
VERTEX
  5
98D4
  8
0
 10
-177.5
 20
307.4390183434757
 30
-22.0
 70
   192
  0
VERTEX
  5
98D5
  8
0
 10
-307.4390183434757
 20
177.5
 30
-22.0
 70
   192
  0
VERTEX
  5
98D6
  8
0
 10
-355.0
 20
0.0000000000000435
 30
-22.0
 70
   192
  0
VERTEX
  5
98D7
  8
0
 10
-355.0
 20
0.0000000000000435
 30
-2.0
 70
   192
  0
VERTEX
  5
98D8
  8
0
 10
-307.4390183434757
 20
177.5
 30
-2.0
 70
   192
  0
VERTEX
  5
98D9
  8
0
 10
0.0
 20
0.0
 30
0.0
 70
   128
 71
     1
 72
     2
 73
    -3
  0
VERTEX
  5
98DA
  8
0
 10
0.0
 20
0.0
 30
0.0
 70
   128
 71
    -1
 72
     3
 73
     4
  0
VERTEX
  5
98DB
  8
0
 10
0.0
 20
0.0
 30
0.0
 70
   128
 71
     5
 72
     6
 73
    -7
  0
VERTEX
  5
98DC
  8
0
 10
0.0
 20
0.0
 30
0.0
 70
   128
 71
    -5
 72
     7
 73
     8
  0
VERTEX
  5
98DD
  8
0
 10
0.0
 20
0.0
 30
0.0
 70
   128
 71
     9
 72
     7
 73
    -6
  0
VERTEX
  5
98DE
  8
0
 10
0.0
 20
0.0
 30
0.0
 70
   128
 71
    -9
 72
     6
 73
    10
  0
VERTEX
  5
98DF
  8
0
 10
0.0
 20
0.0
 30
0.0
 70
   128
 71
    11
 72
    12
 73
   -13
  0
VERTEX
  5
98E0
  8
0
 10
0.0
 20
0.0
 30
0.0
 70
   128
 71
   -11
 72
    13
 73
    14
  0
VERTEX
  5
98E1
  8
0
 10
0.0
 20
0.0
 30
0.0
 70
   128
 71
     1
 72
     4
 73
    -5
  0
VERTEX
  5
98E2
  8
0
 10
0.0
 20
0.0
 30
0.0
 70
   128
 71
    -1
 72
     5
 73
     8
  0
VERTEX
  5
98E3
  8
0
 10
0.0
 20
0.0
 30
0.0
 70
   128
 71
     9
 72
    10
 73
   -11
  0
VERTEX
  5
98E4
  8
0
 10
0.0
 20
0.0
 30
0.0
 70
   128
 71
    -9
 72
    11
 73
    14
  0
SEQEND
  5
9AE5
  8
0
  0
POLYLINE
  5
98E5
  8
0
 66
     1
 10
0.0
 20
0.0
 30
0.0
 70
    64
 71
    14
 72
    12
  0
VERTEX
  5
98E6
  8
0
 10
-190.0000000000001
 20
-329.0896534380867
 30
-0.5
 70
   192
  0
VERTEX
  5
98E7
  8
0
 10
-329.0896534380868
 20
-190.0
 30
-0.5
 70
   192
  0
VERTEX
  5
98E8
  8
0
 10
-329.0896534380868
 20
-190.0
 30
0.0
 70
   192
  0
VERTEX
  5
98E9
  8
0
 10
-190.0000000000001
 20
-329.0896534380867
 30
0.0
 70
   192
  0
VERTEX
  5
98EA
  8
0
 10
329.0896534380867
 20
-190.0000000000002
 30
-0.5
 70
   192
  0
VERTEX
  5
98EB
  8
0
 10
189.9999999999999
 20
-329.0896534380868
 30
-0.5
 70
   192
  0
VERTEX
  5
98EC
  8
0
 10
189.9999999999999
 20
-329.0896534380868
 30
0.0
 70
   192
  0
VERTEX
  5
98ED
  8
0
 10
329.0896534380867
 20
-190.0000000000002
 30
0.0
 70
   192
  0
VERTEX
  5
98EE
  8
0
 10
380.0000000000001
 20
-0.0000000000002742
 30
-0.5
 70
   192
  0
VERTEX
  5
98EF
  8
0
 10
380.0000000000001
 20
-0.0000000000002742
 30
0.0
 70
   192
  0
VERTEX
  5
98F0
  8
0
 10
-0.0000000000001477
 20
-380.0000000000001
 30
-0.5
 70
   192
  0
VERTEX
  5
98F1
  8
0
 10
-0.0000000000001477
 20
-380.0000000000001
 30
0.0
 70
   192
  0
VERTEX
  5
98F2
  8
0
 10
-380.0000000000001
 20
0.0000000000000465
 30
-0.5
 70
   192
  0
VERTEX
  5
98F3
  8
0
 10
-380.0000000000001
 20
0.0000000000000465
 30
0.0
 70
   192
  0
VERTEX
  5
98F4
  8
0
 10
0.0
 20
0.0
 30
0.0
 70
   128
 71
     1
 72
     2
 73
    -3
  0
VERTEX
  5
98F5
  8
0
 10
0.0
 20
0.0
 30
0.0
 70
   128
 71
     4
 72
    -1
 73
     3
  0
VERTEX
  5
98F6
  8
0
 10
0.0
 20
0.0
 30
0.0
 70
   128
 71
     5
 72
     6
 73
    -7
  0
VERTEX
  5
98F7
  8
0
 10
0.0
 20
0.0
 30
0.0
 70
   128
 71
     8
 72
    -5
 73
     7
  0
VERTEX
  5
98F8
  8
0
 10
0.0
 20
0.0
 30
0.0
 70
   128
 71
     9
 72
     5
 73
    -8
  0
VERTEX
  5
98F9
  8
0
 10
0.0
 20
0.0
 30
0.0
 70
   128
 71
    10
 72
    -9
 73
     8
  0
VERTEX
  5
98FA
  8
0
 10
0.0
 20
0.0
 30
0.0
 70
   128
 71
     6
 72
    11
 73
   -12
  0
VERTEX
  5
98FB
  8
0
 10
0.0
 20
0.0
 30
0.0
 70
   128
 71
     7
 72
    -6
 73
    12
  0
VERTEX
  5
98FC
  8
0
 10
0.0
 20
0.0
 30
0.0
 70
   128
 71
    11
 72
     1
 73
    -4
  0
VERTEX
  5
98FD
  8
0
 10
0.0
 20
0.0
 30
0.0
 70
   128
 71
    12
 72
   -11
 73
     4
  0
VERTEX
  5
98FE
  8
0
 10
0.0
 20
0.0
 30
0.0
 70
   128
 71
     2
 72
    13
 73
   -14
  0
VERTEX
  5
98FF
  8
0
 10
0.0
 20
0.0
 30
0.0
 70
   128
 71
     3
 72
    -2
 73
    14
  0
SEQEND
  5
9AE6
  8
0
  0
POLYLINE
  5
9900
  8
0
 66
     1
 10
0.0
 20
0.0
 30
0.0
 70
    64
 71
    14
 72
    12
  0
VERTEX
  5
9901
  8
0
 10
311.769145362398
 20
180.0
 30
0.0
 70
   192
  0
VERTEX
  5
9902
  8
0
 10
360.0000000000001
 20
0.0
 30
0.0
 70
   192
  0
VERTEX
  5
9903
  8
0
 10
360.0000000000001
 20
0.0
 30
-0.5
 70
   192
  0
VERTEX
  5
9904
  8
0
 10
311.769145362398
 20
180.0
 30
-0.5
 70
   192
  0
VERTEX
  5
9905
  8
0
 10
180.0000000000001
 20
311.7691453623979
 30
-0.5
 70
   192
  0
VERTEX
  5
9906
  8
0
 10
0.0000000000000999
 20
360.0000000000001
 30
-0.5
 70
   192
  0
VERTEX
  5
9907
  8
0
 10
0.0000000000000999
 20
360.0000000000001
 30
0.0
 70
   192
  0
VERTEX
  5
9908
  8
0
 10
180.0000000000001
 20
311.7691453623979
 30
0.0
 70
   192
  0
VERTEX
  5
9909
  8
0
 10
-179.9999999999999
 20
311.769145362398
 30
0.0
 70
   192
  0
VERTEX
  5
990A
  8
0
 10
-179.9999999999999
 20
311.769145362398
 30
-0.5
 70
   192
  0
VERTEX
  5
990B
  8
0
 10
-311.7691453623979
 20
180.0000000000002
 30
-0.5
 70
   192
  0
VERTEX
  5
990C
  8
0
 10
-360.0000000000001
 20
0.0000000000001998
 30
-0.5
 70
   192
  0
VERTEX
  5
990D
  8
0
 10
-360.0000000000001
 20
0.0000000000000441
 30
0.0
 70
   192
  0
VERTEX
  5
990E
  8
0
 10
-311.7691453623979
 20
180.0000000000002
 30
0.0
 70
   192
  0
VERTEX
  5
990F
  8
0
 10
0.0
 20
0.0
 30
0.0
 70
   128
 71
     1
 72
     2
 73
    -3
  0
VERTEX
  5
9910
  8
0
 10
0.0
 20
0.0
 30
0.0
 70
   128
 71
    -1
 72
     3
 73
     4
  0
VERTEX
  5
9911
  8
0
 10
0.0
 20
0.0
 30
0.0
 70
   128
 71
     5
 72
     6
 73
    -7
  0
VERTEX
  5
9912
  8
0
 10
0.0
 20
0.0
 30
0.0
 70
   128
 71
    -5
 72
     7
 73
     8
  0
VERTEX
  5
9913
  8
0
 10
0.0
 20
0.0
 30
0.0
 70
   128
 71
     9
 72
     7
 73
    -6
  0
VERTEX
  5
9914
  8
0
 10
0.0
 20
0.0
 30
0.0
 70
   128
 71
    -9
 72
     6
 73
    10
  0
VERTEX
  5
9915
  8
0
 10
0.0
 20
0.0
 30
0.0
 70
   128
 71
    11
 72
    12
 73
   -13
  0
VERTEX
  5
9916
  8
0
 10
0.0
 20
0.0
 30
0.0
 70
   128
 71
   -11
 72
    13
 73
    14
  0
VERTEX
  5
9917
  8
0
 10
0.0
 20
0.0
 30
0.0
 70
   128
 71
     1
 72
     4
 73
    -5
  0
VERTEX
  5
9918
  8
0
 10
0.0
 20
0.0
 30
0.0
 70
   128
 71
    -1
 72
     5
 73
     8
  0
VERTEX
  5
9919
  8
0
 10
0.0
 20
0.0
 30
0.0
 70
   128
 71
     9
 72
    10
 73
   -11
  0
VERTEX
  5
991A
  8
0
 10
0.0
 20
0.0
 30
0.0
 70
   128
 71
    -9
 72
    11
 73
    14
  0
SEQEND
  5
9AE7
  8
0
  0
POLYLINE
  5
991B
  8
0
 66
     1
 10
0.0
 20
0.0
 30
0.0
 70
    64
 71
    14
 72
    12
  0
VERTEX
  5
991C
  8
0
 10
346.4101615137755
 20
200.0
 30
0.0
 70
   192
  0
VERTEX
  5
991D
  8
0
 10
346.4101615137755
 20
200.0
 30
-2.0
 70
   192
  0
VERTEX
  5
991E
  8
0
 10
200.0000000000001
 20
346.4101615137754
 30
-2.0
 70
   192
  0
VERTEX
  5
991F
  8
0
 10
200.0000000000001
 20
346.4101615137754
 30
0.0
 70
   192
  0
VERTEX
  5
9920
  8
0
 10
-199.9999999999999
 20
346.4101615137755
 30
0.0
 70
   192
  0
VERTEX
  5
9921
  8
0
 10
-199.9999999999999
 20
346.4101615137755
 30
-2.0
 70
   192
  0
VERTEX
  5
9922
  8
0
 10
-346.4101615137754
 20
200.0000000000002
 30
-2.0
 70
   192
  0
VERTEX
  5
9923
  8
0
 10
-346.4101615137754
 20
200.0000000000002
 30
0.0
 70
   192
  0
VERTEX
  5
9924
  8
0
 10
-400.0
 20
0.000000000000222
 30
-2.0
 70
   192
  0
VERTEX
  5
9925
  8
0
 10
-400.0
 20
0.000000000000049
 30
0.0
 70
   192
  0
VERTEX
  5
9926
  8
0
 10
0.000000000000111
 20
400.0
 30
0.0
 70
   192
  0
VERTEX
  5
9927
  8
0
 10
0.000000000000111
 20
400.0
 30
-2.0
 70
   192
  0
VERTEX
  5
9928
  8
0
 10
400.0
 20
0.0
 30
0.0
 70
   192
  0
VERTEX
  5
9929
  8
0
 10
400.0
 20
0.0
 30
-2.0
 70
   192
  0
VERTEX
  5
992A
  8
0
 10
0.0
 20
0.0
 30
0.0
 70
   128
 71
     1
 72
     2
 73
    -3
  0
VERTEX
  5
992B
  8
0
 10
0.0
 20
0.0
 30
0.0
 70
   128
 71
    -1
 72
     3
 73
     4
  0
VERTEX
  5
992C
  8
0
 10
0.0
 20
0.0
 30
0.0
 70
   128
 71
     5
 72
     6
 73
    -7
  0
VERTEX
  5
992D
  8
0
 10
0.0
 20
0.0
 30
0.0
 70
   128
 71
    -5
 72
     7
 73
     8
  0
VERTEX
  5
992E
  8
0
 10
0.0
 20
0.0
 30
0.0
 70
   128
 71
     8
 72
     7
 73
    -9
  0
VERTEX
  5
992F
  8
0
 10
0.0
 20
0.0
 30
0.0
 70
   128
 71
    -8
 72
     9
 73
    10
  0
VERTEX
  5
9930
  8
0
 10
0.0
 20
0.0
 30
0.0
 70
   128
 71
    11
 72
    12
 73
    -6
  0
VERTEX
  5
9931
  8
0
 10
0.0
 20
0.0
 30
0.0
 70
   128
 71
   -11
 72
     6
 73
     5
  0
VERTEX
  5
9932
  8
0
 10
0.0
 20
0.0
 30
0.0
 70
   128
 71
     4
 72
     3
 73
   -12
  0
VERTEX
  5
9933
  8
0
 10
0.0
 20
0.0
 30
0.0
 70
   128
 71
    -4
 72
    12
 73
    11
  0
VERTEX
  5
9934
  8
0
 10
0.0
 20
0.0
 30
0.0
 70
   128
 71
    13
 72
    14
 73
    -2
  0
VERTEX
  5
9935
  8
0
 10
0.0
 20
0.0
 30
0.0
 70
   128
 71
   -13
 72
     2
 73
     1
  0
SEQEND
  5
9AE8
  8
0
  0
POLYLINE
  5
9936
  8
0
 66
     1
 10
0.0
 20
0.0
 30
0.0
 70
    64
 71
    14
 72
    12
  0
VERTEX
  5
9937
  8
0
 10
-346.4101615137755
 20
-199.9999999999999
 30
0.0
 70
   192
  0
VERTEX
  5
9938
  8
0
 10
-346.4101615137755
 20
-199.9999999999999
 30
-2.0
 70
   192
  0
VERTEX
  5
9939
  8
0
 10
-200.0000000000001
 20
-346.4101615137754
 30
-2.0
 70
   192
  0
VERTEX
  5
993A
  8
0
 10
-200.0000000000001
 20
-346.4101615137754
 30
0.0
 70
   192
  0
VERTEX
  5
993B
  8
0
 10
199.9999999999999
 20
-346.4101615137756
 30
0.0
 70
   192
  0
VERTEX
  5
993C
  8
0
 10
199.9999999999999
 20
-346.4101615137756
 30
-2.0
 70
   192
  0
VERTEX
  5
993D
  8
0
 10
346.4101615137753
 20
-200.0000000000002
 30
-2.0
 70
   192
  0
VERTEX
  5
993E
  8
0
 10
346.4101615137753
 20
-200.0000000000002
 30
0.0
 70
   192
  0
VERTEX
  5
993F
  8
0
 10
400.0
 20
-0.0000000000002887
 30
-2.0
 70
   192
  0
VERTEX
  5
9940
  8
0
 10
400.0
 20
0.0
 30
0.0
 70
   192
  0
VERTEX
  5
9941
  8
0
 10
-0.0000000000001554
 20
-400.0
 30
0.0
 70
   192
  0
VERTEX
  5
9942
  8
0
 10
-0.0000000000001554
 20
-400.0
 30
-2.0
 70
   192
  0
VERTEX
  5
9943
  8
0
 10
-400.0
 20
0.000000000000049
 30
0.0
 70
   192
  0
VERTEX
  5
9944
  8
0
 10
-400.0
 20
0.000000000000049
 30
-2.0
 70
   192
  0
VERTEX
  5
9945
  8
0
 10
0.0
 20
0.0
 30
0.0
 70
   128
 71
     1
 72
     2
 73
    -3
  0
VERTEX
  5
9946
  8
0
 10
0.0
 20
0.0
 30
0.0
 70
   128
 71
    -1
 72
     3
 73
     4
  0
VERTEX
  5
9947
  8
0
 10
0.0
 20
0.0
 30
0.0
 70
   128
 71
     5
 72
     6
 73
    -7
  0
VERTEX
  5
9948
  8
0
 10
0.0
 20
0.0
 30
0.0
 70
   128
 71
    -5
 72
     7
 73
     8
  0
VERTEX
  5
9949
  8
0
 10
0.0
 20
0.0
 30
0.0
 70
   128
 71
     8
 72
     7
 73
    -9
  0
VERTEX
  5
994A
  8
0
 10
0.0
 20
0.0
 30
0.0
 70
   128
 71
    -8
 72
     9
 73
    10
  0
VERTEX
  5
994B
  8
0
 10
0.0
 20
0.0
 30
0.0
 70
   128
 71
    11
 72
    12
 73
    -6
  0
VERTEX
  5
994C
  8
0
 10
0.0
 20
0.0
 30
0.0
 70
   128
 71
   -11
 72
     6
 73
     5
  0
VERTEX
  5
994D
  8
0
 10
0.0
 20
0.0
 30
0.0
 70
   128
 71
     4
 72
     3
 73
   -12
  0
VERTEX
  5
994E
  8
0
 10
0.0
 20
0.0
 30
0.0
 70
   128
 71
    -4
 72
    12
 73
    11
  0
VERTEX
  5
994F
  8
0
 10
0.0
 20
0.0
 30
0.0
 70
   128
 71
    13
 72
    14
 73
    -2
  0
VERTEX
  5
9950
  8
0
 10
0.0
 20
0.0
 30
0.0
 70
   128
 71
   -13
 72
     2
 73
     1
  0
SEQEND
  5
9AE9
  8
0
  0
POLYLINE
  5
9951
  8
0
 66
     1
 10
0.0
 20
0.0
 30
0.0
 70
    64
 71
    24
 72
    24
  0
VERTEX
  5
9952
  8
0
 10
-400.0
 20
0.000000000000049
 30
-2.0
 70
   192
  0
VERTEX
  5
9953
  8
0
 10
-346.4101615137755
 20
-199.9999999999999
 30
-2.0
 70
   192
  0
VERTEX
  5
9954
  8
0
 10
-200.0000000000001
 20
-346.4101615137754
 30
-2.0
 70
   192
  0
VERTEX
  5
9955
  8
0
 10
-0.0000000000001554
 20
-400.0
 30
-2.0
 70
   192
  0
VERTEX
  5
9956
  8
0
 10
199.9999999999999
 20
-346.4101615137756
 30
-2.0
 70
   192
  0
VERTEX
  5
9957
  8
0
 10
346.4101615137753
 20
-200.0000000000002
 30
-2.0
 70
   192
  0
VERTEX
  5
9958
  8
0
 10
400.0
 20
0.0
 30
-2.0
 70
   192
  0
VERTEX
  5
9959
  8
0
 10
346.4101615137755
 20
200.0
 30
-2.0
 70
   192
  0
VERTEX
  5
995A
  8
0
 10
200.0000000000001
 20
346.4101615137754
 30
-2.0
 70
   192
  0
VERTEX
  5
995B
  8
0
 10
0.000000000000111
 20
400.0
 30
-2.0
 70
   192
  0
VERTEX
  5
995C
  8
0
 10
-199.9999999999999
 20
346.4101615137755
 30
-2.0
 70
   192
  0
VERTEX
  5
995D
  8
0
 10
-346.4101615137754
 20
200.0000000000002
 30
-2.0
 70
   192
  0
VERTEX
  5
995E
  8
0
 10
-355.0
 20
0.0000000000000435
 30
-2.0
 70
   192
  0
VERTEX
  5
995F
  8
0
 10
-307.4390183434757
 20
177.5
 30
-2.0
 70
   192
  0
VERTEX
  5
9960
  8
0
 10
-177.5
 20
307.4390183434757
 30
-2.0
 70
   192
  0
VERTEX
  5
9961
  8
0
 10
-0.0000000000000394
 20
355.0
 30
-2.0
 70
   192
  0
VERTEX
  5
9962
  8
0
 10
177.4999999999999
 20
307.4390183434758
 30
-2.0
 70
   192
  0
VERTEX
  5
9963
  8
0
 10
307.4390183434757
 20
177.5000000000001
 30
-2.0
 70
   192
  0
VERTEX
  5
9964
  8
0
 10
355.0
 20
0.0000000000000435
 30
-2.0
 70
   192
  0
VERTEX
  5
9965
  8
0
 10
307.4390183434758
 20
-177.4999999999999
 30
-2.0
 70
   192
  0
VERTEX
  5
9966
  8
0
 10
177.5000000000001
 20
-307.4390183434757
 30
-2.0
 70
   192
  0
VERTEX
  5
9967
  8
0
 10
0.0000000000001379
 20
-355.0
 30
-2.0
 70
   192
  0
VERTEX
  5
9968
  8
0
 10
-177.4999999999999
 20
-307.4390183434758
 30
-2.0
 70
   192
  0
VERTEX
  5
9969
  8
0
 10
-307.4390183434756
 20
-177.5000000000002
 30
-2.0
 70
   192
  0
VERTEX
  5
996A
  8
0
 10
0.0
 20
0.0
 30
0.0
 70
   128
 71
    14
 72
   -13
 73
    -1
  0
VERTEX
  5
996B
  8
0
 10
0.0
 20
0.0
 30
0.0
 70
   128
 71
   -14
 72
     1
 73
   -12
  0
VERTEX
  5
996C
  8
0
 10
0.0
 20
0.0
 30
0.0
 70
   128
 71
    12
 72
   -11
 73
   -15
  0
VERTEX
  5
996D
  8
0
 10
0.0
 20
0.0
 30
0.0
 70
   128
 71
   -12
 72
    15
 73
   -14
  0
VERTEX
  5
996E
  8
0
 10
0.0
 20
0.0
 30
0.0
 70
   128
 71
    11
 72
   -10
 73
   -16
  0
VERTEX
  5
996F
  8
0
 10
0.0
 20
0.0
 30
0.0
 70
   128
 71
   -11
 72
    16
 73
   -15
  0
VERTEX
  5
9970
  8
0
 10
0.0
 20
0.0
 30
0.0
 70
   128
 71
    10
 72
    -9
 73
   -17
  0
VERTEX
  5
9971
  8
0
 10
0.0
 20
0.0
 30
0.0
 70
   128
 71
   -10
 72
    17
 73
   -16
  0
VERTEX
  5
9972
  8
0
 10
0.0
 20
0.0
 30
0.0
 70
   128
 71
     9
 72
    -8
 73
   -18
  0
VERTEX
  5
9973
  8
0
 10
0.0
 20
0.0
 30
0.0
 70
   128
 71
    -9
 72
    18
 73
   -17
  0
VERTEX
  5
9974
  8
0
 10
0.0
 20
0.0
 30
0.0
 70
   128
 71
     8
 72
    -7
 73
   -19
  0
VERTEX
  5
9975
  8
0
 10
0.0
 20
0.0
 30
0.0
 70
   128
 71
    -8
 72
    19
 73
   -18
  0
VERTEX
  5
9976
  8
0
 10
0.0
 20
0.0
 30
0.0
 70
   128
 71
     7
 72
    -6
 73
   -20
  0
VERTEX
  5
9977
  8
0
 10
0.0
 20
0.0
 30
0.0
 70
   128
 71
    -7
 72
    20
 73
   -19
  0
VERTEX
  5
9978
  8
0
 10
0.0
 20
0.0
 30
0.0
 70
   128
 71
     6
 72
    -5
 73
   -21
  0
VERTEX
  5
9979
  8
0
 10
0.0
 20
0.0
 30
0.0
 70
   128
 71
    -6
 72
    21
 73
   -20
  0
VERTEX
  5
997A
  8
0
 10
0.0
 20
0.0
 30
0.0
 70
   128
 71
     5
 72
    -4
 73
   -22
  0
VERTEX
  5
997B
  8
0
 10
0.0
 20
0.0
 30
0.0
 70
   128
 71
    -5
 72
    22
 73
   -21
  0
VERTEX
  5
997C
  8
0
 10
0.0
 20
0.0
 30
0.0
 70
   128
 71
     4
 72
    -3
 73
   -23
  0
VERTEX
  5
997D
  8
0
 10
0.0
 20
0.0
 30
0.0
 70
   128
 71
    -4
 72
    23
 73
   -22
  0
VERTEX
  5
997E
  8
0
 10
0.0
 20
0.0
 30
0.0
 70
   128
 71
     3
 72
    -2
 73
   -24
  0
VERTEX
  5
997F
  8
0
 10
0.0
 20
0.0
 30
0.0
 70
   128
 71
    -3
 72
    24
 73
   -23
  0
VERTEX
  5
9980
  8
0
 10
0.0
 20
0.0
 30
0.0
 70
   128
 71
     2
 72
    -1
 73
   -13
  0
VERTEX
  5
9981
  8
0
 10
0.0
 20
0.0
 30
0.0
 70
   128
 71
    -2
 72
    13
 73
   -24
  0
SEQEND
  5
9AEA
  8
0
  0
POLYLINE
  5
9982
  8
0
 66
     1
 10
0.0
 20
0.0
 30
0.0
 70
    64
 71
    24
 72
    24
  0
VERTEX
  5
9983
  8
0
 10
400.0
 20
0.0
 30
0.0
 70
   192
  0
VERTEX
  5
9984
  8
0
 10
346.4101615137755
 20
200.0
 30
0.0
 70
   192
  0
VERTEX
  5
9985
  8
0
 10
200.0000000000001
 20
346.4101615137754
 30
0.0
 70
   192
  0
VERTEX
  5
9986
  8
0
 10
0.000000000000111
 20
400.0
 30
0.0
 70
   192
  0
VERTEX
  5
9987
  8
0
 10
-199.9999999999999
 20
346.4101615137755
 30
0.0
 70
   192
  0
VERTEX
  5
9988
  8
0
 10
-346.4101615137754
 20
200.0000000000002
 30
0.0
 70
   192
  0
VERTEX
  5
9989
  8
0
 10
-400.0
 20
0.000000000000222
 30
0.0
 70
   192
  0
VERTEX
  5
998A
  8
0
 10
-346.4101615137755
 20
-199.9999999999999
 30
0.0
 70
   192
  0
VERTEX
  5
998B
  8
0
 10
-200.0000000000001
 20
-346.4101615137754
 30
0.0
 70
   192
  0
VERTEX
  5
998C
  8
0
 10
-0.0000000000001554
 20
-400.0
 30
0.0
 70
   192
  0
VERTEX
  5
998D
  8
0
 10
199.9999999999999
 20
-346.4101615137756
 30
0.0
 70
   192
  0
VERTEX
  5
998E
  8
0
 10
346.4101615137753
 20
-200.0000000000002
 30
0.0
 70
   192
  0
VERTEX
  5
998F
  8
0
 10
-380.0000000000001
 20
0.0000000000002109
 30
0.0
 70
   192
  0
VERTEX
  5
9990
  8
0
 10
-329.0896534380867
 20
190.0000000000002
 30
0.0
 70
   192
  0
VERTEX
  5
9991
  8
0
 10
-189.9999999999999
 20
329.0896534380868
 30
0.0
 70
   192
  0
VERTEX
  5
9992
  8
0
 10
0.0000000000001055
 20
380.0000000000001
 30
0.0
 70
   192
  0
VERTEX
  5
9993
  8
0
 10
190.0000000000001
 20
329.0896534380867
 30
0.0
 70
   192
  0
VERTEX
  5
9994
  8
0
 10
329.0896534380868
 20
190.0
 30
0.0
 70
   192
  0
VERTEX
  5
9995
  8
0
 10
380.0000000000001
 20
0.0
 30
0.0
 70
   192
  0
VERTEX
  5
9996
  8
0
 10
329.0896534380867
 20
-190.0000000000002
 30
0.0
 70
   192
  0
VERTEX
  5
9997
  8
0
 10
189.9999999999999
 20
-329.0896534380868
 30
0.0
 70
   192
  0
VERTEX
  5
9998
  8
0
 10
-0.0000000000001477
 20
-380.0000000000001
 30
0.0
 70
   192
  0
VERTEX
  5
9999
  8
0
 10
-190.0000000000001
 20
-329.0896534380867
 30
0.0
 70
   192
  0
VERTEX
  5
999A
  8
0
 10
-329.0896534380868
 20
-190.0
 30
0.0
 70
   192
  0
VERTEX
  5
999B
  8
0
 10
0.0
 20
0.0
 30
0.0
 70
   128
 71
    -7
 72
    13
 73
   -14
  0
VERTEX
  5
999C
  8
0
 10
0.0
 20
0.0
 30
0.0
 70
   128
 71
     6
 72
    -7
 73
   -14
  0
VERTEX
  5
999D
  8
0
 10
0.0
 20
0.0
 30
0.0
 70
   128
 71
   -15
 72
     5
 73
    -6
  0
VERTEX
  5
999E
  8
0
 10
0.0
 20
0.0
 30
0.0
 70
   128
 71
    14
 72
   -15
 73
    -6
  0
VERTEX
  5
999F
  8
0
 10
0.0
 20
0.0
 30
0.0
 70
   128
 71
   -16
 72
     4
 73
    -5
  0
VERTEX
  5
99A0
  8
0
 10
0.0
 20
0.0
 30
0.0
 70
   128
 71
    15
 72
   -16
 73
    -5
  0
VERTEX
  5
99A1
  8
0
 10
0.0
 20
0.0
 30
0.0
 70
   128
 71
   -17
 72
     3
 73
    -4
  0
VERTEX
  5
99A2
  8
0
 10
0.0
 20
0.0
 30
0.0
 70
   128
 71
    16
 72
   -17
 73
    -4
  0
VERTEX
  5
99A3
  8
0
 10
0.0
 20
0.0
 30
0.0
 70
   128
 71
   -18
 72
     2
 73
    -3
  0
VERTEX
  5
99A4
  8
0
 10
0.0
 20
0.0
 30
0.0
 70
   128
 71
    17
 72
   -18
 73
    -3
  0
VERTEX
  5
99A5
  8
0
 10
0.0
 20
0.0
 30
0.0
 70
   128
 71
   -19
 72
     1
 73
    -2
  0
VERTEX
  5
99A6
  8
0
 10
0.0
 20
0.0
 30
0.0
 70
   128
 71
    18
 72
   -19
 73
    -2
  0
VERTEX
  5
99A7
  8
0
 10
0.0
 20
0.0
 30
0.0
 70
   128
 71
   -20
 72
    12
 73
    -1
  0
VERTEX
  5
99A8
  8
0
 10
0.0
 20
0.0
 30
0.0
 70
   128
 71
    19
 72
   -20
 73
    -1
  0
VERTEX
  5
99A9
  8
0
 10
0.0
 20
0.0
 30
0.0
 70
   128
 71
   -21
 72
    11
 73
   -12
  0
VERTEX
  5
99AA
  8
0
 10
0.0
 20
0.0
 30
0.0
 70
   128
 71
    20
 72
   -21
 73
   -12
  0
VERTEX
  5
99AB
  8
0
 10
0.0
 20
0.0
 30
0.0
 70
   128
 71
   -22
 72
    10
 73
   -11
  0
VERTEX
  5
99AC
  8
0
 10
0.0
 20
0.0
 30
0.0
 70
   128
 71
    21
 72
   -22
 73
   -11
  0
VERTEX
  5
99AD
  8
0
 10
0.0
 20
0.0
 30
0.0
 70
   128
 71
   -23
 72
     9
 73
   -10
  0
VERTEX
  5
99AE
  8
0
 10
0.0
 20
0.0
 30
0.0
 70
   128
 71
    22
 72
   -23
 73
   -10
  0
VERTEX
  5
99AF
  8
0
 10
0.0
 20
0.0
 30
0.0
 70
   128
 71
   -24
 72
     8
 73
    -9
  0
VERTEX
  5
99B0
  8
0
 10
0.0
 20
0.0
 30
0.0
 70
   128
 71
    23
 72
   -24
 73
    -9
  0
VERTEX
  5
99B1
  8
0
 10
0.0
 20
0.0
 30
0.0
 70
   128
 71
   -13
 72
     7
 73
    -8
  0
VERTEX
  5
99B2
  8
0
 10
0.0
 20
0.0
 30
0.0
 70
   128
 71
    24
 72
   -13
 73
    -8
  0
SEQEND
  5
9AEB
  8
0
  0
POLYLINE
  5
99B3
  8
0
 66
     1
 10
0.0
 20
0.0
 30
0.0
 70
    64
 71
    14
 72
    12
  0
VERTEX
  5
99B4
  8
0
 10
-311.769145362398
 20
-180.0
 30
0.0
 70
   192
  0
VERTEX
  5
99B5
  8
0
 10
-360.0000000000001
 20
0.0000000000000441
 30
0.0
 70
   192
  0
VERTEX
  5
99B6
  8
0
 10
-360.0000000000001
 20
0.0000000000000441
 30
-0.5
 70
   192
  0
VERTEX
  5
99B7
  8
0
 10
-311.769145362398
 20
-180.0
 30
-0.5
 70
   192
  0
VERTEX
  5
99B8
  8
0
 10
-180.0000000000001
 20
-311.7691453623979
 30
-0.5
 70
   192
  0
VERTEX
  5
99B9
  8
0
 10
-0.0000000000001399
 20
-360.0000000000001
 30
-0.5
 70
   192
  0
VERTEX
  5
99BA
  8
0
 10
-0.0000000000001399
 20
-360.0000000000001
 30
0.0
 70
   192
  0
VERTEX
  5
99BB
  8
0
 10
-180.0000000000001
 20
-311.7691453623979
 30
0.0
 70
   192
  0
VERTEX
  5
99BC
  8
0
 10
179.9999999999999
 20
-311.7691453623981
 30
0.0
 70
   192
  0
VERTEX
  5
99BD
  8
0
 10
179.9999999999999
 20
-311.7691453623981
 30
-0.5
 70
   192
  0
VERTEX
  5
99BE
  8
0
 10
311.7691453623979
 20
-180.0000000000002
 30
-0.5
 70
   192
  0
VERTEX
  5
99BF
  8
0
 10
360.0000000000001
 20
-0.0000000000002598
 30
-0.5
 70
   192
  0
VERTEX
  5
99C0
  8
0
 10
360.0000000000001
 20
0.0
 30
0.0
 70
   192
  0
VERTEX
  5
99C1
  8
0
 10
311.7691453623979
 20
-180.0000000000002
 30
0.0
 70
   192
  0
VERTEX
  5
99C2
  8
0
 10
0.0
 20
0.0
 30
0.0
 70
   128
 71
     1
 72
     2
 73
    -3
  0
VERTEX
  5
99C3
  8
0
 10
0.0
 20
0.0
 30
0.0
 70
   128
 71
    -1
 72
     3
 73
     4
  0
VERTEX
  5
99C4
  8
0
 10
0.0
 20
0.0
 30
0.0
 70
   128
 71
     5
 72
     6
 73
    -7
  0
VERTEX
  5
99C5
  8
0
 10
0.0
 20
0.0
 30
0.0
 70
   128
 71
    -5
 72
     7
 73
     8
  0
VERTEX
  5
99C6
  8
0
 10
0.0
 20
0.0
 30
0.0
 70
   128
 71
     9
 72
     7
 73
    -6
  0
VERTEX
  5
99C7
  8
0
 10
0.0
 20
0.0
 30
0.0
 70
   128
 71
    -9
 72
     6
 73
    10
  0
VERTEX
  5
99C8
  8
0
 10
0.0
 20
0.0
 30
0.0
 70
   128
 71
    11
 72
    12
 73
   -13
  0
VERTEX
  5
99C9
  8
0
 10
0.0
 20
0.0
 30
0.0
 70
   128
 71
   -11
 72
    13
 73
    14
  0
VERTEX
  5
99CA
  8
0
 10
0.0
 20
0.0
 30
0.0
 70
   128
 71
     1
 72
     4
 73
    -5
  0
VERTEX
  5
99CB
  8
0
 10
0.0
 20
0.0
 30
0.0
 70
   128
 71
    -1
 72
     5
 73
     8
  0
VERTEX
  5
99CC
  8
0
 10
0.0
 20
0.0
 30
0.0
 70
   128
 71
     9
 72
    10
 73
   -11
  0
VERTEX
  5
99CD
  8
0
 10
0.0
 20
0.0
 30
0.0
 70
   128
 71
    -9
 72
    11
 73
    14
  0
SEQEND
  5
9AEC
  8
0
  0
POLYLINE
  5
99CE
  8
0
 66
     1
 10
0.0
 20
0.0
 30
0.0
 70
    64
 71
    14
 72
    12
  0
VERTEX
  5
99CF
  8
0
 10
190.0000000000001
 20
329.0896534380867
 30
-0.5
 70
   192
  0
VERTEX
  5
99D0
  8
0
 10
329.0896534380868
 20
190.0
 30
-0.5
 70
   192
  0
VERTEX
  5
99D1
  8
0
 10
329.0896534380868
 20
190.0
 30
0.0
 70
   192
  0
VERTEX
  5
99D2
  8
0
 10
190.0000000000001
 20
329.0896534380867
 30
0.0
 70
   192
  0
VERTEX
  5
99D3
  8
0
 10
-329.0896534380867
 20
190.0000000000002
 30
-0.5
 70
   192
  0
VERTEX
  5
99D4
  8
0
 10
-189.9999999999999
 20
329.0896534380868
 30
-0.5
 70
   192
  0
VERTEX
  5
99D5
  8
0
 10
-189.9999999999999
 20
329.0896534380868
 30
0.0
 70
   192
  0
VERTEX
  5
99D6
  8
0
 10
-329.0896534380867
 20
190.0000000000002
 30
0.0
 70
   192
  0
VERTEX
  5
99D7
  8
0
 10
-380.0000000000001
 20
0.0000000000000465
 30
-0.5
 70
   192
  0
VERTEX
  5
99D8
  8
0
 10
-380.0000000000001
 20
0.0000000000000465
 30
0.0
 70
   192
  0
VERTEX
  5
99D9
  8
0
 10
0.0000000000001055
 20
380.0000000000001
 30
-0.5
 70
   192
  0
VERTEX
  5
99DA
  8
0
 10
0.0000000000001055
 20
380.0000000000001
 30
0.0
 70
   192
  0
VERTEX
  5
99DB
  8
0
 10
380.0000000000001
 20
0.0
 30
-0.5
 70
   192
  0
VERTEX
  5
99DC
  8
0
 10
380.0000000000001
 20
0.0
 30
0.0
 70
   192
  0
VERTEX
  5
99DD
  8
0
 10
0.0
 20
0.0
 30
0.0
 70
   128
 71
     1
 72
     2
 73
    -3
  0
VERTEX
  5
99DE
  8
0
 10
0.0
 20
0.0
 30
0.0
 70
   128
 71
     4
 72
    -1
 73
     3
  0
VERTEX
  5
99DF
  8
0
 10
0.0
 20
0.0
 30
0.0
 70
   128
 71
     5
 72
     6
 73
    -7
  0
VERTEX
  5
99E0
  8
0
 10
0.0
 20
0.0
 30
0.0
 70
   128
 71
     8
 72
    -5
 73
     7
  0
VERTEX
  5
99E1
  8
0
 10
0.0
 20
0.0
 30
0.0
 70
   128
 71
     9
 72
     5
 73
    -8
  0
VERTEX
  5
99E2
  8
0
 10
0.0
 20
0.0
 30
0.0
 70
   128
 71
    10
 72
    -9
 73
     8
  0
VERTEX
  5
99E3
  8
0
 10
0.0
 20
0.0
 30
0.0
 70
   128
 71
     6
 72
    11
 73
   -12
  0
VERTEX
  5
99E4
  8
0
 10
0.0
 20
0.0
 30
0.0
 70
   128
 71
     7
 72
    -6
 73
    12
  0
VERTEX
  5
99E5
  8
0
 10
0.0
 20
0.0
 30
0.0
 70
   128
 71
    11
 72
     1
 73
    -4
  0
VERTEX
  5
99E6
  8
0
 10
0.0
 20
0.0
 30
0.0
 70
   128
 71
    12
 72
   -11
 73
     4
  0
VERTEX
  5
99E7
  8
0
 10
0.0
 20
0.0
 30
0.0
 70
   128
 71
     2
 72
    13
 73
   -14
  0
VERTEX
  5
99E8
  8
0
 10
0.0
 20
0.0
 30
0.0
 70
   128
 71
     3
 72
    -2
 73
    14
  0
SEQEND
  5
9AED
  8
0
  0
POLYLINE
  5
99E9
  8
0
 66
     1
 10
0.0
 20
0.0
 30
0.0
 70
    64
 71
    24
 72
    24
  0
VERTEX
  5
99EA
  8
0
 10
380.0000000000001
 20
0.0
 30
-0.5
 70
   192
  0
VERTEX
  5
99EB
  8
0
 10
329.0896534380868
 20
190.0
 30
-0.5
 70
   192
  0
VERTEX
  5
99EC
  8
0
 10
190.0000000000001
 20
329.0896534380867
 30
-0.5
 70
   192
  0
VERTEX
  5
99ED
  8
0
 10
0.0000000000001055
 20
380.0000000000001
 30
-0.5
 70
   192
  0
VERTEX
  5
99EE
  8
0
 10
-189.9999999999999
 20
329.0896534380868
 30
-0.5
 70
   192
  0
VERTEX
  5
99EF
  8
0
 10
-329.0896534380867
 20
190.0000000000002
 30
-0.5
 70
   192
  0
VERTEX
  5
99F0
  8
0
 10
-380.0000000000001
 20
0.0000000000002109
 30
-0.5
 70
   192
  0
VERTEX
  5
99F1
  8
0
 10
-329.0896534380868
 20
-190.0
 30
-0.5
 70
   192
  0
VERTEX
  5
99F2
  8
0
 10
-190.0000000000001
 20
-329.0896534380867
 30
-0.5
 70
   192
  0
VERTEX
  5
99F3
  8
0
 10
-0.0000000000001477
 20
-380.0000000000001
 30
-0.5
 70
   192
  0
VERTEX
  5
99F4
  8
0
 10
189.9999999999999
 20
-329.0896534380868
 30
-0.5
 70
   192
  0
VERTEX
  5
99F5
  8
0
 10
329.0896534380867
 20
-190.0000000000002
 30
-0.5
 70
   192
  0
VERTEX
  5
99F6
  8
0
 10
-360.0000000000001
 20
0.0000000000001998
 30
-0.5
 70
   192
  0
VERTEX
  5
99F7
  8
0
 10
-311.7691453623979
 20
180.0000000000002
 30
-0.5
 70
   192
  0
VERTEX
  5
99F8
  8
0
 10
-179.9999999999999
 20
311.769145362398
 30
-0.5
 70
   192
  0
VERTEX
  5
99F9
  8
0
 10
0.0000000000000999
 20
360.0000000000001
 30
-0.5
 70
   192
  0
VERTEX
  5
99FA
  8
0
 10
180.0000000000001
 20
311.7691453623979
 30
-0.5
 70
   192
  0
VERTEX
  5
99FB
  8
0
 10
311.769145362398
 20
180.0
 30
-0.5
 70
   192
  0
VERTEX
  5
99FC
  8
0
 10
360.0000000000001
 20
0.0
 30
-0.5
 70
   192
  0
VERTEX
  5
99FD
  8
0
 10
311.7691453623979
 20
-180.0000000000002
 30
-0.5
 70
   192
  0
VERTEX
  5
99FE
  8
0
 10
179.9999999999999
 20
-311.7691453623981
 30
-0.5
 70
   192
  0
VERTEX
  5
99FF
  8
0
 10
-0.0000000000001399
 20
-360.0000000000001
 30
-0.5
 70
   192
  0
VERTEX
  5
9A00
  8
0
 10
-180.0000000000001
 20
-311.7691453623979
 30
-0.5
 70
   192
  0
VERTEX
  5
9A01
  8
0
 10
-311.769145362398
 20
-180.0
 30
-0.5
 70
   192
  0
VERTEX
  5
9A02
  8
0
 10
0.0
 20
0.0
 30
0.0
 70
   128
 71
    -7
 72
    13
 73
   -14
  0
VERTEX
  5
9A03
  8
0
 10
0.0
 20
0.0
 30
0.0
 70
   128
 71
     6
 72
    -7
 73
   -14
  0
VERTEX
  5
9A04
  8
0
 10
0.0
 20
0.0
 30
0.0
 70
   128
 71
   -15
 72
     5
 73
    -6
  0
VERTEX
  5
9A05
  8
0
 10
0.0
 20
0.0
 30
0.0
 70
   128
 71
    14
 72
   -15
 73
    -6
  0
VERTEX
  5
9A06
  8
0
 10
0.0
 20
0.0
 30
0.0
 70
   128
 71
   -16
 72
     4
 73
    -5
  0
VERTEX
  5
9A07
  8
0
 10
0.0
 20
0.0
 30
0.0
 70
   128
 71
    15
 72
   -16
 73
    -5
  0
VERTEX
  5
9A08
  8
0
 10
0.0
 20
0.0
 30
0.0
 70
   128
 71
   -17
 72
     3
 73
    -4
  0
VERTEX
  5
9A09
  8
0
 10
0.0
 20
0.0
 30
0.0
 70
   128
 71
    16
 72
   -17
 73
    -4
  0
VERTEX
  5
9A0A
  8
0
 10
0.0
 20
0.0
 30
0.0
 70
   128
 71
   -18
 72
     2
 73
    -3
  0
VERTEX
  5
9A0B
  8
0
 10
0.0
 20
0.0
 30
0.0
 70
   128
 71
    17
 72
   -18
 73
    -3
  0
VERTEX
  5
9A0C
  8
0
 10
0.0
 20
0.0
 30
0.0
 70
   128
 71
   -19
 72
     1
 73
    -2
  0
VERTEX
  5
9A0D
  8
0
 10
0.0
 20
0.0
 30
0.0
 70
   128
 71
    18
 72
   -19
 73
    -2
  0
VERTEX
  5
9A0E
  8
0
 10
0.0
 20
0.0
 30
0.0
 70
   128
 71
   -20
 72
    12
 73
    -1
  0
VERTEX
  5
9A0F
  8
0
 10
0.0
 20
0.0
 30
0.0
 70
   128
 71
    19
 72
   -20
 73
    -1
  0
VERTEX
  5
9A10
  8
0
 10
0.0
 20
0.0
 30
0.0
 70
   128
 71
   -21
 72
    11
 73
   -12
  0
VERTEX
  5
9A11
  8
0
 10
0.0
 20
0.0
 30
0.0
 70
   128
 71
    20
 72
   -21
 73
   -12
  0
VERTEX
  5
9A12
  8
0
 10
0.0
 20
0.0
 30
0.0
 70
   128
 71
   -22
 72
    10
 73
   -11
  0
VERTEX
  5
9A13
  8
0
 10
0.0
 20
0.0
 30
0.0
 70
   128
 71
    21
 72
   -22
 73
   -11
  0
VERTEX
  5
9A14
  8
0
 10
0.0
 20
0.0
 30
0.0
 70
   128
 71
   -23
 72
     9
 73
   -10
  0
VERTEX
  5
9A15
  8
0
 10
0.0
 20
0.0
 30
0.0
 70
   128
 71
    22
 72
   -23
 73
   -10
  0
VERTEX
  5
9A16
  8
0
 10
0.0
 20
0.0
 30
0.0
 70
   128
 71
   -24
 72
     8
 73
    -9
  0
VERTEX
  5
9A17
  8
0
 10
0.0
 20
0.0
 30
0.0
 70
   128
 71
    23
 72
   -24
 73
    -9
  0
VERTEX
  5
9A18
  8
0
 10
0.0
 20
0.0
 30
0.0
 70
   128
 71
   -13
 72
     7
 73
    -8
  0
VERTEX
  5
9A19
  8
0
 10
0.0
 20
0.0
 30
0.0
 70
   128
 71
    24
 72
   -13
 73
    -8
  0
SEQEND
  5
9AEE
  8
0
  0
POLYLINE
  5
9A1A
  8
0
 66
     1
 10
0.0
 20
0.0
 30
0.0
 70
    64
 71
    12
 72
    10
  0
VERTEX
  5
9A1B
  8
0
 10
360.0000000000001
 20
0.0
 30
0.0
 70
   192
  0
VERTEX
  5
9A1C
  8
0
 10
311.769145362398
 20
180.0
 30
0.0
 70
   192
  0
VERTEX
  5
9A1D
  8
0
 10
180.0000000000001
 20
311.7691453623979
 30
0.0
 70
   192
  0
VERTEX
  5
9A1E
  8
0
 10
0.0000000000000999
 20
360.0000000000001
 30
0.0
 70
   192
  0
VERTEX
  5
9A1F
  8
0
 10
-179.9999999999999
 20
311.769145362398
 30
0.0
 70
   192
  0
VERTEX
  5
9A20
  8
0
 10
-311.7691453623979
 20
180.0000000000002
 30
0.0
 70
   192
  0
VERTEX
  5
9A21
  8
0
 10
-360.0000000000001
 20
0.0000000000001998
 30
0.0
 70
   192
  0
VERTEX
  5
9A22
  8
0
 10
-311.769145362398
 20
-180.0
 30
0.0
 70
   192
  0
VERTEX
  5
9A23
  8
0
 10
-180.0000000000001
 20
-311.7691453623979
 30
0.0
 70
   192
  0
VERTEX
  5
9A24
  8
0
 10
-0.0000000000001399
 20
-360.0000000000001
 30
0.0
 70
   192
  0
VERTEX
  5
9A25
  8
0
 10
179.9999999999999
 20
-311.7691453623981
 30
0.0
 70
   192
  0
VERTEX
  5
9A26
  8
0
 10
311.7691453623979
 20
-180.0000000000002
 30
0.0
 70
   192
  0
VERTEX
  5
9A27
  8
0
 10
0.0
 20
0.0
 30
0.0
 70
   128
 71
    11
 72
    12
 73
    -1
  0
VERTEX
  5
9A28
  8
0
 10
0.0
 20
0.0
 30
0.0
 70
   128
 71
    10
 72
   -11
 73
    -1
  0
VERTEX
  5
9A29
  8
0
 10
0.0
 20
0.0
 30
0.0
 70
   128
 71
     9
 72
   -10
 73
    -1
  0
VERTEX
  5
9A2A
  8
0
 10
0.0
 20
0.0
 30
0.0
 70
   128
 71
     8
 72
    -9
 73
    -1
  0
VERTEX
  5
9A2B
  8
0
 10
0.0
 20
0.0
 30
0.0
 70
   128
 71
     7
 72
    -8
 73
    -1
  0
VERTEX
  5
9A2C
  8
0
 10
0.0
 20
0.0
 30
0.0
 70
   128
 71
     6
 72
    -7
 73
    -1
  0
VERTEX
  5
9A2D
  8
0
 10
0.0
 20
0.0
 30
0.0
 70
   128
 71
     5
 72
    -6
 73
    -1
  0
VERTEX
  5
9A2E
  8
0
 10
0.0
 20
0.0
 30
0.0
 70
   128
 71
     4
 72
    -5
 73
    -1
  0
VERTEX
  5
9A2F
  8
0
 10
0.0
 20
0.0
 30
0.0
 70
   128
 71
     3
 72
    -4
 73
    -1
  0
VERTEX
  5
9A30
  8
0
 10
0.0
 20
0.0
 30
0.0
 70
   128
 71
     2
 72
    -3
 73
     1
  0
SEQEND
  5
9AEF
  8
0
  0
POLYLINE
  5
9A31
  8
0
 66
     1
 10
0.0
 20
0.0
 30
0.0
 70
    64
 71
    14
 72
    12
  0
VERTEX
  5
9A32
  8
0
 10
-307.4390183434756
 20
-177.5000000000002
 30
-2.0
 70
   192
  0
VERTEX
  5
9A33
  8
0
 10
-355.0
 20
-0.0000000000002562
 30
-2.0
 70
   192
  0
VERTEX
  5
9A34
  8
0
 10
-355.0
 20
0.0000000000000435
 30
-22.0
 70
   192
  0
VERTEX
  5
9A35
  8
0
 10
-307.4390183434756
 20
-177.5000000000002
 30
-22.0
 70
   192
  0
VERTEX
  5
9A36
  8
0
 10
-177.4999999999999
 20
-307.4390183434758
 30
-22.0
 70
   192
  0
VERTEX
  5
9A37
  8
0
 10
0.0000000000001379
 20
-355.0
 30
-22.0
 70
   192
  0
VERTEX
  5
9A38
  8
0
 10
0.0000000000001379
 20
-355.0
 30
-2.0
 70
   192
  0
VERTEX
  5
9A39
  8
0
 10
-177.4999999999999
 20
-307.4390183434758
 30
-2.0
 70
   192
  0
VERTEX
  5
9A3A
  8
0
 10
177.5000000000001
 20
-307.4390183434757
 30
-2.0
 70
   192
  0
VERTEX
  5
9A3B
  8
0
 10
177.5000000000001
 20
-307.4390183434757
 30
-22.0
 70
   192
  0
VERTEX
  5
9A3C
  8
0
 10
307.4390183434758
 20
-177.4999999999999
 30
-22.0
 70
   192
  0
VERTEX
  5
9A3D
  8
0
 10
355.0
 20
0.0000000000000435
 30
-22.0
 70
   192
  0
VERTEX
  5
9A3E
  8
0
 10
355.0
 20
0.0
 30
-2.0
 70
   192
  0
VERTEX
  5
9A3F
  8
0
 10
307.4390183434758
 20
-177.4999999999999
 30
-2.0
 70
   192
  0
VERTEX
  5
9A40
  8
0
 10
0.0
 20
0.0
 30
0.0
 70
   128
 71
     1
 72
     2
 73
    -3
  0
VERTEX
  5
9A41
  8
0
 10
0.0
 20
0.0
 30
0.0
 70
   128
 71
    -1
 72
     3
 73
     4
  0
VERTEX
  5
9A42
  8
0
 10
0.0
 20
0.0
 30
0.0
 70
   128
 71
     5
 72
     6
 73
    -7
  0
VERTEX
  5
9A43
  8
0
 10
0.0
 20
0.0
 30
0.0
 70
   128
 71
    -5
 72
     7
 73
     8
  0
VERTEX
  5
9A44
  8
0
 10
0.0
 20
0.0
 30
0.0
 70
   128
 71
     9
 72
     7
 73
    -6
  0
VERTEX
  5
9A45
  8
0
 10
0.0
 20
0.0
 30
0.0
 70
   128
 71
    -9
 72
     6
 73
    10
  0
VERTEX
  5
9A46
  8
0
 10
0.0
 20
0.0
 30
0.0
 70
   128
 71
    11
 72
    12
 73
   -13
  0
VERTEX
  5
9A47
  8
0
 10
0.0
 20
0.0
 30
0.0
 70
   128
 71
   -11
 72
    13
 73
    14
  0
VERTEX
  5
9A48
  8
0
 10
0.0
 20
0.0
 30
0.0
 70
   128
 71
     1
 72
     4
 73
    -5
  0
VERTEX
  5
9A49
  8
0
 10
0.0
 20
0.0
 30
0.0
 70
   128
 71
    -1
 72
     5
 73
     8
  0
VERTEX
  5
9A4A
  8
0
 10
0.0
 20
0.0
 30
0.0
 70
   128
 71
     9
 72
    10
 73
   -11
  0
VERTEX
  5
9A4B
  8
0
 10
0.0
 20
0.0
 30
0.0
 70
   128
 71
    -9
 72
    11
 73
    14
  0
SEQEND
  5
9AF0
  8
0
  0
POLYLINE
  5
9A4C
  8
0
 66
     1
 10
0.0
 20
0.0
 30
0.0
 70
    64
 71
    24
 72
    24
  0
VERTEX
  5
9A4D
  8
0
 10
355.0
 20
0.0000000000000435
 30
-22.0
 70
   192
  0
VERTEX
  5
9A4E
  8
0
 10
307.4390183434758
 20
-177.4999999999999
 30
-22.0
 70
   192
  0
VERTEX
  5
9A4F
  8
0
 10
177.5000000000001
 20
-307.4390183434757
 30
-22.0
 70
   192
  0
VERTEX
  5
9A50
  8
0
 10
0.0000000000001379
 20
-355.0
 30
-22.0
 70
   192
  0
VERTEX
  5
9A51
  8
0
 10
-177.4999999999999
 20
-307.4390183434758
 30
-22.0
 70
   192
  0
VERTEX
  5
9A52
  8
0
 10
-307.4390183434756
 20
-177.5000000000002
 30
-22.0
 70
   192
  0
VERTEX
  5
9A53
  8
0
 10
-355.0
 20
-0.0000000000002562
 30
-22.0
 70
   192
  0
VERTEX
  5
9A54
  8
0
 10
-307.4390183434757
 20
177.5
 30
-22.0
 70
   192
  0
VERTEX
  5
9A55
  8
0
 10
-177.5
 20
307.4390183434757
 30
-22.0
 70
   192
  0
VERTEX
  5
9A56
  8
0
 10
-0.0000000000000394
 20
355.0
 30
-22.0
 70
   192
  0
VERTEX
  5
9A57
  8
0
 10
177.4999999999999
 20
307.4390183434758
 30
-22.0
 70
   192
  0
VERTEX
  5
9A58
  8
0
 10
307.4390183434757
 20
177.5000000000001
 30
-22.0
 70
   192
  0
VERTEX
  5
9A59
  8
0
 10
-337.9999999999999
 20
-0.0000000000002439
 30
-22.0
 70
   192
  0
VERTEX
  5
9A5A
  8
0
 10
-292.7165864791401
 20
-169.0000000000002
 30
-22.0
 70
   192
  0
VERTEX
  5
9A5B
  8
0
 10
-168.9999999999998
 20
-292.7165864791403
 30
-22.0
 70
   192
  0
VERTEX
  5
9A5C
  8
0
 10
0.0000000000001313
 20
-337.9999999999999
 30
-22.0
 70
   192
  0
VERTEX
  5
9A5D
  8
0
 10
169.0000000000001
 20
-292.7165864791402
 30
-22.0
 70
   192
  0
VERTEX
  5
9A5E
  8
0
 10
292.7165864791403
 20
-168.9999999999999
 30
-22.0
 70
   192
  0
VERTEX
  5
9A5F
  8
0
 10
337.9999999999999
 20
0.0000000000000414
 30
-22.0
 70
   192
  0
VERTEX
  5
9A60
  8
0
 10
292.7165864791402
 20
169.0000000000001
 30
-22.0
 70
   192
  0
VERTEX
  5
9A61
  8
0
 10
168.9999999999999
 20
292.7165864791402
 30
-22.0
 70
   192
  0
VERTEX
  5
9A62
  8
0
 10
-0.0000000000000375
 20
337.9999999999999
 30
-22.0
 70
   192
  0
VERTEX
  5
9A63
  8
0
 10
-169.0
 20
292.7165864791402
 30
-22.0
 70
   192
  0
VERTEX
  5
9A64
  8
0
 10
-292.7165864791402
 20
169.0
 30
-22.0
 70
   192
  0
VERTEX
  5
9A65
  8
0
 10
0.0
 20
0.0
 30
0.0
 70
   128
 71
    -7
 72
    13
 73
   -14
  0
VERTEX
  5
9A66
  8
0
 10
0.0
 20
0.0
 30
0.0
 70
   128
 71
     6
 72
    -7
 73
   -14
  0
VERTEX
  5
9A67
  8
0
 10
0.0
 20
0.0
 30
0.0
 70
   128
 71
   -15
 72
     5
 73
    -6
  0
VERTEX
  5
9A68
  8
0
 10
0.0
 20
0.0
 30
0.0
 70
   128
 71
    14
 72
   -15
 73
    -6
  0
VERTEX
  5
9A69
  8
0
 10
0.0
 20
0.0
 30
0.0
 70
   128
 71
   -16
 72
     4
 73
    -5
  0
VERTEX
  5
9A6A
  8
0
 10
0.0
 20
0.0
 30
0.0
 70
   128
 71
    15
 72
   -16
 73
    -5
  0
VERTEX
  5
9A6B
  8
0
 10
0.0
 20
0.0
 30
0.0
 70
   128
 71
   -17
 72
     3
 73
    -4
  0
VERTEX
  5
9A6C
  8
0
 10
0.0
 20
0.0
 30
0.0
 70
   128
 71
    16
 72
   -17
 73
    -4
  0
VERTEX
  5
9A6D
  8
0
 10
0.0
 20
0.0
 30
0.0
 70
   128
 71
   -18
 72
     2
 73
    -3
  0
VERTEX
  5
9A6E
  8
0
 10
0.0
 20
0.0
 30
0.0
 70
   128
 71
    17
 72
   -18
 73
    -3
  0
VERTEX
  5
9A6F
  8
0
 10
0.0
 20
0.0
 30
0.0
 70
   128
 71
   -19
 72
     1
 73
    -2
  0
VERTEX
  5
9A70
  8
0
 10
0.0
 20
0.0
 30
0.0
 70
   128
 71
    18
 72
   -19
 73
    -2
  0
VERTEX
  5
9A71
  8
0
 10
0.0
 20
0.0
 30
0.0
 70
   128
 71
   -20
 72
    12
 73
    -1
  0
VERTEX
  5
9A72
  8
0
 10
0.0
 20
0.0
 30
0.0
 70
   128
 71
    19
 72
   -20
 73
    -1
  0
VERTEX
  5
9A73
  8
0
 10
0.0
 20
0.0
 30
0.0
 70
   128
 71
   -21
 72
    11
 73
   -12
  0
VERTEX
  5
9A74
  8
0
 10
0.0
 20
0.0
 30
0.0
 70
   128
 71
    20
 72
   -21
 73
   -12
  0
VERTEX
  5
9A75
  8
0
 10
0.0
 20
0.0
 30
0.0
 70
   128
 71
   -22
 72
    10
 73
   -11
  0
VERTEX
  5
9A76
  8
0
 10
0.0
 20
0.0
 30
0.0
 70
   128
 71
    21
 72
   -22
 73
   -11
  0
VERTEX
  5
9A77
  8
0
 10
0.0
 20
0.0
 30
0.0
 70
   128
 71
   -23
 72
     9
 73
   -10
  0
VERTEX
  5
9A78
  8
0
 10
0.0
 20
0.0
 30
0.0
 70
   128
 71
    22
 72
   -23
 73
   -10
  0
VERTEX
  5
9A79
  8
0
 10
0.0
 20
0.0
 30
0.0
 70
   128
 71
   -24
 72
     8
 73
    -9
  0
VERTEX
  5
9A7A
  8
0
 10
0.0
 20
0.0
 30
0.0
 70
   128
 71
    23
 72
   -24
 73
    -9
  0
VERTEX
  5
9A7B
  8
0
 10
0.0
 20
0.0
 30
0.0
 70
   128
 71
   -13
 72
     7
 73
    -8
  0
VERTEX
  5
9A7C
  8
0
 10
0.0
 20
0.0
 30
0.0
 70
   128
 71
    24
 72
   -13
 73
    -8
  0
SEQEND
  5
9AF1
  8
0
  0
POLYLINE
  5
9A7D
  8
0
 66
     1
 10
0.0
 20
0.0
 30
0.0
 70
    64
 71
    12
 72
    10
  0
VERTEX
  5
9A7E
  8
0
 10
-337.9999999999999
 20
0.0000000000000414
 30
-17.0
 70
   192
  0
VERTEX
  5
9A7F
  8
0
 10
-292.7165864791403
 20
-168.9999999999999
 30
-17.0
 70
   192
  0
VERTEX
  5
9A80
  8
0
 10
-169.0000000000001
 20
-292.7165864791402
 30
-17.0
 70
   192
  0
VERTEX
  5
9A81
  8
0
 10
-0.0000000000001313
 20
-337.9999999999999
 30
-17.0
 70
   192
  0
VERTEX
  5
9A82
  8
0
 10
168.9999999999998
 20
-292.7165864791403
 30
-17.0
 70
   192
  0
VERTEX
  5
9A83
  8
0
 10
292.7165864791401
 20
-169.0000000000002
 30
-17.0
 70
   192
  0
VERTEX
  5
9A84
  8
0
 10
337.9999999999999
 20
0.0
 30
-17.0
 70
   192
  0
VERTEX
  5
9A85
  8
0
 10
292.7165864791402
 20
168.9999999999999
 30
-17.0
 70
   192
  0
VERTEX
  5
9A86
  8
0
 10
169.0000000000001
 20
292.7165864791402
 30
-17.0
 70
   192
  0
VERTEX
  5
9A87
  8
0
 10
0.0000000000000938
 20
337.9999999999999
 30
-17.0
 70
   192
  0
VERTEX
  5
9A88
  8
0
 10
-168.9999999999999
 20
292.7165864791403
 30
-17.0
 70
   192
  0
VERTEX
  5
9A89
  8
0
 10
-292.7165864791402
 20
169.0000000000001
 30
-17.0
 70
   192
  0
VERTEX
  5
9A8A
  8
0
 10
0.0
 20
0.0
 30
0.0
 70
   128
 71
     1
 72
    12
 73
   -11
  0
VERTEX
  5
9A8B
  8
0
 10
0.0
 20
0.0
 30
0.0
 70
   128
 71
    -1
 72
    11
 73
   -10
  0
VERTEX
  5
9A8C
  8
0
 10
0.0
 20
0.0
 30
0.0
 70
   128
 71
    -1
 72
    10
 73
    -9
  0
VERTEX
  5
9A8D
  8
0
 10
0.0
 20
0.0
 30
0.0
 70
   128
 71
    -1
 72
     9
 73
    -8
  0
VERTEX
  5
9A8E
  8
0
 10
0.0
 20
0.0
 30
0.0
 70
   128
 71
    -1
 72
     8
 73
    -7
  0
VERTEX
  5
9A8F
  8
0
 10
0.0
 20
0.0
 30
0.0
 70
   128
 71
    -1
 72
     7
 73
    -6
  0
VERTEX
  5
9A90
  8
0
 10
0.0
 20
0.0
 30
0.0
 70
   128
 71
    -1
 72
     6
 73
    -5
  0
VERTEX
  5
9A91
  8
0
 10
0.0
 20
0.0
 30
0.0
 70
   128
 71
    -1
 72
     5
 73
    -4
  0
VERTEX
  5
9A92
  8
0
 10
0.0
 20
0.0
 30
0.0
 70
   128
 71
    -1
 72
     4
 73
    -3
  0
VERTEX
  5
9A93
  8
0
 10
0.0
 20
0.0
 30
0.0
 70
   128
 71
    -1
 72
     3
 73
     2
  0
SEQEND
  5
9AF2
  8
0
  0
POLYLINE
  5
9A94
  8
0
 66
     1
 10
0.0
 20
0.0
 30
0.0
 70
    64
 71
    14
 72
    12
  0
VERTEX
  5
9A95
  8
0
 10
337.9999999999999
 20
0.0000000000001126
 30
-22.0
 70
   192
  0
VERTEX
  5
9A96
  8
0
 10
337.9999999999999
 20
0.0
 30
-17.0
 70
   192
  0
VERTEX
  5
9A97
  8
0
 10
292.7165864791402
 20
168.9999999999999
 30
-17.0
 70
   192
  0
VERTEX
  5
9A98
  8
0
 10
292.7165864791402
 20
169.0000000000001
 30
-22.0
 70
   192
  0
VERTEX
  5
9A99
  8
0
 10
0.0000000000000938
 20
337.9999999999999
 30
-17.0
 70
   192
  0
VERTEX
  5
9A9A
  8
0
 10
-0.0000000000000375
 20
337.9999999999999
 30
-22.0
 70
   192
  0
VERTEX
  5
9A9B
  8
0
 10
168.9999999999999
 20
292.7165864791402
 30
-22.0
 70
   192
  0
VERTEX
  5
9A9C
  8
0
 10
169.0000000000001
 20
292.7165864791402
 30
-17.0
 70
   192
  0
VERTEX
  5
9A9D
  8
0
 10
-168.9999999999999
 20
292.7165864791403
 30
-17.0
 70
   192
  0
VERTEX
  5
9A9E
  8
0
 10
-169.0
 20
292.7165864791402
 30
-22.0
 70
   192
  0
VERTEX
  5
9A9F
  8
0
 10
-337.9999999999999
 20
0.0000000000000414
 30
-17.0
 70
   192
  0
VERTEX
  5
9AA0
  8
0
 10
-337.9999999999999
 20
0.0000000000000414
 30
-22.0
 70
   192
  0
VERTEX
  5
9AA1
  8
0
 10
-292.7165864791402
 20
169.0
 30
-22.0
 70
   192
  0
VERTEX
  5
9AA2
  8
0
 10
-292.7165864791402
 20
169.0000000000001
 30
-17.0
 70
   192
  0
VERTEX
  5
9AA3
  8
0
 10
0.0
 20
0.0
 30
0.0
 70
   128
 71
     1
 72
     2
 73
    -3
  0
VERTEX
  5
9AA4
  8
0
 10
0.0
 20
0.0
 30
0.0
 70
   128
 71
     4
 72
    -1
 73
     3
  0
VERTEX
  5
9AA5
  8
0
 10
0.0
 20
0.0
 30
0.0
 70
   128
 71
     5
 72
     6
 73
    -7
  0
VERTEX
  5
9AA6
  8
0
 10
0.0
 20
0.0
 30
0.0
 70
   128
 71
     8
 72
    -5
 73
     7
  0
VERTEX
  5
9AA7
  8
0
 10
0.0
 20
0.0
 30
0.0
 70
   128
 71
     6
 72
     5
 73
    -9
  0
VERTEX
  5
9AA8
  8
0
 10
0.0
 20
0.0
 30
0.0
 70
   128
 71
    10
 72
    -6
 73
     9
  0
VERTEX
  5
9AA9
  8
0
 10
0.0
 20
0.0
 30
0.0
 70
   128
 71
    11
 72
    12
 73
   -13
  0
VERTEX
  5
9AAA
  8
0
 10
0.0
 20
0.0
 30
0.0
 70
   128
 71
    14
 72
   -11
 73
    13
  0
VERTEX
  5
9AAB
  8
0
 10
0.0
 20
0.0
 30
0.0
 70
   128
 71
     7
 72
     4
 73
    -3
  0
VERTEX
  5
9AAC
  8
0
 10
0.0
 20
0.0
 30
0.0
 70
   128
 71
     8
 72
    -7
 73
     3
  0
VERTEX
  5
9AAD
  8
0
 10
0.0
 20
0.0
 30
0.0
 70
   128
 71
    13
 72
    10
 73
    -9
  0
VERTEX
  5
9AAE
  8
0
 10
0.0
 20
0.0
 30
0.0
 70
   128
 71
    14
 72
   -13
 73
     9
  0
SEQEND
  5
9AF3
  8
0
  0
ENDBLK
  5
9AE3
  8
0
  0
ENDSEC
  0
SECTION
  2
ENTITIES
  0
INSERT
  5
923D
  8
0
  2
*X1
 10
0.0
 20
0.0
 30
0.0
  0
INSERT
  5
923E
  8
0
  2
*X2
 10
0.0
 20
0.0
 30
0.0
  0
INSERT
  5
923F
  8
0
  2
*X3
 10
0.0
 20
0.0
 30
0.0
  0
INSERT
  5
9240
  8
0
  2
*X4
 10
0.0
 20
0.0
 30
0.0
  0
ENDSEC
  0
EOF
