  0
SECTION
  2
HEADER
  9
$ACADVER
  1
AC1009
  9
$DWGCODEPAGE
  3
ansi_1250
  9
$INSBASE
 10
0.0
 20
0.0
 30
0.0
  9
$EXTMIN
 10
-500.0
 20
-500.0000000000003
 30
-25.00000000000011
  9
$EXTMAX
 10
500.0
 20
500.0000000000003
 30
0.0000000000001137
  9
$LIMMIN
 10
0.0
 20
0.0
  9
$LIMMAX
 10
420.0
 20
297.0
  9
$ORTHOMODE
 70
     0
  9
$REGENMODE
 70
     1
  9
$FILLMODE
 70
     1
  9
$QTEXTMODE
 70
     0
  9
$MIRRTEXT
 70
     0
  9
$DRAGMODE
 70
     2
  9
$LTSCALE
 40
1.0
  9
$OSMODE
 70
   511
  9
$ATTMODE
 70
     1
  9
$TEXTSIZE
 40
2.5
  9
$TRACEWID
 40
1.0
  9
$TEXTSTYLE
  7
STANDARD
  9
$CLAYER
  8
0
  9
$CELTYPE
  6
BYLAYER
  9
$CECOLOR
 62
   256
  9
$DIMSCALE
 40
1.0
  9
$DIMASZ
 40
2.5
  9
$DIMEXO
 40
0.625
  9
$DIMDLI
 40
3.75
  9
$DIMRND
 40
0.0
  9
$DIMDLE
 40
0.0
  9
$DIMEXE
 40
1.25
  9
$DIMTP
 40
0.0
  9
$DIMTM
 40
0.0
  9
$DIMTXT
 40
2.5
  9
$DIMCEN
 40
-2.5
  9
$DIMTSZ
 40
0.0
  9
$DIMTOL
 70
     0
  9
$DIMLIM
 70
     0
  9
$DIMTIH
 70
     0
  9
$DIMTOH
 70
     0
  9
$DIMSE1
 70
     0
  9
$DIMSE2
 70
     0
  9
$DIMTAD
 70
     1
  9
$DIMZIN
 70
     8
  9
$DIMBLK
  1

  9
$DIMASO
 70
     1
  9
$DIMSHO
 70
     1
  9
$DIMPOST
  1

  9
$DIMAPOST
  1

  9
$DIMALT
 70
     0
  9
$DIMALTD
 70
     3
  9
$DIMALTF
 40
0.03937007874016
  9
$DIMLFAC
 40
1.0
  9
$DIMTOFL
 70
     1
  9
$DIMTVP
 40
0.0
  9
$DIMTIX
 70
     0
  9
$DIMSOXD
 70
     0
  9
$DIMSAH
 70
     0
  9
$DIMBLK1
  1

  9
$DIMBLK2
  1

  9
$DIMSTYLE
  2
ISO-25
  9
$DIMCLRD
 70
     0
  9
$DIMCLRE
 70
     0
  9
$DIMCLRT
 70
     0
  9
$DIMTFAC
 40
1.0
  9
$DIMGAP
 40
0.625
  9
$LUNITS
 70
     2
  9
$LUPREC
 70
     3
  9
$SKETCHINC
 40
1.0
  9
$FILLETRAD
 40
10.0
  9
$AUNITS
 70
     0
  9
$AUPREC
 70
     0
  9
$MENU
  1
.
  9
$ELEVATION
 40
0.0
  9
$PELEVATION
 40
0.0
  9
$THICKNESS
 40
0.0
  9
$LIMCHECK
 70
     0
  9
$CHAMFERA
 40
10.0
  9
$CHAMFERB
 40
10.0
  9
$SKPOLY
 70
     0
  9
$TDCREATE
 40
2455022.720692848
  9
$TDUPDATE
 40
2460521.493286748
  9
$TDINDWG
 40
0.1640052546
  9
$TDUSRTIMER
 40
0.1640052546
  9
$USRTIMER
 70
     1
  9
$ANGBASE
 50
0.0
  9
$ANGDIR
 70
     0
  9
$PDMODE
 70
     0
  9
$PDSIZE
 40
0.0
  9
$PLINEWID
 40
0.0
  9
$COORDS
 70
     1
  9
$SPLFRAME
 70
     0
  9
$SPLINETYPE
 70
     6
  9
$SPLINESEGS
 70
     8
  9
$ATTDIA
 70
     0
  9
$ATTREQ
 70
     1
  9
$HANDLING
 70
     1
  9
$HANDSEED
  5
1AC7
  9
$SURFTAB1
 70
     6
  9
$SURFTAB2
 70
     6
  9
$SURFTYPE
 70
     6
  9
$SURFU
 70
     6
  9
$SURFV
 70
     6
  9
$UCSNAME
  2

  9
$UCSORG
 10
0.0
 20
0.0
 30
0.0
  9
$UCSXDIR
 10
1.0
 20
0.0
 30
0.0
  9
$UCSYDIR
 10
0.0
 20
1.0
 30
0.0
  9
$PUCSNAME
  2

  9
$PUCSORG
 10
0.0
 20
0.0
 30
0.0
  9
$PUCSXDIR
 10
1.0
 20
0.0
 30
0.0
  9
$PUCSYDIR
 10
0.0
 20
1.0
 30
0.0
  9
$USERI1
 70
     0
  9
$USERI2
 70
     0
  9
$USERI3
 70
     0
  9
$USERI4
 70
     0
  9
$USERI5
 70
     0
  9
$USERR1
 40
0.0
  9
$USERR2
 40
0.0
  9
$USERR3
 40
0.0
  9
$USERR4
 40
0.0
  9
$USERR5
 40
0.0
  9
$WORLDVIEW
 70
     1
  9
$SHADEDGE
 70
     3
  9
$SHADEDIF
 70
    70
  9
$TILEMODE
 70
     1
  9
$MAXACTVP
 70
    64
  9
$PLIMCHECK
 70
     0
  9
$PEXTMIN
 10
1.000000000000000E+20
 20
1.000000000000000E+20
 30
1.000000000000000E+20
  9
$PEXTMAX
 10
-1.000000000000000E+20
 20
-1.000000000000000E+20
 30
-1.000000000000000E+20
  9
$PLIMMIN
 10
0.0
 20
0.0
  9
$PLIMMAX
 10
0.0
 20
0.0
  9
$UNITMODE
 70
     0
  9
$VISRETAIN
 70
     1
  9
$PLINEGEN
 70
     0
  9
$PSLTSCALE
 70
     1
  0
ENDSEC
  0
SECTION
  2
TABLES
  0
TABLE
  2
VPORT
 70
     1
  0
VPORT
  2
*ACTIVE
 70
     0
 10
0.0
 20
0.0
 11
1.0
 21
1.0
 12
-116.6110757937285
 22
90.81470093901663
 13
0.0
 23
0.0
 14
10.0
 24
10.0
 15
10.0
 25
10.0
 16
0.5773502691896262
 26
0.5773502691896262
 36
0.5773502691896262
 17
-41.66599977993164
 27
123.2469651304761
 37
-82.93435654674934
 40
770.3645241053097
 41
1.88293897882939
 42
50.0
 43
0.0
 44
0.0
 50
0.0
 51
0.0
 71
    16
 72
  1000
 73
     1
 74
     3
 75
     0
 76
     0
 77
     0
 78
     0
  0
ENDTAB
  0
TABLE
  2
LTYPE
 70
     1
  0
LTYPE
  2
CONTINUOUS
 70
     0
  3
Solid line
 72
    65
 73
     0
 40
0.0
  0
ENDTAB
  0
TABLE
  2
LAYER
 70
     1
  0
LAYER
  2
0
 70
     0
 62
     7
  6
CONTINUOUS
  0
ENDTAB
  0
TABLE
  2
STYLE
 70
     2
  0
STYLE
  2
STANDARD
 70
     0
 40
0.0
 41
1.0
 50
0.0
 71
     0
 42
2.5
  3
arial.ttf
  4

  0
STYLE
  2
ANNOTATIVE
 70
     0
 40
0.0
 41
1.0
 50
0.0
 71
     0
 42
2.5
  3
arial.ttf
  4

  0
ENDTAB
  0
TABLE
  2
VIEW
 70
     0
  0
ENDTAB
  0
TABLE
  2
UCS
 70
     0
  0
ENDTAB
  0
TABLE
  2
APPID
 70
     2
  0
APPID
  2
ACAD
 70
     0
  0
APPID
  2
ACADANNOTATIVE
 70
     0
  0
ENDTAB
  0
TABLE
  2
DIMSTYLE
 70
     2
  0
DIMSTYLE
  2
ISO-25
 70
     0
  3

  4

  5

  6

  7

 40
1.0
 41
2.5
 42
0.625
 43
3.75
 44
1.25
 45
0.0
 46
0.0
 47
0.0
 48
0.0
140
2.5
141
-2.5
142
0.0
143
0.03937007874016
144
1.0
145
0.0
146
1.0
147
0.625
 71
     0
 72
     0
 73
     0
 74
     0
 75
     0
 76
     0
 77
     1
 78
     8
170
     0
171
     3
172
     1
173
     0
174
     0
175
     0
176
     0
177
     0
178
     0
  0
DIMSTYLE
  2
ANNOTATIVE
 70
     0
  3

  4

  5

  6

  7

 40
0.0
 41
2.5
 42
0.625
 43
3.75
 44
1.25
 45
0.0
 46
0.0
 47
0.0
 48
0.0
140
2.5
141
-2.5
142
0.0
143
0.03937007874016
144
1.0
145
0.0
146
1.0
147
0.625
 71
     0
 72
     0
 73
     0
 74
     0
 75
     0
 76
     0
 77
     1
 78
     8
170
     0
171
     3
172
     1
173
     0
174
     0
175
     0
176
     0
177
     0
178
     0
  0
ENDTAB
  0
ENDSEC
  0
SECTION
  2
BLOCKS
  0
BLOCK
  8
0
  2
$MODEL_SPACE
 70
     0
 10
0.0
 20
0.0
 30
0.0
  3
$MODEL_SPACE
  1

  0
ENDBLK
  5
21
  8
0
  0
BLOCK
 67
     1
  8
0
  2
$PAPER_SPACE
 70
     0
 10
0.0
 20
0.0
 30
0.0
  3
$PAPER_SPACE
  1

  0
ENDBLK
  5
1D
 67
     1
  8
0
  0
BLOCK
  8
0
  2
*X1
 70
     1
 10
0.0
 20
0.0
 30
0.0
  3
*X1
  1

  0
POLYLINE
  5
1833
  8
0
 66
     1
 10
0.0
 20
0.0
 30
0.0
 70
    64
 71
    14
 72
    12
  0
VERTEX
  5
1834
  8
0
 10
-245.0000000000002
 20
-424.3524478543749
 30
-25.0
 70
   192
  0
VERTEX
  5
1835
  8
0
 10
-424.352447854375
 20
-244.9999999999999
 30
-25.0
 70
   192
  0
VERTEX
  5
1836
  8
0
 10
-424.352447854375
 20
-244.9999999999999
 30
-10.5
 70
   192
  0
VERTEX
  5
1837
  8
0
 10
-245.0000000000002
 20
-424.3524478543749
 30
-10.5
 70
   192
  0
VERTEX
  5
1838
  8
0
 10
424.3524478543748
 20
-245.0000000000003
 30
-25.0
 70
   192
  0
VERTEX
  5
1839
  8
0
 10
244.9999999999998
 20
-424.3524478543751
 30
-25.0
 70
   192
  0
VERTEX
  5
183A
  8
0
 10
244.9999999999998
 20
-424.3524478543751
 30
-10.5
 70
   192
  0
VERTEX
  5
183B
  8
0
 10
424.3524478543748
 20
-245.0000000000003
 30
-10.5
 70
   192
  0
VERTEX
  5
183C
  8
0
 10
490.0
 20
-0.0000000000003536
 30
-25.0
 70
   192
  0
VERTEX
  5
183D
  8
0
 10
490.0
 20
-0.0000000000003536
 30
-10.5
 70
   192
  0
VERTEX
  5
183E
  8
0
 10
-0.0000000000001904
 20
-490.0
 30
-25.0
 70
   192
  0
VERTEX
  5
183F
  8
0
 10
-0.0000000000001904
 20
-490.0
 30
-10.5
 70
   192
  0
VERTEX
  5
1840
  8
0
 10
-490.0
 20
0.00000000000006
 30
-25.0
 70
   192
  0
VERTEX
  5
1841
  8
0
 10
-490.0
 20
0.00000000000006
 30
-10.5
 70
   192
  0
VERTEX
  5
1842
  8
0
 10
0.0
 20
0.0
 30
0.0
 70
   128
 71
     1
 72
     2
 73
    -3
  0
VERTEX
  5
1843
  8
0
 10
0.0
 20
0.0
 30
0.0
 70
   128
 71
     4
 72
    -1
 73
     3
  0
VERTEX
  5
1844
  8
0
 10
0.0
 20
0.0
 30
0.0
 70
   128
 71
     5
 72
     6
 73
    -7
  0
VERTEX
  5
1845
  8
0
 10
0.0
 20
0.0
 30
0.0
 70
   128
 71
     8
 72
    -5
 73
     7
  0
VERTEX
  5
1846
  8
0
 10
0.0
 20
0.0
 30
0.0
 70
   128
 71
     9
 72
     5
 73
    -8
  0
VERTEX
  5
1847
  8
0
 10
0.0
 20
0.0
 30
0.0
 70
   128
 71
    10
 72
    -9
 73
     8
  0
VERTEX
  5
1848
  8
0
 10
0.0
 20
0.0
 30
0.0
 70
   128
 71
     6
 72
    11
 73
   -12
  0
VERTEX
  5
1849
  8
0
 10
0.0
 20
0.0
 30
0.0
 70
   128
 71
     7
 72
    -6
 73
    12
  0
VERTEX
  5
184A
  8
0
 10
0.0
 20
0.0
 30
0.0
 70
   128
 71
    11
 72
     1
 73
    -4
  0
VERTEX
  5
184B
  8
0
 10
0.0
 20
0.0
 30
0.0
 70
   128
 71
    12
 72
   -11
 73
     4
  0
VERTEX
  5
184C
  8
0
 10
0.0
 20
0.0
 30
0.0
 70
   128
 71
     2
 72
    13
 73
   -14
  0
VERTEX
  5
184D
  8
0
 10
0.0
 20
0.0
 30
0.0
 70
   128
 71
     3
 72
    -2
 73
    14
  0
SEQEND
  5
1A99
  8
0
  0
POLYLINE
  5
184E
  8
0
 66
     1
 10
0.0
 20
0.0
 30
0.0
 70
    64
 71
    14
 72
    12
  0
VERTEX
  5
184F
  8
0
 10
-245.0000000000002
 20
-424.3524478543749
 30
-0.5
 70
   192
  0
VERTEX
  5
1850
  8
0
 10
-424.352447854375
 20
-244.9999999999999
 30
-0.5
 70
   192
  0
VERTEX
  5
1851
  8
0
 10
-424.352447854375
 20
-244.9999999999999
 30
0.0
 70
   192
  0
VERTEX
  5
1852
  8
0
 10
-245.0000000000002
 20
-424.3524478543749
 30
0.0
 70
   192
  0
VERTEX
  5
1853
  8
0
 10
424.3524478543748
 20
-245.0000000000003
 30
-0.5
 70
   192
  0
VERTEX
  5
1854
  8
0
 10
244.9999999999998
 20
-424.3524478543751
 30
-0.5
 70
   192
  0
VERTEX
  5
1855
  8
0
 10
244.9999999999998
 20
-424.3524478543751
 30
0.0
 70
   192
  0
VERTEX
  5
1856
  8
0
 10
424.3524478543748
 20
-245.0000000000003
 30
0.0
 70
   192
  0
VERTEX
  5
1857
  8
0
 10
490.0
 20
-0.0000000000003536
 30
-0.5
 70
   192
  0
VERTEX
  5
1858
  8
0
 10
490.0
 20
-0.0000000000003536
 30
0.0
 70
   192
  0
VERTEX
  5
1859
  8
0
 10
-0.0000000000001904
 20
-490.0
 30
-0.5
 70
   192
  0
VERTEX
  5
185A
  8
0
 10
-0.0000000000001904
 20
-490.0
 30
0.0
 70
   192
  0
VERTEX
  5
185B
  8
0
 10
-490.0
 20
0.00000000000006
 30
-0.5
 70
   192
  0
VERTEX
  5
185C
  8
0
 10
-490.0
 20
0.00000000000006
 30
0.0
 70
   192
  0
VERTEX
  5
185D
  8
0
 10
0.0
 20
0.0
 30
0.0
 70
   128
 71
     1
 72
     2
 73
    -3
  0
VERTEX
  5
185E
  8
0
 10
0.0
 20
0.0
 30
0.0
 70
   128
 71
     4
 72
    -1
 73
     3
  0
VERTEX
  5
185F
  8
0
 10
0.0
 20
0.0
 30
0.0
 70
   128
 71
     5
 72
     6
 73
    -7
  0
VERTEX
  5
1860
  8
0
 10
0.0
 20
0.0
 30
0.0
 70
   128
 71
     8
 72
    -5
 73
     7
  0
VERTEX
  5
1861
  8
0
 10
0.0
 20
0.0
 30
0.0
 70
   128
 71
     9
 72
     5
 73
    -8
  0
VERTEX
  5
1862
  8
0
 10
0.0
 20
0.0
 30
0.0
 70
   128
 71
    10
 72
    -9
 73
     8
  0
VERTEX
  5
1863
  8
0
 10
0.0
 20
0.0
 30
0.0
 70
   128
 71
     6
 72
    11
 73
   -12
  0
VERTEX
  5
1864
  8
0
 10
0.0
 20
0.0
 30
0.0
 70
   128
 71
     7
 72
    -6
 73
    12
  0
VERTEX
  5
1865
  8
0
 10
0.0
 20
0.0
 30
0.0
 70
   128
 71
    11
 72
     1
 73
    -4
  0
VERTEX
  5
1866
  8
0
 10
0.0
 20
0.0
 30
0.0
 70
   128
 71
    12
 72
   -11
 73
     4
  0
VERTEX
  5
1867
  8
0
 10
0.0
 20
0.0
 30
0.0
 70
   128
 71
     2
 72
    13
 73
   -14
  0
VERTEX
  5
1868
  8
0
 10
0.0
 20
0.0
 30
0.0
 70
   128
 71
     3
 72
    -2
 73
    14
  0
SEQEND
  5
1A9A
  8
0
  0
POLYLINE
  5
1869
  8
0
 66
     1
 10
0.0
 20
0.0
 30
0.0
 70
    64
 71
    14
 72
    12
  0
VERTEX
  5
186A
  8
0
 10
433.0127018922194
 20
250.0
 30
0.0
 70
   192
  0
VERTEX
  5
186B
  8
0
 10
433.0127018922194
 20
250.0
 30
-25.0
 70
   192
  0
VERTEX
  5
186C
  8
0
 10
250.0000000000001
 20
433.0127018922193
 30
-25.0
 70
   192
  0
VERTEX
  5
186D
  8
0
 10
250.0000000000001
 20
433.0127018922193
 30
0.0
 70
   192
  0
VERTEX
  5
186E
  8
0
 10
-249.9999999999999
 20
433.0127018922194
 30
0.0
 70
   192
  0
VERTEX
  5
186F
  8
0
 10
-249.9999999999999
 20
433.0127018922194
 30
-25.0
 70
   192
  0
VERTEX
  5
1870
  8
0
 10
-433.0127018922192
 20
250.0000000000002
 30
-25.0
 70
   192
  0
VERTEX
  5
1871
  8
0
 10
-433.0127018922192
 20
250.0000000000002
 30
0.0
 70
   192
  0
VERTEX
  5
1872
  8
0
 10
-500.0
 20
0.0000000000002776
 30
-25.0
 70
   192
  0
VERTEX
  5
1873
  8
0
 10
-500.0
 20
0.0000000000000612
 30
0.0
 70
   192
  0
VERTEX
  5
1874
  8
0
 10
0.0000000000001388
 20
500.0
 30
0.0
 70
   192
  0
VERTEX
  5
1875
  8
0
 10
0.0000000000001388
 20
500.0
 30
-25.0
 70
   192
  0
VERTEX
  5
1876
  8
0
 10
500.0
 20
0.0
 30
0.0
 70
   192
  0
VERTEX
  5
1877
  8
0
 10
500.0
 20
0.0
 30
-25.0
 70
   192
  0
VERTEX
  5
1878
  8
0
 10
0.0
 20
0.0
 30
0.0
 70
   128
 71
     1
 72
     2
 73
    -3
  0
VERTEX
  5
1879
  8
0
 10
0.0
 20
0.0
 30
0.0
 70
   128
 71
    -1
 72
     3
 73
     4
  0
VERTEX
  5
187A
  8
0
 10
0.0
 20
0.0
 30
0.0
 70
   128
 71
     5
 72
     6
 73
    -7
  0
VERTEX
  5
187B
  8
0
 10
0.0
 20
0.0
 30
0.0
 70
   128
 71
    -5
 72
     7
 73
     8
  0
VERTEX
  5
187C
  8
0
 10
0.0
 20
0.0
 30
0.0
 70
   128
 71
     8
 72
     7
 73
    -9
  0
VERTEX
  5
187D
  8
0
 10
0.0
 20
0.0
 30
0.0
 70
   128
 71
    -8
 72
     9
 73
    10
  0
VERTEX
  5
187E
  8
0
 10
0.0
 20
0.0
 30
0.0
 70
   128
 71
    11
 72
    12
 73
    -6
  0
VERTEX
  5
187F
  8
0
 10
0.0
 20
0.0
 30
0.0
 70
   128
 71
   -11
 72
     6
 73
     5
  0
VERTEX
  5
1880
  8
0
 10
0.0
 20
0.0
 30
0.0
 70
   128
 71
     4
 72
     3
 73
   -12
  0
VERTEX
  5
1881
  8
0
 10
0.0
 20
0.0
 30
0.0
 70
   128
 71
    -4
 72
    12
 73
    11
  0
VERTEX
  5
1882
  8
0
 10
0.0
 20
0.0
 30
0.0
 70
   128
 71
    13
 72
    14
 73
    -2
  0
VERTEX
  5
1883
  8
0
 10
0.0
 20
0.0
 30
0.0
 70
   128
 71
   -13
 72
     2
 73
     1
  0
SEQEND
  5
1A9B
  8
0
  0
POLYLINE
  5
1884
  8
0
 66
     1
 10
0.0
 20
0.0
 30
0.0
 70
    64
 71
    14
 72
    12
  0
VERTEX
  5
1885
  8
0
 10
-433.0127018922194
 20
-249.9999999999999
 30
0.0
 70
   192
  0
VERTEX
  5
1886
  8
0
 10
-433.0127018922194
 20
-249.9999999999999
 30
-25.0
 70
   192
  0
VERTEX
  5
1887
  8
0
 10
-250.0000000000002
 20
-433.0127018922193
 30
-25.0
 70
   192
  0
VERTEX
  5
1888
  8
0
 10
-250.0000000000002
 20
-433.0127018922193
 30
0.0
 70
   192
  0
VERTEX
  5
1889
  8
0
 10
249.9999999999998
 20
-433.0127018922195
 30
0.0
 70
   192
  0
VERTEX
  5
188A
  8
0
 10
249.9999999999998
 20
-433.0127018922195
 30
-25.0
 70
   192
  0
VERTEX
  5
188B
  8
0
 10
433.0127018922192
 20
-250.0000000000003
 30
-25.0
 70
   192
  0
VERTEX
  5
188C
  8
0
 10
433.0127018922192
 20
-250.0000000000003
 30
0.0
 70
   192
  0
VERTEX
  5
188D
  8
0
 10
500.0
 20
-0.0000000000003608
 30
-25.0
 70
   192
  0
VERTEX
  5
188E
  8
0
 10
500.0
 20
0.0
 30
0.0
 70
   192
  0
VERTEX
  5
188F
  8
0
 10
-0.0000000000001943
 20
-500.0
 30
0.0
 70
   192
  0
VERTEX
  5
1890
  8
0
 10
-0.0000000000001943
 20
-500.0
 30
-25.0
 70
   192
  0
VERTEX
  5
1891
  8
0
 10
-500.0
 20
0.0000000000000612
 30
0.0
 70
   192
  0
VERTEX
  5
1892
  8
0
 10
-500.0
 20
0.0000000000000612
 30
-25.0
 70
   192
  0
VERTEX
  5
1893
  8
0
 10
0.0
 20
0.0
 30
0.0
 70
   128
 71
     1
 72
     2
 73
    -3
  0
VERTEX
  5
1894
  8
0
 10
0.0
 20
0.0
 30
0.0
 70
   128
 71
    -1
 72
     3
 73
     4
  0
VERTEX
  5
1895
  8
0
 10
0.0
 20
0.0
 30
0.0
 70
   128
 71
     5
 72
     6
 73
    -7
  0
VERTEX
  5
1896
  8
0
 10
0.0
 20
0.0
 30
0.0
 70
   128
 71
    -5
 72
     7
 73
     8
  0
VERTEX
  5
1897
  8
0
 10
0.0
 20
0.0
 30
0.0
 70
   128
 71
     8
 72
     7
 73
    -9
  0
VERTEX
  5
1898
  8
0
 10
0.0
 20
0.0
 30
0.0
 70
   128
 71
    -8
 72
     9
 73
    10
  0
VERTEX
  5
1899
  8
0
 10
0.0
 20
0.0
 30
0.0
 70
   128
 71
    11
 72
    12
 73
    -6
  0
VERTEX
  5
189A
  8
0
 10
0.0
 20
0.0
 30
0.0
 70
   128
 71
   -11
 72
     6
 73
     5
  0
VERTEX
  5
189B
  8
0
 10
0.0
 20
0.0
 30
0.0
 70
   128
 71
     4
 72
     3
 73
   -12
  0
VERTEX
  5
189C
  8
0
 10
0.0
 20
0.0
 30
0.0
 70
   128
 71
    -4
 72
    12
 73
    11
  0
VERTEX
  5
189D
  8
0
 10
0.0
 20
0.0
 30
0.0
 70
   128
 71
    13
 72
    14
 73
    -2
  0
VERTEX
  5
189E
  8
0
 10
0.0
 20
0.0
 30
0.0
 70
   128
 71
   -13
 72
     2
 73
     1
  0
SEQEND
  5
1A9C
  8
0
  0
POLYLINE
  5
189F
  8
0
 66
     1
 10
0.0
 20
0.0
 30
0.0
 70
    64
 71
    24
 72
    24
  0
VERTEX
  5
18A0
  8
0
 10
-500.0
 20
0.0000000000000612
 30
-25.0
 70
   192
  0
VERTEX
  5
18A1
  8
0
 10
-433.0127018922194
 20
-249.9999999999999
 30
-25.0
 70
   192
  0
VERTEX
  5
18A2
  8
0
 10
-250.0000000000002
 20
-433.0127018922193
 30
-25.0
 70
   192
  0
VERTEX
  5
18A3
  8
0
 10
-0.0000000000001943
 20
-500.0
 30
-25.0
 70
   192
  0
VERTEX
  5
18A4
  8
0
 10
249.9999999999998
 20
-433.0127018922195
 30
-25.0
 70
   192
  0
VERTEX
  5
18A5
  8
0
 10
433.0127018922192
 20
-250.0000000000003
 30
-25.0
 70
   192
  0
VERTEX
  5
18A6
  8
0
 10
500.0
 20
0.0
 30
-25.0
 70
   192
  0
VERTEX
  5
18A7
  8
0
 10
433.0127018922194
 20
250.0
 30
-25.0
 70
   192
  0
VERTEX
  5
18A8
  8
0
 10
250.0000000000001
 20
433.0127018922193
 30
-25.0
 70
   192
  0
VERTEX
  5
18A9
  8
0
 10
0.0000000000001388
 20
500.0
 30
-25.0
 70
   192
  0
VERTEX
  5
18AA
  8
0
 10
-249.9999999999999
 20
433.0127018922194
 30
-25.0
 70
   192
  0
VERTEX
  5
18AB
  8
0
 10
-433.0127018922192
 20
250.0000000000002
 30
-25.0
 70
   192
  0
VERTEX
  5
18AC
  8
0
 10
490.0
 20
-0.0000000000003536
 30
-25.0
 70
   192
  0
VERTEX
  5
18AD
  8
0
 10
424.3524478543748
 20
-245.0000000000003
 30
-25.0
 70
   192
  0
VERTEX
  5
18AE
  8
0
 10
244.9999999999998
 20
-424.3524478543751
 30
-25.0
 70
   192
  0
VERTEX
  5
18AF
  8
0
 10
-0.0000000000001904
 20
-490.0
 30
-25.0
 70
   192
  0
VERTEX
  5
18B0
  8
0
 10
-245.0000000000002
 20
-424.3524478543749
 30
-25.0
 70
   192
  0
VERTEX
  5
18B1
  8
0
 10
-424.352447854375
 20
-244.9999999999999
 30
-25.0
 70
   192
  0
VERTEX
  5
18B2
  8
0
 10
-490.0
 20
0.000000000000272
 30
-25.0
 70
   192
  0
VERTEX
  5
18B3
  8
0
 10
-424.3524478543749
 20
245.0000000000002
 30
-25.0
 70
   192
  0
VERTEX
  5
18B4
  8
0
 10
-244.9999999999999
 20
424.352447854375
 30
-25.0
 70
   192
  0
VERTEX
  5
18B5
  8
0
 10
0.000000000000136
 20
490.0
 30
-25.0
 70
   192
  0
VERTEX
  5
18B6
  8
0
 10
245.0000000000001
 20
424.3524478543749
 30
-25.0
 70
   192
  0
VERTEX
  5
18B7
  8
0
 10
424.352447854375
 20
245.0
 30
-25.0
 70
   192
  0
VERTEX
  5
18B8
  8
0
 10
0.0
 20
0.0
 30
0.0
 70
   128
 71
    14
 72
   -13
 73
    -7
  0
VERTEX
  5
18B9
  8
0
 10
0.0
 20
0.0
 30
0.0
 70
   128
 71
   -14
 72
     7
 73
    -6
  0
VERTEX
  5
18BA
  8
0
 10
0.0
 20
0.0
 30
0.0
 70
   128
 71
     6
 72
    -5
 73
   -15
  0
VERTEX
  5
18BB
  8
0
 10
0.0
 20
0.0
 30
0.0
 70
   128
 71
    -6
 72
    15
 73
   -14
  0
VERTEX
  5
18BC
  8
0
 10
0.0
 20
0.0
 30
0.0
 70
   128
 71
     5
 72
    -4
 73
   -16
  0
VERTEX
  5
18BD
  8
0
 10
0.0
 20
0.0
 30
0.0
 70
   128
 71
    -5
 72
    16
 73
   -15
  0
VERTEX
  5
18BE
  8
0
 10
0.0
 20
0.0
 30
0.0
 70
   128
 71
     4
 72
    -3
 73
   -17
  0
VERTEX
  5
18BF
  8
0
 10
0.0
 20
0.0
 30
0.0
 70
   128
 71
    -4
 72
    17
 73
   -16
  0
VERTEX
  5
18C0
  8
0
 10
0.0
 20
0.0
 30
0.0
 70
   128
 71
     3
 72
    -2
 73
   -18
  0
VERTEX
  5
18C1
  8
0
 10
0.0
 20
0.0
 30
0.0
 70
   128
 71
    -3
 72
    18
 73
   -17
  0
VERTEX
  5
18C2
  8
0
 10
0.0
 20
0.0
 30
0.0
 70
   128
 71
     2
 72
    -1
 73
   -19
  0
VERTEX
  5
18C3
  8
0
 10
0.0
 20
0.0
 30
0.0
 70
   128
 71
    -2
 72
    19
 73
   -18
  0
VERTEX
  5
18C4
  8
0
 10
0.0
 20
0.0
 30
0.0
 70
   128
 71
     1
 72
   -12
 73
   -20
  0
VERTEX
  5
18C5
  8
0
 10
0.0
 20
0.0
 30
0.0
 70
   128
 71
    -1
 72
    20
 73
   -19
  0
VERTEX
  5
18C6
  8
0
 10
0.0
 20
0.0
 30
0.0
 70
   128
 71
    12
 72
   -11
 73
   -21
  0
VERTEX
  5
18C7
  8
0
 10
0.0
 20
0.0
 30
0.0
 70
   128
 71
   -12
 72
    21
 73
   -20
  0
VERTEX
  5
18C8
  8
0
 10
0.0
 20
0.0
 30
0.0
 70
   128
 71
    11
 72
   -10
 73
   -22
  0
VERTEX
  5
18C9
  8
0
 10
0.0
 20
0.0
 30
0.0
 70
   128
 71
   -11
 72
    22
 73
   -21
  0
VERTEX
  5
18CA
  8
0
 10
0.0
 20
0.0
 30
0.0
 70
   128
 71
    10
 72
    -9
 73
   -23
  0
VERTEX
  5
18CB
  8
0
 10
0.0
 20
0.0
 30
0.0
 70
   128
 71
   -10
 72
    23
 73
   -22
  0
VERTEX
  5
18CC
  8
0
 10
0.0
 20
0.0
 30
0.0
 70
   128
 71
     9
 72
    -8
 73
   -24
  0
VERTEX
  5
18CD
  8
0
 10
0.0
 20
0.0
 30
0.0
 70
   128
 71
    -9
 72
    24
 73
   -23
  0
VERTEX
  5
18CE
  8
0
 10
0.0
 20
0.0
 30
0.0
 70
   128
 71
     8
 72
    -7
 73
   -13
  0
VERTEX
  5
18CF
  8
0
 10
0.0
 20
0.0
 30
0.0
 70
   128
 71
    -8
 72
    13
 73
   -24
  0
SEQEND
  5
1A9D
  8
0
  0
POLYLINE
  5
18D0
  8
0
 66
     1
 10
0.0
 20
0.0
 30
0.0
 70
    64
 71
    24
 72
    24
  0
VERTEX
  5
18D1
  8
0
 10
500.0
 20
0.0
 30
0.0
 70
   192
  0
VERTEX
  5
18D2
  8
0
 10
433.0127018922194
 20
250.0
 30
0.0
 70
   192
  0
VERTEX
  5
18D3
  8
0
 10
250.0000000000001
 20
433.0127018922193
 30
0.0
 70
   192
  0
VERTEX
  5
18D4
  8
0
 10
0.0000000000001388
 20
500.0
 30
0.0
 70
   192
  0
VERTEX
  5
18D5
  8
0
 10
-249.9999999999999
 20
433.0127018922194
 30
0.0
 70
   192
  0
VERTEX
  5
18D6
  8
0
 10
-433.0127018922192
 20
250.0000000000002
 30
0.0
 70
   192
  0
VERTEX
  5
18D7
  8
0
 10
-500.0
 20
0.0000000000002776
 30
0.0
 70
   192
  0
VERTEX
  5
18D8
  8
0
 10
-433.0127018922194
 20
-249.9999999999999
 30
0.0
 70
   192
  0
VERTEX
  5
18D9
  8
0
 10
-250.0000000000002
 20
-433.0127018922193
 30
0.0
 70
   192
  0
VERTEX
  5
18DA
  8
0
 10
-0.0000000000001943
 20
-500.0
 30
0.0
 70
   192
  0
VERTEX
  5
18DB
  8
0
 10
249.9999999999998
 20
-433.0127018922195
 30
0.0
 70
   192
  0
VERTEX
  5
18DC
  8
0
 10
433.0127018922192
 20
-250.0000000000003
 30
0.0
 70
   192
  0
VERTEX
  5
18DD
  8
0
 10
-490.0
 20
0.000000000000272
 30
0.0
 70
   192
  0
VERTEX
  5
18DE
  8
0
 10
-424.3524478543749
 20
245.0000000000002
 30
0.0
 70
   192
  0
VERTEX
  5
18DF
  8
0
 10
-244.9999999999999
 20
424.352447854375
 30
0.0
 70
   192
  0
VERTEX
  5
18E0
  8
0
 10
0.000000000000136
 20
490.0
 30
0.0
 70
   192
  0
VERTEX
  5
18E1
  8
0
 10
245.0000000000001
 20
424.3524478543749
 30
0.0
 70
   192
  0
VERTEX
  5
18E2
  8
0
 10
424.352447854375
 20
245.0
 30
0.0
 70
   192
  0
VERTEX
  5
18E3
  8
0
 10
490.0
 20
0.0
 30
0.0
 70
   192
  0
VERTEX
  5
18E4
  8
0
 10
424.3524478543748
 20
-245.0000000000003
 30
0.0
 70
   192
  0
VERTEX
  5
18E5
  8
0
 10
244.9999999999998
 20
-424.3524478543751
 30
0.0
 70
   192
  0
VERTEX
  5
18E6
  8
0
 10
-0.0000000000001904
 20
-490.0
 30
0.0
 70
   192
  0
VERTEX
  5
18E7
  8
0
 10
-245.0000000000002
 20
-424.3524478543749
 30
0.0
 70
   192
  0
VERTEX
  5
18E8
  8
0
 10
-424.352447854375
 20
-244.9999999999999
 30
0.0
 70
   192
  0
VERTEX
  5
18E9
  8
0
 10
0.0
 20
0.0
 30
0.0
 70
   128
 71
    -7
 72
    13
 73
   -14
  0
VERTEX
  5
18EA
  8
0
 10
0.0
 20
0.0
 30
0.0
 70
   128
 71
     6
 72
    -7
 73
   -14
  0
VERTEX
  5
18EB
  8
0
 10
0.0
 20
0.0
 30
0.0
 70
   128
 71
   -15
 72
     5
 73
    -6
  0
VERTEX
  5
18EC
  8
0
 10
0.0
 20
0.0
 30
0.0
 70
   128
 71
    14
 72
   -15
 73
    -6
  0
VERTEX
  5
18ED
  8
0
 10
0.0
 20
0.0
 30
0.0
 70
   128
 71
   -16
 72
     4
 73
    -5
  0
VERTEX
  5
18EE
  8
0
 10
0.0
 20
0.0
 30
0.0
 70
   128
 71
    15
 72
   -16
 73
    -5
  0
VERTEX
  5
18EF
  8
0
 10
0.0
 20
0.0
 30
0.0
 70
   128
 71
   -17
 72
     3
 73
    -4
  0
VERTEX
  5
18F0
  8
0
 10
0.0
 20
0.0
 30
0.0
 70
   128
 71
    16
 72
   -17
 73
    -4
  0
VERTEX
  5
18F1
  8
0
 10
0.0
 20
0.0
 30
0.0
 70
   128
 71
   -18
 72
     2
 73
    -3
  0
VERTEX
  5
18F2
  8
0
 10
0.0
 20
0.0
 30
0.0
 70
   128
 71
    17
 72
   -18
 73
    -3
  0
VERTEX
  5
18F3
  8
0
 10
0.0
 20
0.0
 30
0.0
 70
   128
 71
   -19
 72
     1
 73
    -2
  0
VERTEX
  5
18F4
  8
0
 10
0.0
 20
0.0
 30
0.0
 70
   128
 71
    18
 72
   -19
 73
    -2
  0
VERTEX
  5
18F5
  8
0
 10
0.0
 20
0.0
 30
0.0
 70
   128
 71
   -20
 72
    12
 73
    -1
  0
VERTEX
  5
18F6
  8
0
 10
0.0
 20
0.0
 30
0.0
 70
   128
 71
    19
 72
   -20
 73
    -1
  0
VERTEX
  5
18F7
  8
0
 10
0.0
 20
0.0
 30
0.0
 70
   128
 71
   -21
 72
    11
 73
   -12
  0
VERTEX
  5
18F8
  8
0
 10
0.0
 20
0.0
 30
0.0
 70
   128
 71
    20
 72
   -21
 73
   -12
  0
VERTEX
  5
18F9
  8
0
 10
0.0
 20
0.0
 30
0.0
 70
   128
 71
   -22
 72
    10
 73
   -11
  0
VERTEX
  5
18FA
  8
0
 10
0.0
 20
0.0
 30
0.0
 70
   128
 71
    21
 72
   -22
 73
   -11
  0
VERTEX
  5
18FB
  8
0
 10
0.0
 20
0.0
 30
0.0
 70
   128
 71
   -23
 72
     9
 73
   -10
  0
VERTEX
  5
18FC
  8
0
 10
0.0
 20
0.0
 30
0.0
 70
   128
 71
    22
 72
   -23
 73
   -10
  0
VERTEX
  5
18FD
  8
0
 10
0.0
 20
0.0
 30
0.0
 70
   128
 71
   -24
 72
     8
 73
    -9
  0
VERTEX
  5
18FE
  8
0
 10
0.0
 20
0.0
 30
0.0
 70
   128
 71
    23
 72
   -24
 73
    -9
  0
VERTEX
  5
18FF
  8
0
 10
0.0
 20
0.0
 30
0.0
 70
   128
 71
   -13
 72
     7
 73
    -8
  0
VERTEX
  5
1900
  8
0
 10
0.0
 20
0.0
 30
0.0
 70
   128
 71
    24
 72
   -13
 73
    -8
  0
SEQEND
  5
1A9E
  8
0
  0
POLYLINE
  5
1901
  8
0
 66
     1
 10
0.0
 20
0.0
 30
0.0
 70
    64
 71
    14
 72
    12
  0
VERTEX
  5
1902
  8
0
 10
245.0000000000001
 20
424.3524478543749
 30
-0.5
 70
   192
  0
VERTEX
  5
1903
  8
0
 10
424.352447854375
 20
245.0
 30
-0.5
 70
   192
  0
VERTEX
  5
1904
  8
0
 10
424.352447854375
 20
245.0
 30
0.0
 70
   192
  0
VERTEX
  5
1905
  8
0
 10
245.0000000000001
 20
424.3524478543749
 30
0.0
 70
   192
  0
VERTEX
  5
1906
  8
0
 10
-424.3524478543749
 20
245.0000000000002
 30
-0.5
 70
   192
  0
VERTEX
  5
1907
  8
0
 10
-244.9999999999999
 20
424.352447854375
 30
-0.5
 70
   192
  0
VERTEX
  5
1908
  8
0
 10
-244.9999999999999
 20
424.352447854375
 30
0.0
 70
   192
  0
VERTEX
  5
1909
  8
0
 10
-424.3524478543749
 20
245.0000000000002
 30
0.0
 70
   192
  0
VERTEX
  5
190A
  8
0
 10
-490.0
 20
0.00000000000006
 30
-0.5
 70
   192
  0
VERTEX
  5
190B
  8
0
 10
-490.0
 20
0.00000000000006
 30
0.0
 70
   192
  0
VERTEX
  5
190C
  8
0
 10
0.000000000000136
 20
490.0
 30
-0.5
 70
   192
  0
VERTEX
  5
190D
  8
0
 10
0.000000000000136
 20
490.0
 30
0.0
 70
   192
  0
VERTEX
  5
190E
  8
0
 10
490.0
 20
0.0
 30
-0.5
 70
   192
  0
VERTEX
  5
190F
  8
0
 10
490.0
 20
0.0
 30
0.0
 70
   192
  0
VERTEX
  5
1910
  8
0
 10
0.0
 20
0.0
 30
0.0
 70
   128
 71
     1
 72
     2
 73
    -3
  0
VERTEX
  5
1911
  8
0
 10
0.0
 20
0.0
 30
0.0
 70
   128
 71
     4
 72
    -1
 73
     3
  0
VERTEX
  5
1912
  8
0
 10
0.0
 20
0.0
 30
0.0
 70
   128
 71
     5
 72
     6
 73
    -7
  0
VERTEX
  5
1913
  8
0
 10
0.0
 20
0.0
 30
0.0
 70
   128
 71
     8
 72
    -5
 73
     7
  0
VERTEX
  5
1914
  8
0
 10
0.0
 20
0.0
 30
0.0
 70
   128
 71
     9
 72
     5
 73
    -8
  0
VERTEX
  5
1915
  8
0
 10
0.0
 20
0.0
 30
0.0
 70
   128
 71
    10
 72
    -9
 73
     8
  0
VERTEX
  5
1916
  8
0
 10
0.0
 20
0.0
 30
0.0
 70
   128
 71
     6
 72
    11
 73
   -12
  0
VERTEX
  5
1917
  8
0
 10
0.0
 20
0.0
 30
0.0
 70
   128
 71
     7
 72
    -6
 73
    12
  0
VERTEX
  5
1918
  8
0
 10
0.0
 20
0.0
 30
0.0
 70
   128
 71
    11
 72
     1
 73
    -4
  0
VERTEX
  5
1919
  8
0
 10
0.0
 20
0.0
 30
0.0
 70
   128
 71
    12
 72
   -11
 73
     4
  0
VERTEX
  5
191A
  8
0
 10
0.0
 20
0.0
 30
0.0
 70
   128
 71
     2
 72
    13
 73
   -14
  0
VERTEX
  5
191B
  8
0
 10
0.0
 20
0.0
 30
0.0
 70
   128
 71
     3
 72
    -2
 73
    14
  0
SEQEND
  5
1A9F
  8
0
  0
POLYLINE
  5
191C
  8
0
 66
     1
 10
0.0
 20
0.0
 30
0.0
 70
    64
 71
    12
 72
    10
  0
VERTEX
  5
191D
  8
0
 10
490.0
 20
0.0
 30
-0.5
 70
   192
  0
VERTEX
  5
191E
  8
0
 10
424.352447854375
 20
245.0
 30
-0.5
 70
   192
  0
VERTEX
  5
191F
  8
0
 10
245.0000000000001
 20
424.3524478543749
 30
-0.5
 70
   192
  0
VERTEX
  5
1920
  8
0
 10
0.000000000000136
 20
490.0
 30
-0.5
 70
   192
  0
VERTEX
  5
1921
  8
0
 10
-244.9999999999999
 20
424.352447854375
 30
-0.5
 70
   192
  0
VERTEX
  5
1922
  8
0
 10
-424.3524478543749
 20
245.0000000000002
 30
-0.5
 70
   192
  0
VERTEX
  5
1923
  8
0
 10
-490.0
 20
0.000000000000272
 30
-0.5
 70
   192
  0
VERTEX
  5
1924
  8
0
 10
-424.352447854375
 20
-244.9999999999999
 30
-0.5
 70
   192
  0
VERTEX
  5
1925
  8
0
 10
-245.0000000000002
 20
-424.3524478543749
 30
-0.5
 70
   192
  0
VERTEX
  5
1926
  8
0
 10
-0.0000000000001904
 20
-490.0
 30
-0.5
 70
   192
  0
VERTEX
  5
1927
  8
0
 10
244.9999999999998
 20
-424.3524478543751
 30
-0.5
 70
   192
  0
VERTEX
  5
1928
  8
0
 10
424.3524478543748
 20
-245.0000000000003
 30
-0.5
 70
   192
  0
VERTEX
  5
1929
  8
0
 10
0.0
 20
0.0
 30
0.0
 70
   128
 71
    11
 72
    12
 73
    -1
  0
VERTEX
  5
192A
  8
0
 10
0.0
 20
0.0
 30
0.0
 70
   128
 71
    10
 72
   -11
 73
    -1
  0
VERTEX
  5
192B
  8
0
 10
0.0
 20
0.0
 30
0.0
 70
   128
 71
     9
 72
   -10
 73
    -1
  0
VERTEX
  5
192C
  8
0
 10
0.0
 20
0.0
 30
0.0
 70
   128
 71
     8
 72
    -9
 73
    -1
  0
VERTEX
  5
192D
  8
0
 10
0.0
 20
0.0
 30
0.0
 70
   128
 71
     7
 72
    -8
 73
    -1
  0
VERTEX
  5
192E
  8
0
 10
0.0
 20
0.0
 30
0.0
 70
   128
 71
     6
 72
    -7
 73
    -1
  0
VERTEX
  5
192F
  8
0
 10
0.0
 20
0.0
 30
0.0
 70
   128
 71
     5
 72
    -6
 73
    -1
  0
VERTEX
  5
1930
  8
0
 10
0.0
 20
0.0
 30
0.0
 70
   128
 71
     4
 72
    -5
 73
    -1
  0
VERTEX
  5
1931
  8
0
 10
0.0
 20
0.0
 30
0.0
 70
   128
 71
     3
 72
    -4
 73
    -1
  0
VERTEX
  5
1932
  8
0
 10
0.0
 20
0.0
 30
0.0
 70
   128
 71
     2
 72
    -3
 73
     1
  0
SEQEND
  5
1AA0
  8
0
  0
POLYLINE
  5
1933
  8
0
 66
     1
 10
0.0
 20
0.0
 30
0.0
 70
    64
 71
    12
 72
    10
  0
VERTEX
  5
1934
  8
0
 10
-490.0
 20
0.00000000000006
 30
-10.5
 70
   192
  0
VERTEX
  5
1935
  8
0
 10
-424.352447854375
 20
-244.9999999999999
 30
-10.5
 70
   192
  0
VERTEX
  5
1936
  8
0
 10
-245.0000000000002
 20
-424.3524478543749
 30
-10.5
 70
   192
  0
VERTEX
  5
1937
  8
0
 10
-0.0000000000001904
 20
-490.0
 30
-10.5
 70
   192
  0
VERTEX
  5
1938
  8
0
 10
244.9999999999998
 20
-424.3524478543751
 30
-10.5
 70
   192
  0
VERTEX
  5
1939
  8
0
 10
424.3524478543748
 20
-245.0000000000003
 30
-10.5
 70
   192
  0
VERTEX
  5
193A
  8
0
 10
490.0
 20
0.0
 30
-10.5
 70
   192
  0
VERTEX
  5
193B
  8
0
 10
424.352447854375
 20
245.0
 30
-10.5
 70
   192
  0
VERTEX
  5
193C
  8
0
 10
245.0000000000001
 20
424.3524478543749
 30
-10.5
 70
   192
  0
VERTEX
  5
193D
  8
0
 10
0.000000000000136
 20
490.0
 30
-10.5
 70
   192
  0
VERTEX
  5
193E
  8
0
 10
-244.9999999999999
 20
424.352447854375
 30
-10.5
 70
   192
  0
VERTEX
  5
193F
  8
0
 10
-424.3524478543749
 20
245.0000000000002
 30
-10.5
 70
   192
  0
VERTEX
  5
1940
  8
0
 10
0.0
 20
0.0
 30
0.0
 70
   128
 71
     1
 72
    12
 73
   -11
  0
VERTEX
  5
1941
  8
0
 10
0.0
 20
0.0
 30
0.0
 70
   128
 71
    -1
 72
    11
 73
   -10
  0
VERTEX
  5
1942
  8
0
 10
0.0
 20
0.0
 30
0.0
 70
   128
 71
    -1
 72
    10
 73
    -9
  0
VERTEX
  5
1943
  8
0
 10
0.0
 20
0.0
 30
0.0
 70
   128
 71
    -1
 72
     9
 73
    -8
  0
VERTEX
  5
1944
  8
0
 10
0.0
 20
0.0
 30
0.0
 70
   128
 71
    -1
 72
     8
 73
    -7
  0
VERTEX
  5
1945
  8
0
 10
0.0
 20
0.0
 30
0.0
 70
   128
 71
    -1
 72
     7
 73
    -6
  0
VERTEX
  5
1946
  8
0
 10
0.0
 20
0.0
 30
0.0
 70
   128
 71
    -1
 72
     6
 73
    -5
  0
VERTEX
  5
1947
  8
0
 10
0.0
 20
0.0
 30
0.0
 70
   128
 71
    -1
 72
     5
 73
    -4
  0
VERTEX
  5
1948
  8
0
 10
0.0
 20
0.0
 30
0.0
 70
   128
 71
    -1
 72
     4
 73
    -3
  0
VERTEX
  5
1949
  8
0
 10
0.0
 20
0.0
 30
0.0
 70
   128
 71
    -1
 72
     3
 73
     2
  0
SEQEND
  5
1AA1
  8
0
  0
POLYLINE
  5
194A
  8
0
 66
     1
 10
0.0
 20
0.0
 30
0.0
 70
    64
 71
    14
 72
    12
  0
VERTEX
  5
194B
  8
0
 10
245.0000000000001
 20
424.3524478543749
 30
-25.0
 70
   192
  0
VERTEX
  5
194C
  8
0
 10
424.352447854375
 20
245.0
 30
-25.0
 70
   192
  0
VERTEX
  5
194D
  8
0
 10
424.352447854375
 20
245.0
 30
-10.5
 70
   192
  0
VERTEX
  5
194E
  8
0
 10
245.0000000000001
 20
424.3524478543749
 30
-10.5
 70
   192
  0
VERTEX
  5
194F
  8
0
 10
-424.3524478543749
 20
245.0000000000002
 30
-25.0
 70
   192
  0
VERTEX
  5
1950
  8
0
 10
-244.9999999999999
 20
424.352447854375
 30
-25.0
 70
   192
  0
VERTEX
  5
1951
  8
0
 10
-244.9999999999999
 20
424.352447854375
 30
-10.5
 70
   192
  0
VERTEX
  5
1952
  8
0
 10
-424.3524478543749
 20
245.0000000000002
 30
-10.5
 70
   192
  0
VERTEX
  5
1953
  8
0
 10
-490.0
 20
0.00000000000006
 30
-25.0
 70
   192
  0
VERTEX
  5
1954
  8
0
 10
-490.0
 20
0.00000000000006
 30
-10.5
 70
   192
  0
VERTEX
  5
1955
  8
0
 10
0.000000000000136
 20
490.0
 30
-25.0
 70
   192
  0
VERTEX
  5
1956
  8
0
 10
0.000000000000136
 20
490.0
 30
-10.5
 70
   192
  0
VERTEX
  5
1957
  8
0
 10
490.0
 20
0.0
 30
-25.0
 70
   192
  0
VERTEX
  5
1958
  8
0
 10
490.0
 20
0.0
 30
-10.5
 70
   192
  0
VERTEX
  5
1959
  8
0
 10
0.0
 20
0.0
 30
0.0
 70
   128
 71
     1
 72
     2
 73
    -3
  0
VERTEX
  5
195A
  8
0
 10
0.0
 20
0.0
 30
0.0
 70
   128
 71
     4
 72
    -1
 73
     3
  0
VERTEX
  5
195B
  8
0
 10
0.0
 20
0.0
 30
0.0
 70
   128
 71
     5
 72
     6
 73
    -7
  0
VERTEX
  5
195C
  8
0
 10
0.0
 20
0.0
 30
0.0
 70
   128
 71
     8
 72
    -5
 73
     7
  0
VERTEX
  5
195D
  8
0
 10
0.0
 20
0.0
 30
0.0
 70
   128
 71
     9
 72
     5
 73
    -8
  0
VERTEX
  5
195E
  8
0
 10
0.0
 20
0.0
 30
0.0
 70
   128
 71
    10
 72
    -9
 73
     8
  0
VERTEX
  5
195F
  8
0
 10
0.0
 20
0.0
 30
0.0
 70
   128
 71
     6
 72
    11
 73
   -12
  0
VERTEX
  5
1960
  8
0
 10
0.0
 20
0.0
 30
0.0
 70
   128
 71
     7
 72
    -6
 73
    12
  0
VERTEX
  5
1961
  8
0
 10
0.0
 20
0.0
 30
0.0
 70
   128
 71
    11
 72
     1
 73
    -4
  0
VERTEX
  5
1962
  8
0
 10
0.0
 20
0.0
 30
0.0
 70
   128
 71
    12
 72
   -11
 73
     4
  0
VERTEX
  5
1963
  8
0
 10
0.0
 20
0.0
 30
0.0
 70
   128
 71
     2
 72
    13
 73
   -14
  0
VERTEX
  5
1964
  8
0
 10
0.0
 20
0.0
 30
0.0
 70
   128
 71
     3
 72
    -2
 73
    14
  0
SEQEND
  5
1AA2
  8
0
  0
ENDBLK
  5
1A98
  8
0
  0
BLOCK
  8
0
  2
*X2
 70
     1
 10
0.0
 20
0.0
 30
0.0
  3
*X2
  1

  0
POLYLINE
  5
1966
  8
0
 66
     1
 10
0.0
 20
0.0
 30
0.0
 70
    64
 71
     6
 72
     4
  0
VERTEX
  5
1967
  8
0
 10
-252.9999999999999
 20
260.0
 30
-20.5
 70
   192
  0
VERTEX
  5
1968
  8
0
 10
-287.0
 20
260.0
 30
-20.5
 70
   192
  0
VERTEX
  5
1969
  8
0
 10
-287.0
 20
260.0
 30
-13.5
 70
   192
  0
VERTEX
  5
196A
  8
0
 10
-289.9999999999999
 20
260.0
 30
-13.5
 70
   192
  0
VERTEX
  5
196B
  8
0
 10
-289.9999999999999
 20
260.0
 30
-23.5
 70
   192
  0
VERTEX
  5
196C
  8
0
 10
-252.9999999999999
 20
260.0
 30
-23.5
 70
   192
  0
VERTEX
  5
196D
  8
0
 10
0.0
 20
0.0
 30
0.0
 70
   128
 71
     6
 72
     1
 73
    -2
  0
VERTEX
  5
196E
  8
0
 10
0.0
 20
0.0
 30
0.0
 70
   128
 71
     5
 72
    -6
 73
    -2
  0
VERTEX
  5
196F
  8
0
 10
0.0
 20
0.0
 30
0.0
 70
   128
 71
     3
 72
     4
 73
    -5
  0
VERTEX
  5
1970
  8
0
 10
0.0
 20
0.0
 30
0.0
 70
   128
 71
     2
 72
    -3
 73
    -5
  0
SEQEND
  5
1AA5
  8
0
  0
POLYLINE
  5
1971
  8
0
 66
     1
 10
0.0
 20
0.0
 30
0.0
 70
    64
 71
     6
 72
     4
  0
VERTEX
  5
1972
  8
0
 10
-289.9999999999999
 20
225.0
 30
-10.5
 70
   192
  0
VERTEX
  5
1973
  8
0
 10
-290.0
 20
285.0000000000001
 30
-10.5
 70
   192
  0
VERTEX
  5
1974
  8
0
 10
-290.0
 20
285.0000000000001
 30
-23.5
 70
   192
  0
VERTEX
  5
1975
  8
0
 10
-289.9999999999999
 20
260.0
 30
-23.5
 70
   192
  0
VERTEX
  5
1976
  8
0
 10
-289.9999999999999
 20
260.0
 30
-13.5
 70
   192
  0
VERTEX
  5
1977
  8
0
 10
-289.9999999999999
 20
225.0
 30
-13.5
 70
   192
  0
VERTEX
  5
1978
  8
0
 10
0.0
 20
0.0
 30
0.0
 70
   128
 71
     3
 72
     4
 73
    -5
  0
VERTEX
  5
1979
  8
0
 10
0.0
 20
0.0
 30
0.0
 70
   128
 71
     2
 72
    -3
 73
    -5
  0
VERTEX
  5
197A
  8
0
 10
0.0
 20
0.0
 30
0.0
 70
   128
 71
     6
 72
     1
 73
    -2
  0
VERTEX
  5
197B
  8
0
 10
0.0
 20
0.0
 30
0.0
 70
   128
 71
     5
 72
    -6
 73
    -2
  0
SEQEND
  5
1AA6
  8
0
  0
POLYLINE
  5
197C
  8
0
 66
     1
 10
0.0
 20
0.0
 30
0.0
 70
    64
 71
     4
 72
     2
  0
VERTEX
  5
197D
  8
0
 10
-290.0
 20
285.0000000000001
 30
-10.5
 70
   192
  0
VERTEX
  5
197E
  8
0
 10
-290.0
 20
285.0000000000001
 30
-23.5
 70
   192
  0
VERTEX
  5
197F
  8
0
 10
-210.0
 20
285.0000000000001
 30
-23.5
 70
   192
  0
VERTEX
  5
1980
  8
0
 10
-210.0
 20
285.0000000000001
 30
-10.5
 70
   192
  0
VERTEX
  5
1981
  8
0
 10
0.0
 20
0.0
 30
0.0
 70
   128
 71
     1
 72
     4
 73
    -3
  0
VERTEX
  5
1982
  8
0
 10
0.0
 20
0.0
 30
0.0
 70
   128
 71
    -1
 72
     3
 73
     2
  0
SEQEND
  5
1AA7
  8
0
  0
POLYLINE
  5
1983
  8
0
 66
     1
 10
0.0
 20
0.0
 30
0.0
 70
    64
 71
     6
 72
     4
  0
VERTEX
  5
1984
  8
0
 10
-210.0
 20
285.0000000000001
 30
-10.5
 70
   192
  0
VERTEX
  5
1985
  8
0
 10
-209.9999999999999
 20
285.0000000000001
 30
-23.5
 70
   192
  0
VERTEX
  5
1986
  8
0
 10
-210.0
 20
260.0
 30
-23.5
 70
   192
  0
VERTEX
  5
1987
  8
0
 10
-210.0
 20
260.0
 30
-13.5
 70
   192
  0
VERTEX
  5
1988
  8
0
 10
-210.0000000000001
 20
225.0000000000001
 30
-13.5
 70
   192
  0
VERTEX
  5
1989
  8
0
 10
-210.0000000000001
 20
225.0000000000001
 30
-10.5
 70
   192
  0
VERTEX
  5
198A
  8
0
 10
0.0
 20
0.0
 30
0.0
 70
   128
 71
     4
 72
     3
 73
    -2
  0
VERTEX
  5
198B
  8
0
 10
0.0
 20
0.0
 30
0.0
 70
   128
 71
    -4
 72
     2
 73
    -1
  0
VERTEX
  5
198C
  8
0
 10
0.0
 20
0.0
 30
0.0
 70
   128
 71
     1
 72
     6
 73
    -5
  0
VERTEX
  5
198D
  8
0
 10
0.0
 20
0.0
 30
0.0
 70
   128
 71
    -1
 72
     5
 73
    -4
  0
SEQEND
  5
1AA8
  8
0
  0
POLYLINE
  5
198E
  8
0
 66
     1
 10
0.0
 20
0.0
 30
0.0
 70
    64
 71
     4
 72
     2
  0
VERTEX
  5
198F
  8
0
 10
-210.0000000000001
 20
225.0000000000001
 30
-10.5
 70
   192
  0
VERTEX
  5
1990
  8
0
 10
-289.9999999999999
 20
225.0
 30
-10.5
 70
   192
  0
VERTEX
  5
1991
  8
0
 10
-289.9999999999999
 20
225.0
 30
-13.5
 70
   192
  0
VERTEX
  5
1992
  8
0
 10
-210.0000000000001
 20
225.0000000000001
 30
-13.5
 70
   192
  0
VERTEX
  5
1993
  8
0
 10
0.0
 20
0.0
 30
0.0
 70
   128
 71
     3
 72
     4
 73
    -1
  0
VERTEX
  5
1994
  8
0
 10
0.0
 20
0.0
 30
0.0
 70
   128
 71
     2
 72
    -3
 73
     1
  0
SEQEND
  5
1AA9
  8
0
  0
POLYLINE
  5
1995
  8
0
 66
     1
 10
0.0
 20
0.0
 30
0.0
 70
    64
 71
     8
 72
     6
  0
VERTEX
  5
1996
  8
0
 10
-213.0
 20
282.0
 30
-13.5
 70
   192
  0
VERTEX
  5
1997
  8
0
 10
-287.0
 20
282.0
 30
-13.5
 70
   192
  0
VERTEX
  5
1998
  8
0
 10
-286.9999999999999
 20
260.0
 30
-13.5
 70
   192
  0
VERTEX
  5
1999
  8
0
 10
-290.0
 20
260.0
 30
-13.5
 70
   192
  0
VERTEX
  5
199A
  8
0
 10
-289.9999999999999
 20
225.0
 30
-13.5
 70
   192
  0
VERTEX
  5
199B
  8
0
 10
-210.0000000000001
 20
225.0000000000001
 30
-13.5
 70
   192
  0
VERTEX
  5
199C
  8
0
 10
-210.0
 20
260.0
 30
-13.5
 70
   192
  0
VERTEX
  5
199D
  8
0
 10
-213.0
 20
260.0
 30
-13.5
 70
   192
  0
VERTEX
  5
199E
  8
0
 10
0.0
 20
0.0
 30
0.0
 70
   128
 71
     8
 72
     7
 73
    -6
  0
VERTEX
  5
199F
  8
0
 10
0.0
 20
0.0
 30
0.0
 70
   128
 71
     3
 72
     2
 73
    -1
  0
VERTEX
  5
19A0
  8
0
 10
0.0
 20
0.0
 30
0.0
 70
   128
 71
    -3
 72
     1
 73
    -8
  0
VERTEX
  5
19A1
  8
0
 10
0.0
 20
0.0
 30
0.0
 70
   128
 71
    -8
 72
     6
 73
    -5
  0
VERTEX
  5
19A2
  8
0
 10
0.0
 20
0.0
 30
0.0
 70
   128
 71
    -8
 72
    -5
 73
    -3
  0
VERTEX
  5
19A3
  8
0
 10
0.0
 20
0.0
 30
0.0
 70
   128
 71
     5
 72
     4
 73
    -3
  0
SEQEND
  5
1AAA
  8
0
  0
POLYLINE
  5
19A4
  8
0
 66
     1
 10
0.0
 20
0.0
 30
0.0
 70
    64
 71
     4
 72
     2
  0
VERTEX
  5
19A5
  8
0
 10
-290.0
 20
285.0000000000001
 30
-10.5
 70
   192
  0
VERTEX
  5
19A6
  8
0
 10
-289.9999999999999
 20
225.0
 30
-10.5
 70
   192
  0
VERTEX
  5
19A7
  8
0
 10
-210.0000000000001
 20
225.0000000000001
 30
-10.5
 70
   192
  0
VERTEX
  5
19A8
  8
0
 10
-210.0
 20
285.0000000000001
 30
-10.5
 70
   192
  0
VERTEX
  5
19A9
  8
0
 10
0.0
 20
0.0
 30
0.0
 70
   128
 71
     3
 72
     4
 73
    -1
  0
VERTEX
  5
19AA
  8
0
 10
0.0
 20
0.0
 30
0.0
 70
   128
 71
     2
 72
    -3
 73
     1
  0
SEQEND
  5
1AAB
  8
0
  0
POLYLINE
  5
19AB
  8
0
 66
     1
 10
0.0
 20
0.0
 30
0.0
 70
    64
 71
     4
 72
     2
  0
VERTEX
  5
19AC
  8
0
 10
-247.0000000000001
 20
280.0
 30
-20.5
 70
   192
  0
VERTEX
  5
19AD
  8
0
 10
-252.9999999999999
 20
280.0
 30
-20.5
 70
   192
  0
VERTEX
  5
19AE
  8
0
 10
-252.9999999999999
 20
280.0
 30
-23.5
 70
   192
  0
VERTEX
  5
19AF
  8
0
 10
-247.0000000000001
 20
280.0
 30
-23.5
 70
   192
  0
VERTEX
  5
19B0
  8
0
 10
0.0
 20
0.0
 30
0.0
 70
   128
 71
     3
 72
     4
 73
    -1
  0
VERTEX
  5
19B1
  8
0
 10
0.0
 20
0.0
 30
0.0
 70
   128
 71
     2
 72
    -3
 73
     1
  0
SEQEND
  5
1AAC
  8
0
  0
POLYLINE
  5
19B2
  8
0
 66
     1
 10
0.0
 20
0.0
 30
0.0
 70
    64
 71
     4
 72
     2
  0
VERTEX
  5
19B3
  8
0
 10
-252.9999999999999
 20
280.0
 30
-20.5
 70
   192
  0
VERTEX
  5
19B4
  8
0
 10
-252.9999999999999
 20
260.0
 30
-20.5
 70
   192
  0
VERTEX
  5
19B5
  8
0
 10
-252.9999999999999
 20
260.0
 30
-23.5
 70
   192
  0
VERTEX
  5
19B6
  8
0
 10
-252.9999999999999
 20
280.0
 30
-23.5
 70
   192
  0
VERTEX
  5
19B7
  8
0
 10
0.0
 20
0.0
 30
0.0
 70
   128
 71
     3
 72
     4
 73
    -1
  0
VERTEX
  5
19B8
  8
0
 10
0.0
 20
0.0
 30
0.0
 70
   128
 71
     2
 72
    -3
 73
     1
  0
SEQEND
  5
1AAD
  8
0
  0
POLYLINE
  5
19B9
  8
0
 66
     1
 10
0.0
 20
0.0
 30
0.0
 70
    64
 71
     6
 72
     4
  0
VERTEX
  5
19BA
  8
0
 10
-213.0
 20
260.0
 30
-13.5
 70
   192
  0
VERTEX
  5
19BB
  8
0
 10
-213.0
 20
260.0
 30
-20.5
 70
   192
  0
VERTEX
  5
19BC
  8
0
 10
-247.0000000000001
 20
260.0
 30
-20.5
 70
   192
  0
VERTEX
  5
19BD
  8
0
 10
-247.0000000000001
 20
260.0
 30
-23.5
 70
   192
  0
VERTEX
  5
19BE
  8
0
 10
-210.0
 20
260.0
 30
-23.5
 70
   192
  0
VERTEX
  5
19BF
  8
0
 10
-210.0
 20
260.0
 30
-13.5
 70
   192
  0
VERTEX
  5
19C0
  8
0
 10
0.0
 20
0.0
 30
0.0
 70
   128
 71
     6
 72
     1
 73
    -2
  0
VERTEX
  5
19C1
  8
0
 10
0.0
 20
0.0
 30
0.0
 70
   128
 71
     5
 72
    -6
 73
    -2
  0
VERTEX
  5
19C2
  8
0
 10
0.0
 20
0.0
 30
0.0
 70
   128
 71
     3
 72
     4
 73
    -5
  0
VERTEX
  5
19C3
  8
0
 10
0.0
 20
0.0
 30
0.0
 70
   128
 71
     2
 72
    -3
 73
    -5
  0
SEQEND
  5
1AAE
  8
0
  0
POLYLINE
  5
19C4
  8
0
 66
     1
 10
0.0
 20
0.0
 30
0.0
 70
    64
 71
     4
 72
     2
  0
VERTEX
  5
19C5
  8
0
 10
-247.0000000000001
 20
260.0
 30
-20.5
 70
   192
  0
VERTEX
  5
19C6
  8
0
 10
-247.0000000000001
 20
280.0
 30
-20.5
 70
   192
  0
VERTEX
  5
19C7
  8
0
 10
-247.0000000000001
 20
280.0
 30
-23.5
 70
   192
  0
VERTEX
  5
19C8
  8
0
 10
-247.0000000000001
 20
260.0
 30
-23.5
 70
   192
  0
VERTEX
  5
19C9
  8
0
 10
0.0
 20
0.0
 30
0.0
 70
   128
 71
     3
 72
     4
 73
    -1
  0
VERTEX
  5
19CA
  8
0
 10
0.0
 20
0.0
 30
0.0
 70
   128
 71
     2
 72
    -3
 73
     1
  0
SEQEND
  5
1AAF
  8
0
  0
POLYLINE
  5
19CB
  8
0
 66
     1
 10
0.0
 20
0.0
 30
0.0
 70
    64
 71
     8
 72
     6
  0
VERTEX
  5
19CC
  8
0
 10
-247.0000000000001
 20
280.0
 30
-23.5
 70
   192
  0
VERTEX
  5
19CD
  8
0
 10
-252.9999999999999
 20
280.0
 30
-23.5
 70
   192
  0
VERTEX
  5
19CE
  8
0
 10
-252.9999999999999
 20
260.0
 30
-23.5
 70
   192
  0
VERTEX
  5
19CF
  8
0
 10
-289.9999999999999
 20
260.0
 30
-23.5
 70
   192
  0
VERTEX
  5
19D0
  8
0
 10
-290.0
 20
285.0000000000001
 30
-23.5
 70
   192
  0
VERTEX
  5
19D1
  8
0
 10
-210.0
 20
285.0000000000001
 30
-23.5
 70
   192
  0
VERTEX
  5
19D2
  8
0
 10
-210.0
 20
260.0
 30
-23.5
 70
   192
  0
VERTEX
  5
19D3
  8
0
 10
-247.0000000000001
 20
260.0
 30
-23.5
 70
   192
  0
VERTEX
  5
19D4
  8
0
 10
0.0
 20
0.0
 30
0.0
 70
   128
 71
     7
 72
     8
 73
    -1
  0
VERTEX
  5
19D5
  8
0
 10
0.0
 20
0.0
 30
0.0
 70
   128
 71
     6
 72
    -7
 73
    -1
  0
VERTEX
  5
19D6
  8
0
 10
0.0
 20
0.0
 30
0.0
 70
   128
 71
    -6
 72
     1
 73
    -2
  0
VERTEX
  5
19D7
  8
0
 10
0.0
 20
0.0
 30
0.0
 70
   128
 71
     5
 72
    -6
 73
    -2
  0
VERTEX
  5
19D8
  8
0
 10
0.0
 20
0.0
 30
0.0
 70
   128
 71
     3
 72
     4
 73
    -5
  0
VERTEX
  5
19D9
  8
0
 10
0.0
 20
0.0
 30
0.0
 70
   128
 71
     2
 72
    -3
 73
    -5
  0
SEQEND
  5
1AB0
  8
0
  0
POLYLINE
  5
19DA
  8
0
 66
     1
 10
0.0
 20
0.0
 30
0.0
 70
    64
 71
     4
 72
     2
  0
VERTEX
  5
19DB
  8
0
 10
-286.9999999999999
 20
260.0
 30
-13.5
 70
   192
  0
VERTEX
  5
19DC
  8
0
 10
-287.0
 20
282.0
 30
-13.5
 70
   192
  0
VERTEX
  5
19DD
  8
0
 10
-287.0
 20
282.0
 30
-20.5
 70
   192
  0
VERTEX
  5
19DE
  8
0
 10
-287.0
 20
260.0
 30
-20.5
 70
   192
  0
VERTEX
  5
19DF
  8
0
 10
0.0
 20
0.0
 30
0.0
 70
   128
 71
     1
 72
     4
 73
    -3
  0
VERTEX
  5
19E0
  8
0
 10
0.0
 20
0.0
 30
0.0
 70
   128
 71
    -1
 72
     3
 73
     2
  0
SEQEND
  5
1AB1
  8
0
  0
POLYLINE
  5
19E1
  8
0
 66
     1
 10
0.0
 20
0.0
 30
0.0
 70
    64
 71
     4
 72
     2
  0
VERTEX
  5
19E2
  8
0
 10
-213.0
 20
282.0
 30
-13.5
 70
   192
  0
VERTEX
  5
19E3
  8
0
 10
-287.0
 20
282.0
 30
-13.5
 70
   192
  0
VERTEX
  5
19E4
  8
0
 10
-287.0
 20
282.0
 30
-20.5
 70
   192
  0
VERTEX
  5
19E5
  8
0
 10
-213.0
 20
282.0
 30
-20.5
 70
   192
  0
VERTEX
  5
19E6
  8
0
 10
0.0
 20
0.0
 30
0.0
 70
   128
 71
     3
 72
     4
 73
    -1
  0
VERTEX
  5
19E7
  8
0
 10
0.0
 20
0.0
 30
0.0
 70
   128
 71
     2
 72
    -3
 73
     1
  0
SEQEND
  5
1AB2
  8
0
  0
POLYLINE
  5
19E8
  8
0
 66
     1
 10
0.0
 20
0.0
 30
0.0
 70
    64
 71
     4
 72
     2
  0
VERTEX
  5
19E9
  8
0
 10
-213.0
 20
260.0
 30
-13.5
 70
   192
  0
VERTEX
  5
19EA
  8
0
 10
-213.0
 20
282.0
 30
-13.5
 70
   192
  0
VERTEX
  5
19EB
  8
0
 10
-213.0
 20
282.0
 30
-20.5
 70
   192
  0
VERTEX
  5
19EC
  8
0
 10
-213.0
 20
260.0
 30
-20.5
 70
   192
  0
VERTEX
  5
19ED
  8
0
 10
0.0
 20
0.0
 30
0.0
 70
   128
 71
     3
 72
     4
 73
    -1
  0
VERTEX
  5
19EE
  8
0
 10
0.0
 20
0.0
 30
0.0
 70
   128
 71
     2
 72
    -3
 73
     1
  0
SEQEND
  5
1AB3
  8
0
  0
POLYLINE
  5
19EF
  8
0
 66
     1
 10
0.0
 20
0.0
 30
0.0
 70
    64
 71
     8
 72
     6
  0
VERTEX
  5
19F0
  8
0
 10
-252.9999999999999
 20
280.0
 30
-20.5
 70
   192
  0
VERTEX
  5
19F1
  8
0
 10
-252.9999999999999
 20
260.0
 30
-20.5
 70
   192
  0
VERTEX
  5
19F2
  8
0
 10
-287.0
 20
260.0
 30
-20.5
 70
   192
  0
VERTEX
  5
19F3
  8
0
 10
-287.0
 20
282.0
 30
-20.5
 70
   192
  0
VERTEX
  5
19F4
  8
0
 10
-213.0
 20
282.0
 30
-20.5
 70
   192
  0
VERTEX
  5
19F5
  8
0
 10
-213.0
 20
260.0
 30
-20.5
 70
   192
  0
VERTEX
  5
19F6
  8
0
 10
-247.0000000000001
 20
260.0
 30
-20.5
 70
   192
  0
VERTEX
  5
19F7
  8
0
 10
-247.0000000000001
 20
280.0
 30
-20.5
 70
   192
  0
VERTEX
  5
19F8
  8
0
 10
0.0
 20
0.0
 30
0.0
 70
   128
 71
     8
 72
     7
 73
    -6
  0
VERTEX
  5
19F9
  8
0
 10
0.0
 20
0.0
 30
0.0
 70
   128
 71
    -8
 72
     6
 73
    -5
  0
VERTEX
  5
19FA
  8
0
 10
0.0
 20
0.0
 30
0.0
 70
   128
 71
    -5
 72
     1
 73
    -8
  0
VERTEX
  5
19FB
  8
0
 10
0.0
 20
0.0
 30
0.0
 70
   128
 71
     5
 72
    -4
 73
    -1
  0
VERTEX
  5
19FC
  8
0
 10
0.0
 20
0.0
 30
0.0
 70
   128
 71
     4
 72
     3
 73
    -2
  0
VERTEX
  5
19FD
  8
0
 10
0.0
 20
0.0
 30
0.0
 70
   128
 71
    -4
 72
     2
 73
    -1
  0
SEQEND
  5
1AB4
  8
0
  0
ENDBLK
  5
1AA4
  8
0
  0
BLOCK
  8
0
  2
*X3
 70
     1
 10
0.0
 20
0.0
 30
0.0
  3
*X3
  1

  0
POLYLINE
  5
19FF
  8
0
 66
     1
 10
0.0
 20
0.0
 30
0.0
 70
    64
 71
     8
 72
     6
  0
VERTEX
  5
1A00
  8
0
 10
210.0000000000003
 20
260.0000000000001
 30
-13.5
 70
   192
  0
VERTEX
  5
1A01
  8
0
 10
210.0000000000004
 20
225.000000000001
 30
-13.5
 70
   192
  0
VERTEX
  5
1A02
  8
0
 10
289.9999999999991
 20
225.0000000000011
 30
-13.5
 70
   192
  0
VERTEX
  5
1A03
  8
0
 10
289.9999999999991
 20
260.0000000000001
 30
-13.5
 70
   192
  0
VERTEX
  5
1A04
  8
0
 10
286.9999999999991
 20
260.0000000000001
 30
-13.5
 70
   192
  0
VERTEX
  5
1A05
  8
0
 10
286.9999999999991
 20
282.0
 30
-13.5
 70
   192
  0
VERTEX
  5
1A06
  8
0
 10
213.0000000000003
 20
282.0000000000001
 30
-13.5
 70
   192
  0
VERTEX
  5
1A07
  8
0
 10
213.0000000000004
 20
260.0000000000001
 30
-13.5
 70
   192
  0
VERTEX
  5
1A08
  8
0
 10
0.0
 20
0.0
 30
0.0
 70
   128
 71
     5
 72
     4
 73
    -3
  0
VERTEX
  5
1A09
  8
0
 10
0.0
 20
0.0
 30
0.0
 70
   128
 71
    -5
 72
    -3
 73
    -8
  0
VERTEX
  5
1A0A
  8
0
 10
0.0
 20
0.0
 30
0.0
 70
   128
 71
     8
 72
     7
 73
    -6
  0
VERTEX
  5
1A0B
  8
0
 10
0.0
 20
0.0
 30
0.0
 70
   128
 71
    -8
 72
     6
 73
    -5
  0
VERTEX
  5
1A0C
  8
0
 10
0.0
 20
0.0
 30
0.0
 70
   128
 71
     3
 72
    -2
 73
    -8
  0
VERTEX
  5
1A0D
  8
0
 10
0.0
 20
0.0
 30
0.0
 70
   128
 71
     2
 72
     1
 73
    -8
  0
SEQEND
  5
1AB7
  8
0
  0
POLYLINE
  5
1A0E
  8
0
 66
     1
 10
0.0
 20
0.0
 30
0.0
 70
    64
 71
     6
 72
     4
  0
VERTEX
  5
1A0F
  8
0
 10
210.0000000000004
 20
225.000000000001
 30
-10.5
 70
   192
  0
VERTEX
  5
1A10
  8
0
 10
210.0000000000003
 20
285.0000000000001
 30
-10.5
 70
   192
  0
VERTEX
  5
1A11
  8
0
 10
210.0000000000003
 20
285.0000000000001
 30
-23.5
 70
   192
  0
VERTEX
  5
1A12
  8
0
 10
210.0000000000003
 20
260.0000000000001
 30
-23.5
 70
   192
  0
VERTEX
  5
1A13
  8
0
 10
210.0000000000003
 20
260.0000000000001
 30
-13.5
 70
   192
  0
VERTEX
  5
1A14
  8
0
 10
210.0000000000004
 20
225.000000000001
 30
-13.5
 70
   192
  0
VERTEX
  5
1A15
  8
0
 10
0.0
 20
0.0
 30
0.0
 70
   128
 71
     3
 72
     4
 73
    -5
  0
VERTEX
  5
1A16
  8
0
 10
0.0
 20
0.0
 30
0.0
 70
   128
 71
     2
 72
    -3
 73
    -5
  0
VERTEX
  5
1A17
  8
0
 10
0.0
 20
0.0
 30
0.0
 70
   128
 71
     6
 72
     1
 73
    -2
  0
VERTEX
  5
1A18
  8
0
 10
0.0
 20
0.0
 30
0.0
 70
   128
 71
     5
 72
    -6
 73
    -2
  0
SEQEND
  5
1AB8
  8
0
  0
POLYLINE
  5
1A19
  8
0
 66
     1
 10
0.0
 20
0.0
 30
0.0
 70
    64
 71
     4
 72
     2
  0
VERTEX
  5
1A1A
  8
0
 10
210.0000000000003
 20
285.0000000000001
 30
-10.5
 70
   192
  0
VERTEX
  5
1A1B
  8
0
 10
210.0000000000003
 20
285.0000000000001
 30
-23.5
 70
   192
  0
VERTEX
  5
1A1C
  8
0
 10
289.9999999999991
 20
285.0000000000001
 30
-23.5
 70
   192
  0
VERTEX
  5
1A1D
  8
0
 10
289.9999999999991
 20
285.0000000000001
 30
-10.5
 70
   192
  0
VERTEX
  5
1A1E
  8
0
 10
0.0
 20
0.0
 30
0.0
 70
   128
 71
     1
 72
     4
 73
    -3
  0
VERTEX
  5
1A1F
  8
0
 10
0.0
 20
0.0
 30
0.0
 70
   128
 71
    -1
 72
     3
 73
     2
  0
SEQEND
  5
1AB9
  8
0
  0
POLYLINE
  5
1A20
  8
0
 66
     1
 10
0.0
 20
0.0
 30
0.0
 70
    64
 71
     6
 72
     4
  0
VERTEX
  5
1A21
  8
0
 10
289.9999999999991
 20
285.0000000000001
 30
-10.5
 70
   192
  0
VERTEX
  5
1A22
  8
0
 10
289.9999999999991
 20
285.0000000000001
 30
-23.5
 70
   192
  0
VERTEX
  5
1A23
  8
0
 10
289.9999999999991
 20
260.0000000000001
 30
-23.5
 70
   192
  0
VERTEX
  5
1A24
  8
0
 10
289.9999999999991
 20
260.0000000000001
 30
-13.5
 70
   192
  0
VERTEX
  5
1A25
  8
0
 10
289.9999999999991
 20
225.0000000000011
 30
-13.5
 70
   192
  0
VERTEX
  5
1A26
  8
0
 10
289.9999999999991
 20
225.0000000000011
 30
-10.5
 70
   192
  0
VERTEX
  5
1A27
  8
0
 10
0.0
 20
0.0
 30
0.0
 70
   128
 71
     4
 72
     3
 73
    -2
  0
VERTEX
  5
1A28
  8
0
 10
0.0
 20
0.0
 30
0.0
 70
   128
 71
    -4
 72
     2
 73
    -1
  0
VERTEX
  5
1A29
  8
0
 10
0.0
 20
0.0
 30
0.0
 70
   128
 71
     1
 72
     6
 73
    -5
  0
VERTEX
  5
1A2A
  8
0
 10
0.0
 20
0.0
 30
0.0
 70
   128
 71
    -1
 72
     5
 73
    -4
  0
SEQEND
  5
1ABA
  8
0
  0
POLYLINE
  5
1A2B
  8
0
 66
     1
 10
0.0
 20
0.0
 30
0.0
 70
    64
 71
     4
 72
     2
  0
VERTEX
  5
1A2C
  8
0
 10
289.9999999999991
 20
225.0000000000011
 30
-10.5
 70
   192
  0
VERTEX
  5
1A2D
  8
0
 10
210.0000000000004
 20
225.000000000001
 30
-10.5
 70
   192
  0
VERTEX
  5
1A2E
  8
0
 10
210.0000000000004
 20
225.000000000001
 30
-13.5
 70
   192
  0
VERTEX
  5
1A2F
  8
0
 10
289.9999999999991
 20
225.0000000000011
 30
-13.5
 70
   192
  0
VERTEX
  5
1A30
  8
0
 10
0.0
 20
0.0
 30
0.0
 70
   128
 71
     3
 72
     4
 73
    -1
  0
VERTEX
  5
1A31
  8
0
 10
0.0
 20
0.0
 30
0.0
 70
   128
 71
     2
 72
    -3
 73
     1
  0
SEQEND
  5
1ABB
  8
0
  0
POLYLINE
  5
1A32
  8
0
 66
     1
 10
0.0
 20
0.0
 30
0.0
 70
    64
 71
     4
 72
     2
  0
VERTEX
  5
1A33
  8
0
 10
210.0000000000003
 20
285.0000000000001
 30
-10.5
 70
   192
  0
VERTEX
  5
1A34
  8
0
 10
210.0000000000004
 20
225.000000000001
 30
-10.5
 70
   192
  0
VERTEX
  5
1A35
  8
0
 10
289.9999999999991
 20
225.0000000000011
 30
-10.5
 70
   192
  0
VERTEX
  5
1A36
  8
0
 10
289.9999999999991
 20
285.0000000000001
 30
-10.5
 70
   192
  0
VERTEX
  5
1A37
  8
0
 10
0.0
 20
0.0
 30
0.0
 70
   128
 71
     3
 72
     4
 73
    -1
  0
VERTEX
  5
1A38
  8
0
 10
0.0
 20
0.0
 30
0.0
 70
   128
 71
     2
 72
    -3
 73
     1
  0
SEQEND
  5
1ABC
  8
0
  0
POLYLINE
  5
1A39
  8
0
 66
     1
 10
0.0
 20
0.0
 30
0.0
 70
    64
 71
     4
 72
     2
  0
VERTEX
  5
1A3A
  8
0
 10
247.0000000000001
 20
280.0000000000001
 30
-23.5
 70
   192
  0
VERTEX
  5
1A3B
  8
0
 10
247.0000000000001
 20
260.0000000000001
 30
-23.5
 70
   192
  0
VERTEX
  5
1A3C
  8
0
 10
247.0000000000001
 20
260.0000000000001
 30
-20.5
 70
   192
  0
VERTEX
  5
1A3D
  8
0
 10
247.0000000000001
 20
280.0000000000001
 30
-20.5
 70
   192
  0
VERTEX
  5
1A3E
  8
0
 10
0.0
 20
0.0
 30
0.0
 70
   128
 71
     1
 72
     4
 73
    -3
  0
VERTEX
  5
1A3F
  8
0
 10
0.0
 20
0.0
 30
0.0
 70
   128
 71
    -1
 72
     3
 73
     2
  0
SEQEND
  5
1ABD
  8
0
  0
POLYLINE
  5
1A40
  8
0
 66
     1
 10
0.0
 20
0.0
 30
0.0
 70
    64
 71
     6
 72
     4
  0
VERTEX
  5
1A41
  8
0
 10
247.0000000000001
 20
260.0000000000001
 30
-20.5
 70
   192
  0
VERTEX
  5
1A42
  8
0
 10
247.0000000000001
 20
260.0000000000001
 30
-23.5
 70
   192
  0
VERTEX
  5
1A43
  8
0
 10
210.0000000000003
 20
260.0000000000001
 30
-23.5
 70
   192
  0
VERTEX
  5
1A44
  8
0
 10
210.0000000000003
 20
260.0000000000001
 30
-13.5
 70
   192
  0
VERTEX
  5
1A45
  8
0
 10
213.0000000000003
 20
260.0000000000001
 30
-13.5
 70
   192
  0
VERTEX
  5
1A46
  8
0
 10
213.0000000000004
 20
260.0000000000001
 30
-20.5
 70
   192
  0
VERTEX
  5
1A47
  8
0
 10
0.0
 20
0.0
 30
0.0
 70
   128
 71
     6
 72
     5
 73
    -4
  0
VERTEX
  5
1A48
  8
0
 10
0.0
 20
0.0
 30
0.0
 70
   128
 71
    -6
 72
     4
 73
    -3
  0
VERTEX
  5
1A49
  8
0
 10
0.0
 20
0.0
 30
0.0
 70
   128
 71
     3
 72
     2
 73
    -1
  0
VERTEX
  5
1A4A
  8
0
 10
0.0
 20
0.0
 30
0.0
 70
   128
 71
    -3
 72
     1
 73
    -6
  0
SEQEND
  5
1ABE
  8
0
  0
POLYLINE
  5
1A4B
  8
0
 66
     1
 10
0.0
 20
0.0
 30
0.0
 70
    64
 71
     6
 72
     4
  0
VERTEX
  5
1A4C
  8
0
 10
286.9999999999991
 20
260.0000000000001
 30
-13.5
 70
   192
  0
VERTEX
  5
1A4D
  8
0
 10
289.9999999999991
 20
260.0000000000001
 30
-13.5
 70
   192
  0
VERTEX
  5
1A4E
  8
0
 10
289.9999999999991
 20
260.0000000000001
 30
-23.5
 70
   192
  0
VERTEX
  5
1A4F
  8
0
 10
252.9999999999999
 20
260.0000000000001
 30
-23.5
 70
   192
  0
VERTEX
  5
1A50
  8
0
 10
252.9999999999999
 20
260.0000000000001
 30
-20.5
 70
   192
  0
VERTEX
  5
1A51
  8
0
 10
286.9999999999991
 20
260.0000000000001
 30
-20.5
 70
   192
  0
VERTEX
  5
1A52
  8
0
 10
0.0
 20
0.0
 30
0.0
 70
   128
 71
     6
 72
     5
 73
    -4
  0
VERTEX
  5
1A53
  8
0
 10
0.0
 20
0.0
 30
0.0
 70
   128
 71
    -6
 72
     4
 73
    -3
  0
VERTEX
  5
1A54
  8
0
 10
0.0
 20
0.0
 30
0.0
 70
   128
 71
     3
 72
     2
 73
    -1
  0
VERTEX
  5
1A55
  8
0
 10
0.0
 20
0.0
 30
0.0
 70
   128
 71
    -3
 72
     1
 73
    -6
  0
SEQEND
  5
1ABF
  8
0
  0
POLYLINE
  5
1A56
  8
0
 66
     1
 10
0.0
 20
0.0
 30
0.0
 70
    64
 71
     4
 72
     2
  0
VERTEX
  5
1A57
  8
0
 10
252.9999999999999
 20
260.0000000000001
 30
-23.5
 70
   192
  0
VERTEX
  5
1A58
  8
0
 10
252.9999999999999
 20
280.0000000000001
 30
-23.5
 70
   192
  0
VERTEX
  5
1A59
  8
0
 10
252.9999999999999
 20
280.0000000000001
 30
-20.5
 70
   192
  0
VERTEX
  5
1A5A
  8
0
 10
252.9999999999999
 20
260.0000000000001
 30
-20.5
 70
   192
  0
VERTEX
  5
1A5B
  8
0
 10
0.0
 20
0.0
 30
0.0
 70
   128
 71
     1
 72
     4
 73
    -3
  0
VERTEX
  5
1A5C
  8
0
 10
0.0
 20
0.0
 30
0.0
 70
   128
 71
    -1
 72
     3
 73
     2
  0
SEQEND
  5
1AC0
  8
0
  0
POLYLINE
  5
1A5D
  8
0
 66
     1
 10
0.0
 20
0.0
 30
0.0
 70
    64
 71
     4
 72
     2
  0
VERTEX
  5
1A5E
  8
0
 10
252.9999999999999
 20
280.0000000000001
 30
-23.5
 70
   192
  0
VERTEX
  5
1A5F
  8
0
 10
247.0000000000001
 20
280.0000000000001
 30
-23.5
 70
   192
  0
VERTEX
  5
1A60
  8
0
 10
247.0000000000001
 20
280.0000000000001
 30
-20.5
 70
   192
  0
VERTEX
  5
1A61
  8
0
 10
252.9999999999999
 20
280.0000000000001
 30
-20.5
 70
   192
  0
VERTEX
  5
1A62
  8
0
 10
0.0
 20
0.0
 30
0.0
 70
   128
 71
     1
 72
     4
 73
    -3
  0
VERTEX
  5
1A63
  8
0
 10
0.0
 20
0.0
 30
0.0
 70
   128
 71
    -1
 72
     3
 73
     2
  0
SEQEND
  5
1AC1
  8
0
  0
POLYLINE
  5
1A64
  8
0
 66
     1
 10
0.0
 20
0.0
 30
0.0
 70
    64
 71
     8
 72
     6
  0
VERTEX
  5
1A65
  8
0
 10
247.0000000000001
 20
280.0000000000001
 30
-23.5
 70
   192
  0
VERTEX
  5
1A66
  8
0
 10
247.0000000000001
 20
260.0000000000001
 30
-23.5
 70
   192
  0
VERTEX
  5
1A67
  8
0
 10
210.0000000000003
 20
260.0000000000001
 30
-23.5
 70
   192
  0
VERTEX
  5
1A68
  8
0
 10
210.0000000000003
 20
285.0000000000001
 30
-23.5
 70
   192
  0
VERTEX
  5
1A69
  8
0
 10
289.9999999999991
 20
285.0
 30
-23.5
 70
   192
  0
VERTEX
  5
1A6A
  8
0
 10
289.9999999999991
 20
260.0000000000001
 30
-23.5
 70
   192
  0
VERTEX
  5
1A6B
  8
0
 10
252.9999999999999
 20
260.0000000000001
 30
-23.5
 70
   192
  0
VERTEX
  5
1A6C
  8
0
 10
252.9999999999999
 20
280.0000000000001
 30
-23.5
 70
   192
  0
VERTEX
  5
1A6D
  8
0
 10
0.0
 20
0.0
 30
0.0
 70
   128
 71
     6
 72
     7
 73
    -8
  0
VERTEX
  5
1A6E
  8
0
 10
0.0
 20
0.0
 30
0.0
 70
   128
 71
     5
 72
    -6
 73
    -8
  0
VERTEX
  5
1A6F
  8
0
 10
0.0
 20
0.0
 30
0.0
 70
   128
 71
    -1
 72
     4
 73
    -5
  0
VERTEX
  5
1A70
  8
0
 10
0.0
 20
0.0
 30
0.0
 70
   128
 71
     8
 72
    -1
 73
    -5
  0
VERTEX
  5
1A71
  8
0
 10
0.0
 20
0.0
 30
0.0
 70
   128
 71
     2
 72
     3
 73
    -4
  0
VERTEX
  5
1A72
  8
0
 10
0.0
 20
0.0
 30
0.0
 70
   128
 71
     1
 72
    -2
 73
    -4
  0
SEQEND
  5
1AC2
  8
0
  0
POLYLINE
  5
1A73
  8
0
 66
     1
 10
0.0
 20
0.0
 30
0.0
 70
    64
 71
     4
 72
     2
  0
VERTEX
  5
1A74
  8
0
 10
213.0000000000003
 20
260.0000000000001
 30
-13.5
 70
   192
  0
VERTEX
  5
1A75
  8
0
 10
213.0000000000003
 20
282.0000000000001
 30
-13.5
 70
   192
  0
VERTEX
  5
1A76
  8
0
 10
213.0000000000003
 20
282.0000000000001
 30
-20.5
 70
   192
  0
VERTEX
  5
1A77
  8
0
 10
213.0000000000003
 20
260.0000000000001
 30
-20.5
 70
   192
  0
VERTEX
  5
1A78
  8
0
 10
0.0
 20
0.0
 30
0.0
 70
   128
 71
     1
 72
     4
 73
    -3
  0
VERTEX
  5
1A79
  8
0
 10
0.0
 20
0.0
 30
0.0
 70
   128
 71
    -1
 72
     3
 73
     2
  0
SEQEND
  5
1AC3
  8
0
  0
POLYLINE
  5
1A7A
  8
0
 66
     1
 10
0.0
 20
0.0
 30
0.0
 70
    64
 71
     4
 72
     2
  0
VERTEX
  5
1A7B
  8
0
 10
286.9999999999991
 20
282.0
 30
-13.5
 70
   192
  0
VERTEX
  5
1A7C
  8
0
 10
213.0000000000003
 20
282.0000000000001
 30
-13.5
 70
   192
  0
VERTEX
  5
1A7D
  8
0
 10
213.0000000000003
 20
282.0000000000001
 30
-20.5
 70
   192
  0
VERTEX
  5
1A7E
  8
0
 10
286.9999999999991
 20
282.0
 30
-20.5
 70
   192
  0
VERTEX
  5
1A7F
  8
0
 10
0.0
 20
0.0
 30
0.0
 70
   128
 71
     3
 72
     4
 73
    -1
  0
VERTEX
  5
1A80
  8
0
 10
0.0
 20
0.0
 30
0.0
 70
   128
 71
     2
 72
    -3
 73
     1
  0
SEQEND
  5
1AC4
  8
0
  0
POLYLINE
  5
1A81
  8
0
 66
     1
 10
0.0
 20
0.0
 30
0.0
 70
    64
 71
     4
 72
     2
  0
VERTEX
  5
1A82
  8
0
 10
286.9999999999991
 20
260.0000000000001
 30
-13.5
 70
   192
  0
VERTEX
  5
1A83
  8
0
 10
286.9999999999991
 20
282.0
 30
-13.5
 70
   192
  0
VERTEX
  5
1A84
  8
0
 10
286.9999999999991
 20
282.0
 30
-20.5
 70
   192
  0
VERTEX
  5
1A85
  8
0
 10
286.9999999999991
 20
260.0000000000001
 30
-20.5
 70
   192
  0
VERTEX
  5
1A86
  8
0
 10
0.0
 20
0.0
 30
0.0
 70
   128
 71
     3
 72
     4
 73
    -1
  0
VERTEX
  5
1A87
  8
0
 10
0.0
 20
0.0
 30
0.0
 70
   128
 71
     2
 72
    -3
 73
     1
  0
SEQEND
  5
1AC5
  8
0
  0
POLYLINE
  5
1A88
  8
0
 66
     1
 10
0.0
 20
0.0
 30
0.0
 70
    64
 71
     8
 72
     6
  0
VERTEX
  5
1A89
  8
0
 10
247.0000000000001
 20
260.0000000000001
 30
-20.5
 70
   192
  0
VERTEX
  5
1A8A
  8
0
 10
213.0000000000003
 20
260.0000000000001
 30
-20.5
 70
   192
  0
VERTEX
  5
1A8B
  8
0
 10
213.0000000000003
 20
282.0000000000001
 30
-20.5
 70
   192
  0
VERTEX
  5
1A8C
  8
0
 10
286.9999999999991
 20
282.0
 30
-20.5
 70
   192
  0
VERTEX
  5
1A8D
  8
0
 10
286.9999999999991
 20
260.0000000000001
 30
-20.5
 70
   192
  0
VERTEX
  5
1A8E
  8
0
 10
252.9999999999999
 20
260.0000000000001
 30
-20.5
 70
   192
  0
VERTEX
  5
1A8F
  8
0
 10
252.9999999999999
 20
280.0000000000001
 30
-20.5
 70
   192
  0
VERTEX
  5
1A90
  8
0
 10
247.0000000000001
 20
280.0000000000001
 30
-20.5
 70
   192
  0
VERTEX
  5
1A91
  8
0
 10
0.0
 20
0.0
 30
0.0
 70
   128
 71
     7
 72
     6
 73
    -5
  0
VERTEX
  5
1A92
  8
0
 10
0.0
 20
0.0
 30
0.0
 70
   128
 71
    -7
 72
     5
 73
    -4
  0
VERTEX
  5
1A93
  8
0
 10
0.0
 20
0.0
 30
0.0
 70
   128
 71
    -4
 72
     8
 73
    -7
  0
VERTEX
  5
1A94
  8
0
 10
0.0
 20
0.0
 30
0.0
 70
   128
 71
     4
 72
    -3
 73
    -8
  0
VERTEX
  5
1A95
  8
0
 10
0.0
 20
0.0
 30
0.0
 70
   128
 71
     3
 72
     2
 73
    -1
  0
VERTEX
  5
1A96
  8
0
 10
0.0
 20
0.0
 30
0.0
 70
   128
 71
    -3
 72
     1
 73
    -8
  0
SEQEND
  5
1AC6
  8
0
  0
ENDBLK
  5
1AB6
  8
0
  0
ENDSEC
  0
SECTION
  2
ENTITIES
  0
INSERT
  5
1593
  8
0
  2
*X1
 10
0.0
 20
0.0
 30
0.0
  0
INSERT
  5
1594
  8
0
  2
*X2
 10
0.0
 20
0.0
 30
0.0
  0
INSERT
  5
1595
  8
0
  2
*X3
 10
0.0
 20
0.0
 30
0.0
  0
ENDSEC
  0
EOF
