  0
SECTION
  2
HEADER
  9
$ACADVER
  1
AC1009
  9
$DWGCODEPAGE
  3
ansi_1250
  9
$INSBASE
 10
0.0
 20
0.0
 30
0.0
  9
$EXTMIN
 10
-400.0
 20
-400.0
 30
-25.0000000000001
  9
$EXTMAX
 10
400.0
 20
400.0
 30
0.0000000000000853
  9
$LIMMIN
 10
0.0
 20
0.0
  9
$LIMMAX
 10
420.0
 20
297.0
  9
$ORTHOMODE
 70
     0
  9
$REGENMODE
 70
     1
  9
$FILLMODE
 70
     1
  9
$QTEXTMODE
 70
     0
  9
$MIRRTEXT
 70
     0
  9
$DRAGMODE
 70
     2
  9
$LTSCALE
 40
1.0
  9
$OSMODE
 70
   511
  9
$ATTMODE
 70
     1
  9
$TEXTSIZE
 40
2.5
  9
$TRACEWID
 40
1.0
  9
$TEXTSTYLE
  7
STANDARD
  9
$CLAYER
  8
0
  9
$CELTYPE
  6
BYLAYER
  9
$CECOLOR
 62
   256
  9
$DIMSCALE
 40
1.0
  9
$DIMASZ
 40
2.5
  9
$DIMEXO
 40
0.625
  9
$DIMDLI
 40
3.75
  9
$DIMRND
 40
0.0
  9
$DIMDLE
 40
0.0
  9
$DIMEXE
 40
1.25
  9
$DIMTP
 40
0.0
  9
$DIMTM
 40
0.0
  9
$DIMTXT
 40
2.5
  9
$DIMCEN
 40
-2.5
  9
$DIMTSZ
 40
0.0
  9
$DIMTOL
 70
     0
  9
$DIMLIM
 70
     0
  9
$DIMTIH
 70
     0
  9
$DIMTOH
 70
     0
  9
$DIMSE1
 70
     0
  9
$DIMSE2
 70
     0
  9
$DIMTAD
 70
     1
  9
$DIMZIN
 70
     8
  9
$DIMBLK
  1

  9
$DIMASO
 70
     1
  9
$DIMSHO
 70
     1
  9
$DIMPOST
  1

  9
$DIMAPOST
  1

  9
$DIMALT
 70
     0
  9
$DIMALTD
 70
     3
  9
$DIMALTF
 40
0.03937007874016
  9
$DIMLFAC
 40
1.0
  9
$DIMTOFL
 70
     1
  9
$DIMTVP
 40
0.0
  9
$DIMTIX
 70
     0
  9
$DIMSOXD
 70
     0
  9
$DIMSAH
 70
     0
  9
$DIMBLK1
  1

  9
$DIMBLK2
  1

  9
$DIMSTYLE
  2
ISO-25
  9
$DIMCLRD
 70
     0
  9
$DIMCLRE
 70
     0
  9
$DIMCLRT
 70
     0
  9
$DIMTFAC
 40
1.0
  9
$DIMGAP
 40
0.625
  9
$LUNITS
 70
     2
  9
$LUPREC
 70
     3
  9
$SKETCHINC
 40
1.0
  9
$FILLETRAD
 40
10.0
  9
$AUNITS
 70
     0
  9
$AUPREC
 70
     0
  9
$MENU
  1
.
  9
$ELEVATION
 40
0.0
  9
$PELEVATION
 40
0.0
  9
$THICKNESS
 40
0.0
  9
$LIMCHECK
 70
     0
  9
$CHAMFERA
 40
10.0
  9
$CHAMFERB
 40
10.0
  9
$SKPOLY
 70
     0
  9
$TDCREATE
 40
2455022.720692848
  9
$TDUPDATE
 40
2460521.492805984
  9
$TDINDWG
 40
0.1635244907
  9
$TDUSRTIMER
 40
0.1635244907
  9
$USRTIMER
 70
     1
  9
$ANGBASE
 50
0.0
  9
$ANGDIR
 70
     0
  9
$PDMODE
 70
     0
  9
$PDSIZE
 40
0.0
  9
$PLINEWID
 40
0.0
  9
$COORDS
 70
     1
  9
$SPLFRAME
 70
     0
  9
$SPLINETYPE
 70
     6
  9
$SPLINESEGS
 70
     8
  9
$ATTDIA
 70
     0
  9
$ATTREQ
 70
     1
  9
$HANDLING
 70
     1
  9
$HANDSEED
  5
105F
  9
$SURFTAB1
 70
     6
  9
$SURFTAB2
 70
     6
  9
$SURFTYPE
 70
     6
  9
$SURFU
 70
     6
  9
$SURFV
 70
     6
  9
$UCSNAME
  2

  9
$UCSORG
 10
0.0
 20
0.0
 30
0.0
  9
$UCSXDIR
 10
1.0
 20
0.0
 30
0.0
  9
$UCSYDIR
 10
0.0
 20
1.0
 30
0.0
  9
$PUCSNAME
  2

  9
$PUCSORG
 10
0.0
 20
0.0
 30
0.0
  9
$PUCSXDIR
 10
1.0
 20
0.0
 30
0.0
  9
$PUCSYDIR
 10
0.0
 20
1.0
 30
0.0
  9
$USERI1
 70
     0
  9
$USERI2
 70
     0
  9
$USERI3
 70
     0
  9
$USERI4
 70
     0
  9
$USERI5
 70
     0
  9
$USERR1
 40
0.0
  9
$USERR2
 40
0.0
  9
$USERR3
 40
0.0
  9
$USERR4
 40
0.0
  9
$USERR5
 40
0.0
  9
$WORLDVIEW
 70
     1
  9
$SHADEDGE
 70
     3
  9
$SHADEDIF
 70
    70
  9
$TILEMODE
 70
     1
  9
$MAXACTVP
 70
    64
  9
$PLIMCHECK
 70
     0
  9
$PEXTMIN
 10
1.000000000000000E+20
 20
1.000000000000000E+20
 30
1.000000000000000E+20
  9
$PEXTMAX
 10
-1.000000000000000E+20
 20
-1.000000000000000E+20
 30
-1.000000000000000E+20
  9
$PLIMMIN
 10
0.0
 20
0.0
  9
$PLIMMAX
 10
0.0
 20
0.0
  9
$UNITMODE
 70
     0
  9
$VISRETAIN
 70
     1
  9
$PLINEGEN
 70
     0
  9
$PSLTSCALE
 70
     1
  0
ENDSEC
  0
SECTION
  2
TABLES
  0
TABLE
  2
VPORT
 70
     1
  0
VPORT
  2
*ACTIVE
 70
     0
 10
0.0
 20
0.0
 11
1.0
 21
1.0
 12
-116.6110757937285
 22
90.81470093901666
 13
0.0
 23
0.0
 14
10.0
 24
10.0
 15
10.0
 25
10.0
 16
0.5773502691896257
 26
0.5773502691896257
 36
0.5773502691896262
 17
-41.66599977993167
 27
123.2469651304761
 37
-82.93435654674933
 40
520.5165703414254
 41
1.88293897882939
 42
50.0
 43
0.0
 44
0.0
 50
0.0
 51
360.0
 71
    16
 72
  1000
 73
     1
 74
     3
 75
     0
 76
     0
 77
     0
 78
     0
  0
ENDTAB
  0
TABLE
  2
LTYPE
 70
     1
  0
LTYPE
  2
CONTINUOUS
 70
     0
  3
Solid line
 72
    65
 73
     0
 40
0.0
  0
ENDTAB
  0
TABLE
  2
LAYER
 70
     1
  0
LAYER
  2
0
 70
     0
 62
     7
  6
CONTINUOUS
  0
ENDTAB
  0
TABLE
  2
STYLE
 70
     2
  0
STYLE
  2
STANDARD
 70
     0
 40
0.0
 41
1.0
 50
0.0
 71
     0
 42
2.5
  3
arial.ttf
  4

  0
STYLE
  2
ANNOTATIVE
 70
     0
 40
0.0
 41
1.0
 50
0.0
 71
     0
 42
2.5
  3
arial.ttf
  4

  0
ENDTAB
  0
TABLE
  2
VIEW
 70
     0
  0
ENDTAB
  0
TABLE
  2
UCS
 70
     0
  0
ENDTAB
  0
TABLE
  2
APPID
 70
     2
  0
APPID
  2
ACAD
 70
     0
  0
APPID
  2
ACADANNOTATIVE
 70
     0
  0
ENDTAB
  0
TABLE
  2
DIMSTYLE
 70
     2
  0
DIMSTYLE
  2
ISO-25
 70
     0
  3

  4

  5

  6

  7

 40
1.0
 41
2.5
 42
0.625
 43
3.75
 44
1.25
 45
0.0
 46
0.0
 47
0.0
 48
0.0
140
2.5
141
-2.5
142
0.0
143
0.03937007874016
144
1.0
145
0.0
146
1.0
147
0.625
 71
     0
 72
     0
 73
     0
 74
     0
 75
     0
 76
     0
 77
     1
 78
     8
170
     0
171
     3
172
     1
173
     0
174
     0
175
     0
176
     0
177
     0
178
     0
  0
DIMSTYLE
  2
ANNOTATIVE
 70
     0
  3

  4

  5

  6

  7

 40
0.0
 41
2.5
 42
0.625
 43
3.75
 44
1.25
 45
0.0
 46
0.0
 47
0.0
 48
0.0
140
2.5
141
-2.5
142
0.0
143
0.03937007874016
144
1.0
145
0.0
146
1.0
147
0.625
 71
     0
 72
     0
 73
     0
 74
     0
 75
     0
 76
     0
 77
     1
 78
     8
170
     0
171
     3
172
     1
173
     0
174
     0
175
     0
176
     0
177
     0
178
     0
  0
ENDTAB
  0
ENDSEC
  0
SECTION
  2
BLOCKS
  0
BLOCK
  8
0
  2
$MODEL_SPACE
 70
     0
 10
0.0
 20
0.0
 30
0.0
  3
$MODEL_SPACE
  1

  0
ENDBLK
  5
21
  8
0
  0
BLOCK
 67
     1
  8
0
  2
$PAPER_SPACE
 70
     0
 10
0.0
 20
0.0
 30
0.0
  3
$PAPER_SPACE
  1

  0
ENDBLK
  5
1D
 67
     1
  8
0
  0
BLOCK
  8
0
  2
*X1
 70
     1
 10
0.0
 20
0.0
 30
0.0
  3
*X1
  1

  0
POLYLINE
  5
DCB
  8
0
 66
     1
 10
0.0
 20
0.0
 30
0.0
 70
    64
 71
    14
 72
    12
  0
VERTEX
  5
DCC
  8
0
 10
-195.0000000000001
 20
-337.749907475931
 30
-25.0
 70
   192
  0
VERTEX
  5
DCD
  8
0
 10
-337.7499074759311
 20
-194.9999999999999
 30
-25.0
 70
   192
  0
VERTEX
  5
DCE
  8
0
 10
-337.7499074759311
 20
-194.9999999999999
 30
-10.5
 70
   192
  0
VERTEX
  5
DCF
  8
0
 10
-195.0000000000001
 20
-337.749907475931
 30
-10.5
 70
   192
  0
VERTEX
  5
DD0
  8
0
 10
337.749907475931
 20
-195.0000000000002
 30
-25.0
 70
   192
  0
VERTEX
  5
DD1
  8
0
 10
194.9999999999999
 20
-337.7499074759312
 30
-25.0
 70
   192
  0
VERTEX
  5
DD2
  8
0
 10
194.9999999999999
 20
-337.7499074759312
 30
-10.5
 70
   192
  0
VERTEX
  5
DD3
  8
0
 10
337.749907475931
 20
-195.0000000000002
 30
-10.5
 70
   192
  0
VERTEX
  5
DD4
  8
0
 10
390.0
 20
-0.0000000000002814
 30
-25.0
 70
   192
  0
VERTEX
  5
DD5
  8
0
 10
390.0
 20
-0.0000000000002814
 30
-10.5
 70
   192
  0
VERTEX
  5
DD6
  8
0
 10
-0.0000000000001515
 20
-390.0
 30
-25.0
 70
   192
  0
VERTEX
  5
DD7
  8
0
 10
-0.0000000000001515
 20
-390.0
 30
-10.5
 70
   192
  0
VERTEX
  5
DD8
  8
0
 10
-390.0
 20
0.0000000000000478
 30
-25.0
 70
   192
  0
VERTEX
  5
DD9
  8
0
 10
-390.0
 20
0.0000000000000478
 30
-10.5
 70
   192
  0
VERTEX
  5
DDA
  8
0
 10
0.0
 20
0.0
 30
0.0
 70
   128
 71
     1
 72
     2
 73
    -3
  0
VERTEX
  5
DDB
  8
0
 10
0.0
 20
0.0
 30
0.0
 70
   128
 71
     4
 72
    -1
 73
     3
  0
VERTEX
  5
DDC
  8
0
 10
0.0
 20
0.0
 30
0.0
 70
   128
 71
     5
 72
     6
 73
    -7
  0
VERTEX
  5
DDD
  8
0
 10
0.0
 20
0.0
 30
0.0
 70
   128
 71
     8
 72
    -5
 73
     7
  0
VERTEX
  5
DDE
  8
0
 10
0.0
 20
0.0
 30
0.0
 70
   128
 71
     9
 72
     5
 73
    -8
  0
VERTEX
  5
DDF
  8
0
 10
0.0
 20
0.0
 30
0.0
 70
   128
 71
    10
 72
    -9
 73
     8
  0
VERTEX
  5
DE0
  8
0
 10
0.0
 20
0.0
 30
0.0
 70
   128
 71
     6
 72
    11
 73
   -12
  0
VERTEX
  5
DE1
  8
0
 10
0.0
 20
0.0
 30
0.0
 70
   128
 71
     7
 72
    -6
 73
    12
  0
VERTEX
  5
DE2
  8
0
 10
0.0
 20
0.0
 30
0.0
 70
   128
 71
    11
 72
     1
 73
    -4
  0
VERTEX
  5
DE3
  8
0
 10
0.0
 20
0.0
 30
0.0
 70
   128
 71
    12
 72
   -11
 73
     4
  0
VERTEX
  5
DE4
  8
0
 10
0.0
 20
0.0
 30
0.0
 70
   128
 71
     2
 72
    13
 73
   -14
  0
VERTEX
  5
DE5
  8
0
 10
0.0
 20
0.0
 30
0.0
 70
   128
 71
     3
 72
    -2
 73
    14
  0
SEQEND
  5
1031
  8
0
  0
POLYLINE
  5
DE6
  8
0
 66
     1
 10
0.0
 20
0.0
 30
0.0
 70
    64
 71
    14
 72
    12
  0
VERTEX
  5
DE7
  8
0
 10
-195.0000000000001
 20
-337.749907475931
 30
-0.5
 70
   192
  0
VERTEX
  5
DE8
  8
0
 10
-337.7499074759311
 20
-194.9999999999999
 30
-0.5
 70
   192
  0
VERTEX
  5
DE9
  8
0
 10
-337.7499074759311
 20
-194.9999999999999
 30
0.0
 70
   192
  0
VERTEX
  5
DEA
  8
0
 10
-195.0000000000001
 20
-337.749907475931
 30
0.0
 70
   192
  0
VERTEX
  5
DEB
  8
0
 10
337.749907475931
 20
-195.0000000000002
 30
-0.5
 70
   192
  0
VERTEX
  5
DEC
  8
0
 10
194.9999999999999
 20
-337.7499074759312
 30
-0.5
 70
   192
  0
VERTEX
  5
DED
  8
0
 10
194.9999999999999
 20
-337.7499074759312
 30
0.0
 70
   192
  0
VERTEX
  5
DEE
  8
0
 10
337.749907475931
 20
-195.0000000000002
 30
0.0
 70
   192
  0
VERTEX
  5
DEF
  8
0
 10
390.0
 20
-0.0000000000002814
 30
-0.5
 70
   192
  0
VERTEX
  5
DF0
  8
0
 10
390.0
 20
-0.0000000000002814
 30
0.0
 70
   192
  0
VERTEX
  5
DF1
  8
0
 10
-0.0000000000001515
 20
-390.0
 30
-0.5
 70
   192
  0
VERTEX
  5
DF2
  8
0
 10
-0.0000000000001515
 20
-390.0
 30
0.0
 70
   192
  0
VERTEX
  5
DF3
  8
0
 10
-390.0
 20
0.0000000000000478
 30
-0.5
 70
   192
  0
VERTEX
  5
DF4
  8
0
 10
-390.0
 20
0.0000000000000478
 30
0.0
 70
   192
  0
VERTEX
  5
DF5
  8
0
 10
0.0
 20
0.0
 30
0.0
 70
   128
 71
     1
 72
     2
 73
    -3
  0
VERTEX
  5
DF6
  8
0
 10
0.0
 20
0.0
 30
0.0
 70
   128
 71
     4
 72
    -1
 73
     3
  0
VERTEX
  5
DF7
  8
0
 10
0.0
 20
0.0
 30
0.0
 70
   128
 71
     5
 72
     6
 73
    -7
  0
VERTEX
  5
DF8
  8
0
 10
0.0
 20
0.0
 30
0.0
 70
   128
 71
     8
 72
    -5
 73
     7
  0
VERTEX
  5
DF9
  8
0
 10
0.0
 20
0.0
 30
0.0
 70
   128
 71
     9
 72
     5
 73
    -8
  0
VERTEX
  5
DFA
  8
0
 10
0.0
 20
0.0
 30
0.0
 70
   128
 71
    10
 72
    -9
 73
     8
  0
VERTEX
  5
DFB
  8
0
 10
0.0
 20
0.0
 30
0.0
 70
   128
 71
     6
 72
    11
 73
   -12
  0
VERTEX
  5
DFC
  8
0
 10
0.0
 20
0.0
 30
0.0
 70
   128
 71
     7
 72
    -6
 73
    12
  0
VERTEX
  5
DFD
  8
0
 10
0.0
 20
0.0
 30
0.0
 70
   128
 71
    11
 72
     1
 73
    -4
  0
VERTEX
  5
DFE
  8
0
 10
0.0
 20
0.0
 30
0.0
 70
   128
 71
    12
 72
   -11
 73
     4
  0
VERTEX
  5
DFF
  8
0
 10
0.0
 20
0.0
 30
0.0
 70
   128
 71
     2
 72
    13
 73
   -14
  0
VERTEX
  5
E00
  8
0
 10
0.0
 20
0.0
 30
0.0
 70
   128
 71
     3
 72
    -2
 73
    14
  0
SEQEND
  5
1032
  8
0
  0
POLYLINE
  5
E01
  8
0
 66
     1
 10
0.0
 20
0.0
 30
0.0
 70
    64
 71
    14
 72
    12
  0
VERTEX
  5
E02
  8
0
 10
346.4101615137755
 20
200.0
 30
0.0
 70
   192
  0
VERTEX
  5
E03
  8
0
 10
346.4101615137755
 20
200.0
 30
-25.0
 70
   192
  0
VERTEX
  5
E04
  8
0
 10
200.0000000000001
 20
346.4101615137754
 30
-25.0
 70
   192
  0
VERTEX
  5
E05
  8
0
 10
200.0000000000001
 20
346.4101615137754
 30
0.0
 70
   192
  0
VERTEX
  5
E06
  8
0
 10
-199.9999999999999
 20
346.4101615137755
 30
0.0
 70
   192
  0
VERTEX
  5
E07
  8
0
 10
-199.9999999999999
 20
346.4101615137755
 30
-25.0
 70
   192
  0
VERTEX
  5
E08
  8
0
 10
-346.4101615137754
 20
200.0000000000002
 30
-25.0
 70
   192
  0
VERTEX
  5
E09
  8
0
 10
-346.4101615137754
 20
200.0000000000002
 30
0.0
 70
   192
  0
VERTEX
  5
E0A
  8
0
 10
-400.0
 20
0.000000000000222
 30
-25.0
 70
   192
  0
VERTEX
  5
E0B
  8
0
 10
-400.0
 20
0.000000000000049
 30
0.0
 70
   192
  0
VERTEX
  5
E0C
  8
0
 10
0.000000000000111
 20
400.0
 30
0.0
 70
   192
  0
VERTEX
  5
E0D
  8
0
 10
0.000000000000111
 20
400.0
 30
-25.0
 70
   192
  0
VERTEX
  5
E0E
  8
0
 10
400.0
 20
0.0
 30
0.0
 70
   192
  0
VERTEX
  5
E0F
  8
0
 10
400.0
 20
0.0
 30
-25.0
 70
   192
  0
VERTEX
  5
E10
  8
0
 10
0.0
 20
0.0
 30
0.0
 70
   128
 71
     1
 72
     2
 73
    -3
  0
VERTEX
  5
E11
  8
0
 10
0.0
 20
0.0
 30
0.0
 70
   128
 71
    -1
 72
     3
 73
     4
  0
VERTEX
  5
E12
  8
0
 10
0.0
 20
0.0
 30
0.0
 70
   128
 71
     5
 72
     6
 73
    -7
  0
VERTEX
  5
E13
  8
0
 10
0.0
 20
0.0
 30
0.0
 70
   128
 71
    -5
 72
     7
 73
     8
  0
VERTEX
  5
E14
  8
0
 10
0.0
 20
0.0
 30
0.0
 70
   128
 71
     8
 72
     7
 73
    -9
  0
VERTEX
  5
E15
  8
0
 10
0.0
 20
0.0
 30
0.0
 70
   128
 71
    -8
 72
     9
 73
    10
  0
VERTEX
  5
E16
  8
0
 10
0.0
 20
0.0
 30
0.0
 70
   128
 71
    11
 72
    12
 73
    -6
  0
VERTEX
  5
E17
  8
0
 10
0.0
 20
0.0
 30
0.0
 70
   128
 71
   -11
 72
     6
 73
     5
  0
VERTEX
  5
E18
  8
0
 10
0.0
 20
0.0
 30
0.0
 70
   128
 71
     4
 72
     3
 73
   -12
  0
VERTEX
  5
E19
  8
0
 10
0.0
 20
0.0
 30
0.0
 70
   128
 71
    -4
 72
    12
 73
    11
  0
VERTEX
  5
E1A
  8
0
 10
0.0
 20
0.0
 30
0.0
 70
   128
 71
    13
 72
    14
 73
    -2
  0
VERTEX
  5
E1B
  8
0
 10
0.0
 20
0.0
 30
0.0
 70
   128
 71
   -13
 72
     2
 73
     1
  0
SEQEND
  5
1033
  8
0
  0
POLYLINE
  5
E1C
  8
0
 66
     1
 10
0.0
 20
0.0
 30
0.0
 70
    64
 71
    14
 72
    12
  0
VERTEX
  5
E1D
  8
0
 10
-346.4101615137755
 20
-199.9999999999999
 30
0.0
 70
   192
  0
VERTEX
  5
E1E
  8
0
 10
-346.4101615137755
 20
-199.9999999999999
 30
-25.0
 70
   192
  0
VERTEX
  5
E1F
  8
0
 10
-200.0000000000001
 20
-346.4101615137754
 30
-25.0
 70
   192
  0
VERTEX
  5
E20
  8
0
 10
-200.0000000000001
 20
-346.4101615137754
 30
0.0
 70
   192
  0
VERTEX
  5
E21
  8
0
 10
199.9999999999999
 20
-346.4101615137756
 30
0.0
 70
   192
  0
VERTEX
  5
E22
  8
0
 10
199.9999999999999
 20
-346.4101615137756
 30
-25.0
 70
   192
  0
VERTEX
  5
E23
  8
0
 10
346.4101615137753
 20
-200.0000000000002
 30
-25.0
 70
   192
  0
VERTEX
  5
E24
  8
0
 10
346.4101615137753
 20
-200.0000000000002
 30
0.0
 70
   192
  0
VERTEX
  5
E25
  8
0
 10
400.0
 20
-0.0000000000002887
 30
-25.0
 70
   192
  0
VERTEX
  5
E26
  8
0
 10
400.0
 20
0.0
 30
0.0
 70
   192
  0
VERTEX
  5
E27
  8
0
 10
-0.0000000000001554
 20
-400.0
 30
0.0
 70
   192
  0
VERTEX
  5
E28
  8
0
 10
-0.0000000000001554
 20
-400.0
 30
-25.0
 70
   192
  0
VERTEX
  5
E29
  8
0
 10
-400.0
 20
0.000000000000049
 30
0.0
 70
   192
  0
VERTEX
  5
E2A
  8
0
 10
-400.0
 20
0.000000000000049
 30
-25.0
 70
   192
  0
VERTEX
  5
E2B
  8
0
 10
0.0
 20
0.0
 30
0.0
 70
   128
 71
     1
 72
     2
 73
    -3
  0
VERTEX
  5
E2C
  8
0
 10
0.0
 20
0.0
 30
0.0
 70
   128
 71
    -1
 72
     3
 73
     4
  0
VERTEX
  5
E2D
  8
0
 10
0.0
 20
0.0
 30
0.0
 70
   128
 71
     5
 72
     6
 73
    -7
  0
VERTEX
  5
E2E
  8
0
 10
0.0
 20
0.0
 30
0.0
 70
   128
 71
    -5
 72
     7
 73
     8
  0
VERTEX
  5
E2F
  8
0
 10
0.0
 20
0.0
 30
0.0
 70
   128
 71
     8
 72
     7
 73
    -9
  0
VERTEX
  5
E30
  8
0
 10
0.0
 20
0.0
 30
0.0
 70
   128
 71
    -8
 72
     9
 73
    10
  0
VERTEX
  5
E31
  8
0
 10
0.0
 20
0.0
 30
0.0
 70
   128
 71
    11
 72
    12
 73
    -6
  0
VERTEX
  5
E32
  8
0
 10
0.0
 20
0.0
 30
0.0
 70
   128
 71
   -11
 72
     6
 73
     5
  0
VERTEX
  5
E33
  8
0
 10
0.0
 20
0.0
 30
0.0
 70
   128
 71
     4
 72
     3
 73
   -12
  0
VERTEX
  5
E34
  8
0
 10
0.0
 20
0.0
 30
0.0
 70
   128
 71
    -4
 72
    12
 73
    11
  0
VERTEX
  5
E35
  8
0
 10
0.0
 20
0.0
 30
0.0
 70
   128
 71
    13
 72
    14
 73
    -2
  0
VERTEX
  5
E36
  8
0
 10
0.0
 20
0.0
 30
0.0
 70
   128
 71
   -13
 72
     2
 73
     1
  0
SEQEND
  5
1034
  8
0
  0
POLYLINE
  5
E37
  8
0
 66
     1
 10
0.0
 20
0.0
 30
0.0
 70
    64
 71
    24
 72
    24
  0
VERTEX
  5
E38
  8
0
 10
-400.0
 20
0.000000000000049
 30
-25.0
 70
   192
  0
VERTEX
  5
E39
  8
0
 10
-346.4101615137755
 20
-199.9999999999999
 30
-25.0
 70
   192
  0
VERTEX
  5
E3A
  8
0
 10
-200.0000000000001
 20
-346.4101615137754
 30
-25.0
 70
   192
  0
VERTEX
  5
E3B
  8
0
 10
-0.0000000000001554
 20
-400.0
 30
-25.0
 70
   192
  0
VERTEX
  5
E3C
  8
0
 10
199.9999999999999
 20
-346.4101615137756
 30
-25.0
 70
   192
  0
VERTEX
  5
E3D
  8
0
 10
346.4101615137753
 20
-200.0000000000002
 30
-25.0
 70
   192
  0
VERTEX
  5
E3E
  8
0
 10
400.0
 20
0.0
 30
-25.0
 70
   192
  0
VERTEX
  5
E3F
  8
0
 10
346.4101615137755
 20
200.0
 30
-25.0
 70
   192
  0
VERTEX
  5
E40
  8
0
 10
200.0000000000001
 20
346.4101615137754
 30
-25.0
 70
   192
  0
VERTEX
  5
E41
  8
0
 10
0.000000000000111
 20
400.0
 30
-25.0
 70
   192
  0
VERTEX
  5
E42
  8
0
 10
-199.9999999999999
 20
346.4101615137755
 30
-25.0
 70
   192
  0
VERTEX
  5
E43
  8
0
 10
-346.4101615137754
 20
200.0000000000002
 30
-25.0
 70
   192
  0
VERTEX
  5
E44
  8
0
 10
390.0
 20
-0.0000000000002814
 30
-25.0
 70
   192
  0
VERTEX
  5
E45
  8
0
 10
337.749907475931
 20
-195.0000000000002
 30
-25.0
 70
   192
  0
VERTEX
  5
E46
  8
0
 10
194.9999999999999
 20
-337.7499074759312
 30
-25.0
 70
   192
  0
VERTEX
  5
E47
  8
0
 10
-0.0000000000001515
 20
-390.0
 30
-25.0
 70
   192
  0
VERTEX
  5
E48
  8
0
 10
-195.0000000000001
 20
-337.749907475931
 30
-25.0
 70
   192
  0
VERTEX
  5
E49
  8
0
 10
-337.7499074759311
 20
-194.9999999999999
 30
-25.0
 70
   192
  0
VERTEX
  5
E4A
  8
0
 10
-390.0
 20
0.0000000000002165
 30
-25.0
 70
   192
  0
VERTEX
  5
E4B
  8
0
 10
-337.749907475931
 20
195.0000000000002
 30
-25.0
 70
   192
  0
VERTEX
  5
E4C
  8
0
 10
-194.9999999999999
 20
337.7499074759311
 30
-25.0
 70
   192
  0
VERTEX
  5
E4D
  8
0
 10
0.0000000000001082
 20
390.0
 30
-25.0
 70
   192
  0
VERTEX
  5
E4E
  8
0
 10
195.0000000000001
 20
337.749907475931
 30
-25.0
 70
   192
  0
VERTEX
  5
E4F
  8
0
 10
337.7499074759311
 20
195.0
 30
-25.0
 70
   192
  0
VERTEX
  5
E50
  8
0
 10
0.0
 20
0.0
 30
0.0
 70
   128
 71
    14
 72
   -13
 73
    -7
  0
VERTEX
  5
E51
  8
0
 10
0.0
 20
0.0
 30
0.0
 70
   128
 71
   -14
 72
     7
 73
    -6
  0
VERTEX
  5
E52
  8
0
 10
0.0
 20
0.0
 30
0.0
 70
   128
 71
     6
 72
    -5
 73
   -15
  0
VERTEX
  5
E53
  8
0
 10
0.0
 20
0.0
 30
0.0
 70
   128
 71
    -6
 72
    15
 73
   -14
  0
VERTEX
  5
E54
  8
0
 10
0.0
 20
0.0
 30
0.0
 70
   128
 71
     5
 72
    -4
 73
   -16
  0
VERTEX
  5
E55
  8
0
 10
0.0
 20
0.0
 30
0.0
 70
   128
 71
    -5
 72
    16
 73
   -15
  0
VERTEX
  5
E56
  8
0
 10
0.0
 20
0.0
 30
0.0
 70
   128
 71
     4
 72
    -3
 73
   -17
  0
VERTEX
  5
E57
  8
0
 10
0.0
 20
0.0
 30
0.0
 70
   128
 71
    -4
 72
    17
 73
   -16
  0
VERTEX
  5
E58
  8
0
 10
0.0
 20
0.0
 30
0.0
 70
   128
 71
     3
 72
    -2
 73
   -18
  0
VERTEX
  5
E59
  8
0
 10
0.0
 20
0.0
 30
0.0
 70
   128
 71
    -3
 72
    18
 73
   -17
  0
VERTEX
  5
E5A
  8
0
 10
0.0
 20
0.0
 30
0.0
 70
   128
 71
     2
 72
    -1
 73
   -19
  0
VERTEX
  5
E5B
  8
0
 10
0.0
 20
0.0
 30
0.0
 70
   128
 71
    -2
 72
    19
 73
   -18
  0
VERTEX
  5
E5C
  8
0
 10
0.0
 20
0.0
 30
0.0
 70
   128
 71
     1
 72
   -12
 73
   -20
  0
VERTEX
  5
E5D
  8
0
 10
0.0
 20
0.0
 30
0.0
 70
   128
 71
    -1
 72
    20
 73
   -19
  0
VERTEX
  5
E5E
  8
0
 10
0.0
 20
0.0
 30
0.0
 70
   128
 71
    12
 72
   -11
 73
   -21
  0
VERTEX
  5
E5F
  8
0
 10
0.0
 20
0.0
 30
0.0
 70
   128
 71
   -12
 72
    21
 73
   -20
  0
VERTEX
  5
E60
  8
0
 10
0.0
 20
0.0
 30
0.0
 70
   128
 71
    11
 72
   -10
 73
   -22
  0
VERTEX
  5
E61
  8
0
 10
0.0
 20
0.0
 30
0.0
 70
   128
 71
   -11
 72
    22
 73
   -21
  0
VERTEX
  5
E62
  8
0
 10
0.0
 20
0.0
 30
0.0
 70
   128
 71
    10
 72
    -9
 73
   -23
  0
VERTEX
  5
E63
  8
0
 10
0.0
 20
0.0
 30
0.0
 70
   128
 71
   -10
 72
    23
 73
   -22
  0
VERTEX
  5
E64
  8
0
 10
0.0
 20
0.0
 30
0.0
 70
   128
 71
     9
 72
    -8
 73
   -24
  0
VERTEX
  5
E65
  8
0
 10
0.0
 20
0.0
 30
0.0
 70
   128
 71
    -9
 72
    24
 73
   -23
  0
VERTEX
  5
E66
  8
0
 10
0.0
 20
0.0
 30
0.0
 70
   128
 71
     8
 72
    -7
 73
   -13
  0
VERTEX
  5
E67
  8
0
 10
0.0
 20
0.0
 30
0.0
 70
   128
 71
    -8
 72
    13
 73
   -24
  0
SEQEND
  5
1035
  8
0
  0
POLYLINE
  5
E68
  8
0
 66
     1
 10
0.0
 20
0.0
 30
0.0
 70
    64
 71
    24
 72
    24
  0
VERTEX
  5
E69
  8
0
 10
400.0
 20
0.0
 30
0.0
 70
   192
  0
VERTEX
  5
E6A
  8
0
 10
346.4101615137755
 20
200.0
 30
0.0
 70
   192
  0
VERTEX
  5
E6B
  8
0
 10
200.0000000000001
 20
346.4101615137754
 30
0.0
 70
   192
  0
VERTEX
  5
E6C
  8
0
 10
0.000000000000111
 20
400.0
 30
0.0
 70
   192
  0
VERTEX
  5
E6D
  8
0
 10
-199.9999999999999
 20
346.4101615137755
 30
0.0
 70
   192
  0
VERTEX
  5
E6E
  8
0
 10
-346.4101615137754
 20
200.0000000000002
 30
0.0
 70
   192
  0
VERTEX
  5
E6F
  8
0
 10
-400.0
 20
0.000000000000222
 30
0.0
 70
   192
  0
VERTEX
  5
E70
  8
0
 10
-346.4101615137755
 20
-199.9999999999999
 30
0.0
 70
   192
  0
VERTEX
  5
E71
  8
0
 10
-200.0000000000001
 20
-346.4101615137754
 30
0.0
 70
   192
  0
VERTEX
  5
E72
  8
0
 10
-0.0000000000001554
 20
-400.0
 30
0.0
 70
   192
  0
VERTEX
  5
E73
  8
0
 10
199.9999999999999
 20
-346.4101615137756
 30
0.0
 70
   192
  0
VERTEX
  5
E74
  8
0
 10
346.4101615137753
 20
-200.0000000000002
 30
0.0
 70
   192
  0
VERTEX
  5
E75
  8
0
 10
-390.0
 20
0.0000000000002165
 30
0.0
 70
   192
  0
VERTEX
  5
E76
  8
0
 10
-337.749907475931
 20
195.0000000000002
 30
0.0
 70
   192
  0
VERTEX
  5
E77
  8
0
 10
-194.9999999999999
 20
337.7499074759311
 30
0.0
 70
   192
  0
VERTEX
  5
E78
  8
0
 10
0.0000000000001082
 20
390.0
 30
0.0
 70
   192
  0
VERTEX
  5
E79
  8
0
 10
195.0000000000001
 20
337.749907475931
 30
0.0
 70
   192
  0
VERTEX
  5
E7A
  8
0
 10
337.7499074759311
 20
195.0
 30
0.0
 70
   192
  0
VERTEX
  5
E7B
  8
0
 10
390.0
 20
0.0
 30
0.0
 70
   192
  0
VERTEX
  5
E7C
  8
0
 10
337.749907475931
 20
-195.0000000000002
 30
0.0
 70
   192
  0
VERTEX
  5
E7D
  8
0
 10
194.9999999999999
 20
-337.7499074759312
 30
0.0
 70
   192
  0
VERTEX
  5
E7E
  8
0
 10
-0.0000000000001515
 20
-390.0
 30
0.0
 70
   192
  0
VERTEX
  5
E7F
  8
0
 10
-195.0000000000001
 20
-337.749907475931
 30
0.0
 70
   192
  0
VERTEX
  5
E80
  8
0
 10
-337.7499074759311
 20
-194.9999999999999
 30
0.0
 70
   192
  0
VERTEX
  5
E81
  8
0
 10
0.0
 20
0.0
 30
0.0
 70
   128
 71
    -7
 72
    13
 73
   -14
  0
VERTEX
  5
E82
  8
0
 10
0.0
 20
0.0
 30
0.0
 70
   128
 71
     6
 72
    -7
 73
   -14
  0
VERTEX
  5
E83
  8
0
 10
0.0
 20
0.0
 30
0.0
 70
   128
 71
   -15
 72
     5
 73
    -6
  0
VERTEX
  5
E84
  8
0
 10
0.0
 20
0.0
 30
0.0
 70
   128
 71
    14
 72
   -15
 73
    -6
  0
VERTEX
  5
E85
  8
0
 10
0.0
 20
0.0
 30
0.0
 70
   128
 71
   -16
 72
     4
 73
    -5
  0
VERTEX
  5
E86
  8
0
 10
0.0
 20
0.0
 30
0.0
 70
   128
 71
    15
 72
   -16
 73
    -5
  0
VERTEX
  5
E87
  8
0
 10
0.0
 20
0.0
 30
0.0
 70
   128
 71
   -17
 72
     3
 73
    -4
  0
VERTEX
  5
E88
  8
0
 10
0.0
 20
0.0
 30
0.0
 70
   128
 71
    16
 72
   -17
 73
    -4
  0
VERTEX
  5
E89
  8
0
 10
0.0
 20
0.0
 30
0.0
 70
   128
 71
   -18
 72
     2
 73
    -3
  0
VERTEX
  5
E8A
  8
0
 10
0.0
 20
0.0
 30
0.0
 70
   128
 71
    17
 72
   -18
 73
    -3
  0
VERTEX
  5
E8B
  8
0
 10
0.0
 20
0.0
 30
0.0
 70
   128
 71
   -19
 72
     1
 73
    -2
  0
VERTEX
  5
E8C
  8
0
 10
0.0
 20
0.0
 30
0.0
 70
   128
 71
    18
 72
   -19
 73
    -2
  0
VERTEX
  5
E8D
  8
0
 10
0.0
 20
0.0
 30
0.0
 70
   128
 71
   -20
 72
    12
 73
    -1
  0
VERTEX
  5
E8E
  8
0
 10
0.0
 20
0.0
 30
0.0
 70
   128
 71
    19
 72
   -20
 73
    -1
  0
VERTEX
  5
E8F
  8
0
 10
0.0
 20
0.0
 30
0.0
 70
   128
 71
   -21
 72
    11
 73
   -12
  0
VERTEX
  5
E90
  8
0
 10
0.0
 20
0.0
 30
0.0
 70
   128
 71
    20
 72
   -21
 73
   -12
  0
VERTEX
  5
E91
  8
0
 10
0.0
 20
0.0
 30
0.0
 70
   128
 71
   -22
 72
    10
 73
   -11
  0
VERTEX
  5
E92
  8
0
 10
0.0
 20
0.0
 30
0.0
 70
   128
 71
    21
 72
   -22
 73
   -11
  0
VERTEX
  5
E93
  8
0
 10
0.0
 20
0.0
 30
0.0
 70
   128
 71
   -23
 72
     9
 73
   -10
  0
VERTEX
  5
E94
  8
0
 10
0.0
 20
0.0
 30
0.0
 70
   128
 71
    22
 72
   -23
 73
   -10
  0
VERTEX
  5
E95
  8
0
 10
0.0
 20
0.0
 30
0.0
 70
   128
 71
   -24
 72
     8
 73
    -9
  0
VERTEX
  5
E96
  8
0
 10
0.0
 20
0.0
 30
0.0
 70
   128
 71
    23
 72
   -24
 73
    -9
  0
VERTEX
  5
E97
  8
0
 10
0.0
 20
0.0
 30
0.0
 70
   128
 71
   -13
 72
     7
 73
    -8
  0
VERTEX
  5
E98
  8
0
 10
0.0
 20
0.0
 30
0.0
 70
   128
 71
    24
 72
   -13
 73
    -8
  0
SEQEND
  5
1036
  8
0
  0
POLYLINE
  5
E99
  8
0
 66
     1
 10
0.0
 20
0.0
 30
0.0
 70
    64
 71
    14
 72
    12
  0
VERTEX
  5
E9A
  8
0
 10
195.0000000000001
 20
337.749907475931
 30
-0.5
 70
   192
  0
VERTEX
  5
E9B
  8
0
 10
337.7499074759311
 20
195.0
 30
-0.5
 70
   192
  0
VERTEX
  5
E9C
  8
0
 10
337.7499074759311
 20
195.0
 30
0.0
 70
   192
  0
VERTEX
  5
E9D
  8
0
 10
195.0000000000001
 20
337.749907475931
 30
0.0
 70
   192
  0
VERTEX
  5
E9E
  8
0
 10
-337.749907475931
 20
195.0000000000002
 30
-0.5
 70
   192
  0
VERTEX
  5
E9F
  8
0
 10
-194.9999999999999
 20
337.7499074759311
 30
-0.5
 70
   192
  0
VERTEX
  5
EA0
  8
0
 10
-194.9999999999999
 20
337.7499074759311
 30
0.0
 70
   192
  0
VERTEX
  5
EA1
  8
0
 10
-337.749907475931
 20
195.0000000000002
 30
0.0
 70
   192
  0
VERTEX
  5
EA2
  8
0
 10
-390.0
 20
0.0000000000000478
 30
-0.5
 70
   192
  0
VERTEX
  5
EA3
  8
0
 10
-390.0
 20
0.0000000000000478
 30
0.0
 70
   192
  0
VERTEX
  5
EA4
  8
0
 10
0.0000000000001082
 20
390.0
 30
-0.5
 70
   192
  0
VERTEX
  5
EA5
  8
0
 10
0.0000000000001082
 20
390.0
 30
0.0
 70
   192
  0
VERTEX
  5
EA6
  8
0
 10
390.0
 20
0.0
 30
-0.5
 70
   192
  0
VERTEX
  5
EA7
  8
0
 10
390.0
 20
0.0
 30
0.0
 70
   192
  0
VERTEX
  5
EA8
  8
0
 10
0.0
 20
0.0
 30
0.0
 70
   128
 71
     1
 72
     2
 73
    -3
  0
VERTEX
  5
EA9
  8
0
 10
0.0
 20
0.0
 30
0.0
 70
   128
 71
     4
 72
    -1
 73
     3
  0
VERTEX
  5
EAA
  8
0
 10
0.0
 20
0.0
 30
0.0
 70
   128
 71
     5
 72
     6
 73
    -7
  0
VERTEX
  5
EAB
  8
0
 10
0.0
 20
0.0
 30
0.0
 70
   128
 71
     8
 72
    -5
 73
     7
  0
VERTEX
  5
EAC
  8
0
 10
0.0
 20
0.0
 30
0.0
 70
   128
 71
     9
 72
     5
 73
    -8
  0
VERTEX
  5
EAD
  8
0
 10
0.0
 20
0.0
 30
0.0
 70
   128
 71
    10
 72
    -9
 73
     8
  0
VERTEX
  5
EAE
  8
0
 10
0.0
 20
0.0
 30
0.0
 70
   128
 71
     6
 72
    11
 73
   -12
  0
VERTEX
  5
EAF
  8
0
 10
0.0
 20
0.0
 30
0.0
 70
   128
 71
     7
 72
    -6
 73
    12
  0
VERTEX
  5
EB0
  8
0
 10
0.0
 20
0.0
 30
0.0
 70
   128
 71
    11
 72
     1
 73
    -4
  0
VERTEX
  5
EB1
  8
0
 10
0.0
 20
0.0
 30
0.0
 70
   128
 71
    12
 72
   -11
 73
     4
  0
VERTEX
  5
EB2
  8
0
 10
0.0
 20
0.0
 30
0.0
 70
   128
 71
     2
 72
    13
 73
   -14
  0
VERTEX
  5
EB3
  8
0
 10
0.0
 20
0.0
 30
0.0
 70
   128
 71
     3
 72
    -2
 73
    14
  0
SEQEND
  5
1037
  8
0
  0
POLYLINE
  5
EB4
  8
0
 66
     1
 10
0.0
 20
0.0
 30
0.0
 70
    64
 71
    12
 72
    10
  0
VERTEX
  5
EB5
  8
0
 10
390.0
 20
0.0
 30
-0.5
 70
   192
  0
VERTEX
  5
EB6
  8
0
 10
337.7499074759311
 20
195.0
 30
-0.5
 70
   192
  0
VERTEX
  5
EB7
  8
0
 10
195.0000000000001
 20
337.749907475931
 30
-0.5
 70
   192
  0
VERTEX
  5
EB8
  8
0
 10
0.0000000000001082
 20
390.0
 30
-0.5
 70
   192
  0
VERTEX
  5
EB9
  8
0
 10
-194.9999999999999
 20
337.7499074759311
 30
-0.5
 70
   192
  0
VERTEX
  5
EBA
  8
0
 10
-337.749907475931
 20
195.0000000000002
 30
-0.5
 70
   192
  0
VERTEX
  5
EBB
  8
0
 10
-390.0
 20
0.0000000000002165
 30
-0.5
 70
   192
  0
VERTEX
  5
EBC
  8
0
 10
-337.7499074759311
 20
-194.9999999999999
 30
-0.5
 70
   192
  0
VERTEX
  5
EBD
  8
0
 10
-195.0000000000001
 20
-337.749907475931
 30
-0.5
 70
   192
  0
VERTEX
  5
EBE
  8
0
 10
-0.0000000000001515
 20
-390.0
 30
-0.5
 70
   192
  0
VERTEX
  5
EBF
  8
0
 10
194.9999999999999
 20
-337.7499074759312
 30
-0.5
 70
   192
  0
VERTEX
  5
EC0
  8
0
 10
337.749907475931
 20
-195.0000000000002
 30
-0.5
 70
   192
  0
VERTEX
  5
EC1
  8
0
 10
0.0
 20
0.0
 30
0.0
 70
   128
 71
    11
 72
    12
 73
    -1
  0
VERTEX
  5
EC2
  8
0
 10
0.0
 20
0.0
 30
0.0
 70
   128
 71
    10
 72
   -11
 73
    -1
  0
VERTEX
  5
EC3
  8
0
 10
0.0
 20
0.0
 30
0.0
 70
   128
 71
     9
 72
   -10
 73
    -1
  0
VERTEX
  5
EC4
  8
0
 10
0.0
 20
0.0
 30
0.0
 70
   128
 71
     8
 72
    -9
 73
    -1
  0
VERTEX
  5
EC5
  8
0
 10
0.0
 20
0.0
 30
0.0
 70
   128
 71
     7
 72
    -8
 73
    -1
  0
VERTEX
  5
EC6
  8
0
 10
0.0
 20
0.0
 30
0.0
 70
   128
 71
     6
 72
    -7
 73
    -1
  0
VERTEX
  5
EC7
  8
0
 10
0.0
 20
0.0
 30
0.0
 70
   128
 71
     5
 72
    -6
 73
    -1
  0
VERTEX
  5
EC8
  8
0
 10
0.0
 20
0.0
 30
0.0
 70
   128
 71
     4
 72
    -5
 73
    -1
  0
VERTEX
  5
EC9
  8
0
 10
0.0
 20
0.0
 30
0.0
 70
   128
 71
     3
 72
    -4
 73
    -1
  0
VERTEX
  5
ECA
  8
0
 10
0.0
 20
0.0
 30
0.0
 70
   128
 71
     2
 72
    -3
 73
     1
  0
SEQEND
  5
1038
  8
0
  0
POLYLINE
  5
ECB
  8
0
 66
     1
 10
0.0
 20
0.0
 30
0.0
 70
    64
 71
    12
 72
    10
  0
VERTEX
  5
ECC
  8
0
 10
-390.0
 20
0.0000000000000478
 30
-10.5
 70
   192
  0
VERTEX
  5
ECD
  8
0
 10
-337.7499074759311
 20
-194.9999999999999
 30
-10.5
 70
   192
  0
VERTEX
  5
ECE
  8
0
 10
-195.0000000000001
 20
-337.749907475931
 30
-10.5
 70
   192
  0
VERTEX
  5
ECF
  8
0
 10
-0.0000000000001515
 20
-390.0
 30
-10.5
 70
   192
  0
VERTEX
  5
ED0
  8
0
 10
194.9999999999999
 20
-337.7499074759312
 30
-10.5
 70
   192
  0
VERTEX
  5
ED1
  8
0
 10
337.749907475931
 20
-195.0000000000002
 30
-10.5
 70
   192
  0
VERTEX
  5
ED2
  8
0
 10
390.0
 20
0.0
 30
-10.5
 70
   192
  0
VERTEX
  5
ED3
  8
0
 10
337.7499074759311
 20
195.0
 30
-10.5
 70
   192
  0
VERTEX
  5
ED4
  8
0
 10
195.0000000000001
 20
337.749907475931
 30
-10.5
 70
   192
  0
VERTEX
  5
ED5
  8
0
 10
0.0000000000001082
 20
390.0
 30
-10.5
 70
   192
  0
VERTEX
  5
ED6
  8
0
 10
-194.9999999999999
 20
337.7499074759311
 30
-10.5
 70
   192
  0
VERTEX
  5
ED7
  8
0
 10
-337.749907475931
 20
195.0000000000002
 30
-10.5
 70
   192
  0
VERTEX
  5
ED8
  8
0
 10
0.0
 20
0.0
 30
0.0
 70
   128
 71
     1
 72
    12
 73
   -11
  0
VERTEX
  5
ED9
  8
0
 10
0.0
 20
0.0
 30
0.0
 70
   128
 71
    -1
 72
    11
 73
   -10
  0
VERTEX
  5
EDA
  8
0
 10
0.0
 20
0.0
 30
0.0
 70
   128
 71
    -1
 72
    10
 73
    -9
  0
VERTEX
  5
EDB
  8
0
 10
0.0
 20
0.0
 30
0.0
 70
   128
 71
    -1
 72
     9
 73
    -8
  0
VERTEX
  5
EDC
  8
0
 10
0.0
 20
0.0
 30
0.0
 70
   128
 71
    -1
 72
     8
 73
    -7
  0
VERTEX
  5
EDD
  8
0
 10
0.0
 20
0.0
 30
0.0
 70
   128
 71
    -1
 72
     7
 73
    -6
  0
VERTEX
  5
EDE
  8
0
 10
0.0
 20
0.0
 30
0.0
 70
   128
 71
    -1
 72
     6
 73
    -5
  0
VERTEX
  5
EDF
  8
0
 10
0.0
 20
0.0
 30
0.0
 70
   128
 71
    -1
 72
     5
 73
    -4
  0
VERTEX
  5
EE0
  8
0
 10
0.0
 20
0.0
 30
0.0
 70
   128
 71
    -1
 72
     4
 73
    -3
  0
VERTEX
  5
EE1
  8
0
 10
0.0
 20
0.0
 30
0.0
 70
   128
 71
    -1
 72
     3
 73
     2
  0
SEQEND
  5
1039
  8
0
  0
POLYLINE
  5
EE2
  8
0
 66
     1
 10
0.0
 20
0.0
 30
0.0
 70
    64
 71
    14
 72
    12
  0
VERTEX
  5
EE3
  8
0
 10
195.0000000000001
 20
337.749907475931
 30
-25.0
 70
   192
  0
VERTEX
  5
EE4
  8
0
 10
337.7499074759311
 20
195.0
 30
-25.0
 70
   192
  0
VERTEX
  5
EE5
  8
0
 10
337.7499074759311
 20
195.0
 30
-10.5
 70
   192
  0
VERTEX
  5
EE6
  8
0
 10
195.0000000000001
 20
337.749907475931
 30
-10.5
 70
   192
  0
VERTEX
  5
EE7
  8
0
 10
-337.749907475931
 20
195.0000000000002
 30
-25.0
 70
   192
  0
VERTEX
  5
EE8
  8
0
 10
-194.9999999999999
 20
337.7499074759311
 30
-25.0
 70
   192
  0
VERTEX
  5
EE9
  8
0
 10
-194.9999999999999
 20
337.7499074759311
 30
-10.5
 70
   192
  0
VERTEX
  5
EEA
  8
0
 10
-337.749907475931
 20
195.0000000000002
 30
-10.5
 70
   192
  0
VERTEX
  5
EEB
  8
0
 10
-390.0
 20
0.0000000000000478
 30
-25.0
 70
   192
  0
VERTEX
  5
EEC
  8
0
 10
-390.0
 20
0.0000000000000478
 30
-10.5
 70
   192
  0
VERTEX
  5
EED
  8
0
 10
0.0000000000001082
 20
390.0
 30
-25.0
 70
   192
  0
VERTEX
  5
EEE
  8
0
 10
0.0000000000001082
 20
390.0
 30
-10.5
 70
   192
  0
VERTEX
  5
EEF
  8
0
 10
390.0
 20
0.0
 30
-25.0
 70
   192
  0
VERTEX
  5
EF0
  8
0
 10
390.0
 20
0.0
 30
-10.5
 70
   192
  0
VERTEX
  5
EF1
  8
0
 10
0.0
 20
0.0
 30
0.0
 70
   128
 71
     1
 72
     2
 73
    -3
  0
VERTEX
  5
EF2
  8
0
 10
0.0
 20
0.0
 30
0.0
 70
   128
 71
     4
 72
    -1
 73
     3
  0
VERTEX
  5
EF3
  8
0
 10
0.0
 20
0.0
 30
0.0
 70
   128
 71
     5
 72
     6
 73
    -7
  0
VERTEX
  5
EF4
  8
0
 10
0.0
 20
0.0
 30
0.0
 70
   128
 71
     8
 72
    -5
 73
     7
  0
VERTEX
  5
EF5
  8
0
 10
0.0
 20
0.0
 30
0.0
 70
   128
 71
     9
 72
     5
 73
    -8
  0
VERTEX
  5
EF6
  8
0
 10
0.0
 20
0.0
 30
0.0
 70
   128
 71
    10
 72
    -9
 73
     8
  0
VERTEX
  5
EF7
  8
0
 10
0.0
 20
0.0
 30
0.0
 70
   128
 71
     6
 72
    11
 73
   -12
  0
VERTEX
  5
EF8
  8
0
 10
0.0
 20
0.0
 30
0.0
 70
   128
 71
     7
 72
    -6
 73
    12
  0
VERTEX
  5
EF9
  8
0
 10
0.0
 20
0.0
 30
0.0
 70
   128
 71
    11
 72
     1
 73
    -4
  0
VERTEX
  5
EFA
  8
0
 10
0.0
 20
0.0
 30
0.0
 70
   128
 71
    12
 72
   -11
 73
     4
  0
VERTEX
  5
EFB
  8
0
 10
0.0
 20
0.0
 30
0.0
 70
   128
 71
     2
 72
    13
 73
   -14
  0
VERTEX
  5
EFC
  8
0
 10
0.0
 20
0.0
 30
0.0
 70
   128
 71
     3
 72
    -2
 73
    14
  0
SEQEND
  5
103A
  8
0
  0
ENDBLK
  5
1030
  8
0
  0
BLOCK
  8
0
  2
*X2
 70
     1
 10
0.0
 20
0.0
 30
0.0
  3
*X2
  1

  0
POLYLINE
  5
EFE
  8
0
 66
     1
 10
0.0
 20
0.0
 30
0.0
 70
    64
 71
     6
 72
     4
  0
VERTEX
  5
EFF
  8
0
 10
-173.0000000000001
 20
210.0
 30
-20.5
 70
   192
  0
VERTEX
  5
F00
  8
0
 10
-207.0000000000001
 20
210.0
 30
-20.5
 70
   192
  0
VERTEX
  5
F01
  8
0
 10
-207.0000000000001
 20
210.0
 30
-13.5
 70
   192
  0
VERTEX
  5
F02
  8
0
 10
-210.0000000000002
 20
210.0
 30
-13.5
 70
   192
  0
VERTEX
  5
F03
  8
0
 10
-210.0000000000001
 20
210.0
 30
-23.5
 70
   192
  0
VERTEX
  5
F04
  8
0
 10
-173.0000000000001
 20
210.0
 30
-23.5
 70
   192
  0
VERTEX
  5
F05
  8
0
 10
0.0
 20
0.0
 30
0.0
 70
   128
 71
     6
 72
     1
 73
    -2
  0
VERTEX
  5
F06
  8
0
 10
0.0
 20
0.0
 30
0.0
 70
   128
 71
     5
 72
    -6
 73
    -2
  0
VERTEX
  5
F07
  8
0
 10
0.0
 20
0.0
 30
0.0
 70
   128
 71
     3
 72
     4
 73
    -5
  0
VERTEX
  5
F08
  8
0
 10
0.0
 20
0.0
 30
0.0
 70
   128
 71
     2
 72
    -3
 73
    -5
  0
SEQEND
  5
103D
  8
0
  0
POLYLINE
  5
F09
  8
0
 66
     1
 10
0.0
 20
0.0
 30
0.0
 70
    64
 71
     6
 72
     4
  0
VERTEX
  5
F0A
  8
0
 10
-210.0000000000001
 20
175.0
 30
-10.5
 70
   192
  0
VERTEX
  5
F0B
  8
0
 10
-210.0000000000001
 20
235.0
 30
-10.5
 70
   192
  0
VERTEX
  5
F0C
  8
0
 10
-210.0000000000001
 20
235.0
 30
-23.5
 70
   192
  0
VERTEX
  5
F0D
  8
0
 10
-210.0000000000001
 20
210.0
 30
-23.5
 70
   192
  0
VERTEX
  5
F0E
  8
0
 10
-210.0000000000001
 20
210.0
 30
-13.5
 70
   192
  0
VERTEX
  5
F0F
  8
0
 10
-210.0000000000001
 20
175.0
 30
-13.5
 70
   192
  0
VERTEX
  5
F10
  8
0
 10
0.0
 20
0.0
 30
0.0
 70
   128
 71
     3
 72
     4
 73
    -5
  0
VERTEX
  5
F11
  8
0
 10
0.0
 20
0.0
 30
0.0
 70
   128
 71
     2
 72
    -3
 73
    -5
  0
VERTEX
  5
F12
  8
0
 10
0.0
 20
0.0
 30
0.0
 70
   128
 71
     6
 72
     1
 73
    -2
  0
VERTEX
  5
F13
  8
0
 10
0.0
 20
0.0
 30
0.0
 70
   128
 71
     5
 72
    -6
 73
    -2
  0
SEQEND
  5
103E
  8
0
  0
POLYLINE
  5
F14
  8
0
 66
     1
 10
0.0
 20
0.0
 30
0.0
 70
    64
 71
     4
 72
     2
  0
VERTEX
  5
F15
  8
0
 10
-210.0000000000001
 20
235.0
 30
-10.5
 70
   192
  0
VERTEX
  5
F16
  8
0
 10
-210.0000000000002
 20
235.0
 30
-23.5
 70
   192
  0
VERTEX
  5
F17
  8
0
 10
-130.0000000000002
 20
235.0
 30
-23.5
 70
   192
  0
VERTEX
  5
F18
  8
0
 10
-130.0000000000002
 20
235.0
 30
-10.5
 70
   192
  0
VERTEX
  5
F19
  8
0
 10
0.0
 20
0.0
 30
0.0
 70
   128
 71
     1
 72
     4
 73
    -3
  0
VERTEX
  5
F1A
  8
0
 10
0.0
 20
0.0
 30
0.0
 70
   128
 71
    -1
 72
     3
 73
     2
  0
SEQEND
  5
103F
  8
0
  0
POLYLINE
  5
F1B
  8
0
 66
     1
 10
0.0
 20
0.0
 30
0.0
 70
    64
 71
     6
 72
     4
  0
VERTEX
  5
F1C
  8
0
 10
-130.0000000000002
 20
235.0
 30
-10.5
 70
   192
  0
VERTEX
  5
F1D
  8
0
 10
-130.0000000000002
 20
235.0
 30
-23.5
 70
   192
  0
VERTEX
  5
F1E
  8
0
 10
-130.0000000000002
 20
210.0
 30
-23.5
 70
   192
  0
VERTEX
  5
F1F
  8
0
 10
-130.0000000000002
 20
210.0
 30
-13.5
 70
   192
  0
VERTEX
  5
F20
  8
0
 10
-130.0000000000002
 20
175.0
 30
-13.5
 70
   192
  0
VERTEX
  5
F21
  8
0
 10
-130.0000000000002
 20
175.0
 30
-10.5
 70
   192
  0
VERTEX
  5
F22
  8
0
 10
0.0
 20
0.0
 30
0.0
 70
   128
 71
     4
 72
     3
 73
    -2
  0
VERTEX
  5
F23
  8
0
 10
0.0
 20
0.0
 30
0.0
 70
   128
 71
    -4
 72
     2
 73
    -1
  0
VERTEX
  5
F24
  8
0
 10
0.0
 20
0.0
 30
0.0
 70
   128
 71
     1
 72
     6
 73
    -5
  0
VERTEX
  5
F25
  8
0
 10
0.0
 20
0.0
 30
0.0
 70
   128
 71
    -1
 72
     5
 73
    -4
  0
SEQEND
  5
1040
  8
0
  0
POLYLINE
  5
F26
  8
0
 66
     1
 10
0.0
 20
0.0
 30
0.0
 70
    64
 71
     4
 72
     2
  0
VERTEX
  5
F27
  8
0
 10
-130.0000000000002
 20
175.0
 30
-10.5
 70
   192
  0
VERTEX
  5
F28
  8
0
 10
-210.0000000000001
 20
175.0
 30
-10.5
 70
   192
  0
VERTEX
  5
F29
  8
0
 10
-210.0000000000001
 20
175.0
 30
-13.5
 70
   192
  0
VERTEX
  5
F2A
  8
0
 10
-130.0000000000002
 20
175.0
 30
-13.5
 70
   192
  0
VERTEX
  5
F2B
  8
0
 10
0.0
 20
0.0
 30
0.0
 70
   128
 71
     3
 72
     4
 73
    -1
  0
VERTEX
  5
F2C
  8
0
 10
0.0
 20
0.0
 30
0.0
 70
   128
 71
     2
 72
    -3
 73
     1
  0
SEQEND
  5
1041
  8
0
  0
POLYLINE
  5
F2D
  8
0
 66
     1
 10
0.0
 20
0.0
 30
0.0
 70
    64
 71
     8
 72
     6
  0
VERTEX
  5
F2E
  8
0
 10
-133.0000000000002
 20
232.0
 30
-13.5
 70
   192
  0
VERTEX
  5
F2F
  8
0
 10
-207.0000000000001
 20
232.0
 30
-13.5
 70
   192
  0
VERTEX
  5
F30
  8
0
 10
-207.0000000000001
 20
210.0
 30
-13.5
 70
   192
  0
VERTEX
  5
F31
  8
0
 10
-210.0000000000001
 20
210.0
 30
-13.5
 70
   192
  0
VERTEX
  5
F32
  8
0
 10
-210.0000000000001
 20
175.0
 30
-13.5
 70
   192
  0
VERTEX
  5
F33
  8
0
 10
-130.0000000000002
 20
175.0
 30
-13.5
 70
   192
  0
VERTEX
  5
F34
  8
0
 10
-130.0000000000002
 20
210.0
 30
-13.5
 70
   192
  0
VERTEX
  5
F35
  8
0
 10
-133.0000000000002
 20
210.0
 30
-13.5
 70
   192
  0
VERTEX
  5
F36
  8
0
 10
0.0
 20
0.0
 30
0.0
 70
   128
 71
     8
 72
     7
 73
    -6
  0
VERTEX
  5
F37
  8
0
 10
0.0
 20
0.0
 30
0.0
 70
   128
 71
     3
 72
     2
 73
    -1
  0
VERTEX
  5
F38
  8
0
 10
0.0
 20
0.0
 30
0.0
 70
   128
 71
    -3
 72
     1
 73
    -8
  0
VERTEX
  5
F39
  8
0
 10
0.0
 20
0.0
 30
0.0
 70
   128
 71
    -8
 72
     6
 73
    -5
  0
VERTEX
  5
F3A
  8
0
 10
0.0
 20
0.0
 30
0.0
 70
   128
 71
    -8
 72
    -5
 73
    -3
  0
VERTEX
  5
F3B
  8
0
 10
0.0
 20
0.0
 30
0.0
 70
   128
 71
     5
 72
     4
 73
    -3
  0
SEQEND
  5
1042
  8
0
  0
POLYLINE
  5
F3C
  8
0
 66
     1
 10
0.0
 20
0.0
 30
0.0
 70
    64
 71
     4
 72
     2
  0
VERTEX
  5
F3D
  8
0
 10
-210.0000000000001
 20
235.0
 30
-10.5
 70
   192
  0
VERTEX
  5
F3E
  8
0
 10
-210.0000000000001
 20
175.0
 30
-10.5
 70
   192
  0
VERTEX
  5
F3F
  8
0
 10
-130.0000000000002
 20
175.0
 30
-10.5
 70
   192
  0
VERTEX
  5
F40
  8
0
 10
-130.0000000000002
 20
235.0
 30
-10.5
 70
   192
  0
VERTEX
  5
F41
  8
0
 10
0.0
 20
0.0
 30
0.0
 70
   128
 71
     3
 72
     4
 73
    -1
  0
VERTEX
  5
F42
  8
0
 10
0.0
 20
0.0
 30
0.0
 70
   128
 71
     2
 72
    -3
 73
     1
  0
SEQEND
  5
1043
  8
0
  0
POLYLINE
  5
F43
  8
0
 66
     1
 10
0.0
 20
0.0
 30
0.0
 70
    64
 71
     4
 72
     2
  0
VERTEX
  5
F44
  8
0
 10
-167.0000000000003
 20
230.0
 30
-20.5
 70
   192
  0
VERTEX
  5
F45
  8
0
 10
-173.0000000000001
 20
230.0
 30
-20.5
 70
   192
  0
VERTEX
  5
F46
  8
0
 10
-173.0000000000001
 20
230.0
 30
-23.5
 70
   192
  0
VERTEX
  5
F47
  8
0
 10
-167.0000000000003
 20
230.0
 30
-23.5
 70
   192
  0
VERTEX
  5
F48
  8
0
 10
0.0
 20
0.0
 30
0.0
 70
   128
 71
     3
 72
     4
 73
    -1
  0
VERTEX
  5
F49
  8
0
 10
0.0
 20
0.0
 30
0.0
 70
   128
 71
     2
 72
    -3
 73
     1
  0
SEQEND
  5
1044
  8
0
  0
POLYLINE
  5
F4A
  8
0
 66
     1
 10
0.0
 20
0.0
 30
0.0
 70
    64
 71
     4
 72
     2
  0
VERTEX
  5
F4B
  8
0
 10
-173.0000000000001
 20
230.0
 30
-20.5
 70
   192
  0
VERTEX
  5
F4C
  8
0
 10
-173.0000000000001
 20
210.0
 30
-20.5
 70
   192
  0
VERTEX
  5
F4D
  8
0
 10
-173.0000000000001
 20
210.0
 30
-23.5
 70
   192
  0
VERTEX
  5
F4E
  8
0
 10
-173.0000000000001
 20
230.0
 30
-23.5
 70
   192
  0
VERTEX
  5
F4F
  8
0
 10
0.0
 20
0.0
 30
0.0
 70
   128
 71
     3
 72
     4
 73
    -1
  0
VERTEX
  5
F50
  8
0
 10
0.0
 20
0.0
 30
0.0
 70
   128
 71
     2
 72
    -3
 73
     1
  0
SEQEND
  5
1045
  8
0
  0
POLYLINE
  5
F51
  8
0
 66
     1
 10
0.0
 20
0.0
 30
0.0
 70
    64
 71
     6
 72
     4
  0
VERTEX
  5
F52
  8
0
 10
-133.0000000000002
 20
210.0
 30
-13.5
 70
   192
  0
VERTEX
  5
F53
  8
0
 10
-133.0000000000002
 20
210.0
 30
-20.5
 70
   192
  0
VERTEX
  5
F54
  8
0
 10
-167.0000000000003
 20
210.0
 30
-20.5
 70
   192
  0
VERTEX
  5
F55
  8
0
 10
-167.0000000000003
 20
210.0
 30
-23.5
 70
   192
  0
VERTEX
  5
F56
  8
0
 10
-130.0000000000002
 20
210.0
 30
-23.5
 70
   192
  0
VERTEX
  5
F57
  8
0
 10
-130.0000000000002
 20
210.0
 30
-13.5
 70
   192
  0
VERTEX
  5
F58
  8
0
 10
0.0
 20
0.0
 30
0.0
 70
   128
 71
     6
 72
     1
 73
    -2
  0
VERTEX
  5
F59
  8
0
 10
0.0
 20
0.0
 30
0.0
 70
   128
 71
     5
 72
    -6
 73
    -2
  0
VERTEX
  5
F5A
  8
0
 10
0.0
 20
0.0
 30
0.0
 70
   128
 71
     3
 72
     4
 73
    -5
  0
VERTEX
  5
F5B
  8
0
 10
0.0
 20
0.0
 30
0.0
 70
   128
 71
     2
 72
    -3
 73
    -5
  0
SEQEND
  5
1046
  8
0
  0
POLYLINE
  5
F5C
  8
0
 66
     1
 10
0.0
 20
0.0
 30
0.0
 70
    64
 71
     4
 72
     2
  0
VERTEX
  5
F5D
  8
0
 10
-167.0000000000003
 20
210.0
 30
-20.5
 70
   192
  0
VERTEX
  5
F5E
  8
0
 10
-167.0000000000003
 20
230.0
 30
-20.5
 70
   192
  0
VERTEX
  5
F5F
  8
0
 10
-167.0000000000003
 20
230.0
 30
-23.5
 70
   192
  0
VERTEX
  5
F60
  8
0
 10
-167.0000000000003
 20
210.0
 30
-23.5
 70
   192
  0
VERTEX
  5
F61
  8
0
 10
0.0
 20
0.0
 30
0.0
 70
   128
 71
     3
 72
     4
 73
    -1
  0
VERTEX
  5
F62
  8
0
 10
0.0
 20
0.0
 30
0.0
 70
   128
 71
     2
 72
    -3
 73
     1
  0
SEQEND
  5
1047
  8
0
  0
POLYLINE
  5
F63
  8
0
 66
     1
 10
0.0
 20
0.0
 30
0.0
 70
    64
 71
     8
 72
     6
  0
VERTEX
  5
F64
  8
0
 10
-167.0000000000003
 20
230.0
 30
-23.5
 70
   192
  0
VERTEX
  5
F65
  8
0
 10
-173.0000000000001
 20
230.0
 30
-23.5
 70
   192
  0
VERTEX
  5
F66
  8
0
 10
-173.0000000000001
 20
210.0
 30
-23.5
 70
   192
  0
VERTEX
  5
F67
  8
0
 10
-210.0000000000002
 20
210.0
 30
-23.5
 70
   192
  0
VERTEX
  5
F68
  8
0
 10
-210.0000000000001
 20
235.0
 30
-23.5
 70
   192
  0
VERTEX
  5
F69
  8
0
 10
-130.0000000000002
 20
235.0
 30
-23.5
 70
   192
  0
VERTEX
  5
F6A
  8
0
 10
-130.0000000000002
 20
210.0
 30
-23.5
 70
   192
  0
VERTEX
  5
F6B
  8
0
 10
-167.0000000000003
 20
210.0
 30
-23.5
 70
   192
  0
VERTEX
  5
F6C
  8
0
 10
0.0
 20
0.0
 30
0.0
 70
   128
 71
     7
 72
     8
 73
    -1
  0
VERTEX
  5
F6D
  8
0
 10
0.0
 20
0.0
 30
0.0
 70
   128
 71
     6
 72
    -7
 73
    -1
  0
VERTEX
  5
F6E
  8
0
 10
0.0
 20
0.0
 30
0.0
 70
   128
 71
    -6
 72
     1
 73
    -2
  0
VERTEX
  5
F6F
  8
0
 10
0.0
 20
0.0
 30
0.0
 70
   128
 71
     5
 72
    -6
 73
    -2
  0
VERTEX
  5
F70
  8
0
 10
0.0
 20
0.0
 30
0.0
 70
   128
 71
     3
 72
     4
 73
    -5
  0
VERTEX
  5
F71
  8
0
 10
0.0
 20
0.0
 30
0.0
 70
   128
 71
     2
 72
    -3
 73
    -5
  0
SEQEND
  5
1048
  8
0
  0
POLYLINE
  5
F72
  8
0
 66
     1
 10
0.0
 20
0.0
 30
0.0
 70
    64
 71
     4
 72
     2
  0
VERTEX
  5
F73
  8
0
 10
-207.0000000000001
 20
210.0
 30
-13.5
 70
   192
  0
VERTEX
  5
F74
  8
0
 10
-207.0000000000001
 20
232.0
 30
-13.5
 70
   192
  0
VERTEX
  5
F75
  8
0
 10
-207.0000000000001
 20
232.0
 30
-20.5
 70
   192
  0
VERTEX
  5
F76
  8
0
 10
-207.0000000000001
 20
210.0
 30
-20.5
 70
   192
  0
VERTEX
  5
F77
  8
0
 10
0.0
 20
0.0
 30
0.0
 70
   128
 71
     1
 72
     4
 73
    -3
  0
VERTEX
  5
F78
  8
0
 10
0.0
 20
0.0
 30
0.0
 70
   128
 71
    -1
 72
     3
 73
     2
  0
SEQEND
  5
1049
  8
0
  0
POLYLINE
  5
F79
  8
0
 66
     1
 10
0.0
 20
0.0
 30
0.0
 70
    64
 71
     4
 72
     2
  0
VERTEX
  5
F7A
  8
0
 10
-133.0000000000002
 20
232.0
 30
-13.5
 70
   192
  0
VERTEX
  5
F7B
  8
0
 10
-207.0000000000001
 20
232.0
 30
-13.5
 70
   192
  0
VERTEX
  5
F7C
  8
0
 10
-207.0000000000001
 20
232.0
 30
-20.5
 70
   192
  0
VERTEX
  5
F7D
  8
0
 10
-133.0000000000002
 20
232.0
 30
-20.5
 70
   192
  0
VERTEX
  5
F7E
  8
0
 10
0.0
 20
0.0
 30
0.0
 70
   128
 71
     3
 72
     4
 73
    -1
  0
VERTEX
  5
F7F
  8
0
 10
0.0
 20
0.0
 30
0.0
 70
   128
 71
     2
 72
    -3
 73
     1
  0
SEQEND
  5
104A
  8
0
  0
POLYLINE
  5
F80
  8
0
 66
     1
 10
0.0
 20
0.0
 30
0.0
 70
    64
 71
     4
 72
     2
  0
VERTEX
  5
F81
  8
0
 10
-133.0000000000002
 20
210.0
 30
-13.5
 70
   192
  0
VERTEX
  5
F82
  8
0
 10
-133.0000000000002
 20
232.0
 30
-13.5
 70
   192
  0
VERTEX
  5
F83
  8
0
 10
-133.0000000000002
 20
232.0
 30
-20.5
 70
   192
  0
VERTEX
  5
F84
  8
0
 10
-133.0000000000002
 20
210.0
 30
-20.5
 70
   192
  0
VERTEX
  5
F85
  8
0
 10
0.0
 20
0.0
 30
0.0
 70
   128
 71
     3
 72
     4
 73
    -1
  0
VERTEX
  5
F86
  8
0
 10
0.0
 20
0.0
 30
0.0
 70
   128
 71
     2
 72
    -3
 73
     1
  0
SEQEND
  5
104B
  8
0
  0
POLYLINE
  5
F87
  8
0
 66
     1
 10
0.0
 20
0.0
 30
0.0
 70
    64
 71
     8
 72
     6
  0
VERTEX
  5
F88
  8
0
 10
-173.0000000000001
 20
230.0
 30
-20.5
 70
   192
  0
VERTEX
  5
F89
  8
0
 10
-173.0000000000001
 20
210.0
 30
-20.5
 70
   192
  0
VERTEX
  5
F8A
  8
0
 10
-207.0000000000001
 20
210.0
 30
-20.5
 70
   192
  0
VERTEX
  5
F8B
  8
0
 10
-207.0000000000001
 20
232.0
 30
-20.5
 70
   192
  0
VERTEX
  5
F8C
  8
0
 10
-133.0000000000002
 20
232.0
 30
-20.5
 70
   192
  0
VERTEX
  5
F8D
  8
0
 10
-133.0000000000002
 20
210.0
 30
-20.5
 70
   192
  0
VERTEX
  5
F8E
  8
0
 10
-167.0000000000003
 20
210.0
 30
-20.5
 70
   192
  0
VERTEX
  5
F8F
  8
0
 10
-167.0000000000003
 20
230.0
 30
-20.5
 70
   192
  0
VERTEX
  5
F90
  8
0
 10
0.0
 20
0.0
 30
0.0
 70
   128
 71
     8
 72
     7
 73
    -6
  0
VERTEX
  5
F91
  8
0
 10
0.0
 20
0.0
 30
0.0
 70
   128
 71
    -8
 72
     6
 73
    -5
  0
VERTEX
  5
F92
  8
0
 10
0.0
 20
0.0
 30
0.0
 70
   128
 71
    -5
 72
     1
 73
    -8
  0
VERTEX
  5
F93
  8
0
 10
0.0
 20
0.0
 30
0.0
 70
   128
 71
     5
 72
    -4
 73
    -1
  0
VERTEX
  5
F94
  8
0
 10
0.0
 20
0.0
 30
0.0
 70
   128
 71
     4
 72
     3
 73
    -2
  0
VERTEX
  5
F95
  8
0
 10
0.0
 20
0.0
 30
0.0
 70
   128
 71
    -4
 72
     2
 73
    -1
  0
SEQEND
  5
104C
  8
0
  0
ENDBLK
  5
103C
  8
0
  0
BLOCK
  8
0
  2
*X3
 70
     1
 10
0.0
 20
0.0
 30
0.0
  3
*X3
  1

  0
POLYLINE
  5
F97
  8
0
 66
     1
 10
0.0
 20
0.0
 30
0.0
 70
    64
 71
     8
 72
     6
  0
VERTEX
  5
F98
  8
0
 10
129.9999999999999
 20
210.0000000000001
 30
-13.5
 70
   192
  0
VERTEX
  5
F99
  8
0
 10
129.9999999999999
 20
174.9999999999998
 30
-13.5
 70
   192
  0
VERTEX
  5
F9A
  8
0
 10
209.9999999999999
 20
174.9999999999998
 30
-13.5
 70
   192
  0
VERTEX
  5
F9B
  8
0
 10
209.9999999999999
 20
210.0000000000001
 30
-13.5
 70
   192
  0
VERTEX
  5
F9C
  8
0
 10
206.9999999999999
 20
210.0000000000001
 30
-13.5
 70
   192
  0
VERTEX
  5
F9D
  8
0
 10
206.9999999999999
 20
232.0
 30
-13.5
 70
   192
  0
VERTEX
  5
F9E
  8
0
 10
132.9999999999999
 20
232.0
 30
-13.5
 70
   192
  0
VERTEX
  5
F9F
  8
0
 10
132.9999999999999
 20
210.0000000000001
 30
-13.5
 70
   192
  0
VERTEX
  5
FA0
  8
0
 10
0.0
 20
0.0
 30
0.0
 70
   128
 71
     5
 72
    -4
 73
    -8
  0
VERTEX
  5
FA1
  8
0
 10
0.0
 20
0.0
 30
0.0
 70
   128
 71
     8
 72
     7
 73
    -6
  0
VERTEX
  5
FA2
  8
0
 10
0.0
 20
0.0
 30
0.0
 70
   128
 71
    -8
 72
     6
 73
    -5
  0
VERTEX
  5
FA3
  8
0
 10
0.0
 20
0.0
 30
0.0
 70
   128
 71
     4
 72
     3
 73
    -2
  0
VERTEX
  5
FA4
  8
0
 10
0.0
 20
0.0
 30
0.0
 70
   128
 71
    -4
 72
    -2
 73
    -8
  0
VERTEX
  5
FA5
  8
0
 10
0.0
 20
0.0
 30
0.0
 70
   128
 71
     2
 72
     1
 73
    -8
  0
SEQEND
  5
104F
  8
0
  0
POLYLINE
  5
FA6
  8
0
 66
     1
 10
0.0
 20
0.0
 30
0.0
 70
    64
 71
     6
 72
     4
  0
VERTEX
  5
FA7
  8
0
 10
129.9999999999999
 20
174.9999999999998
 30
-10.5
 70
   192
  0
VERTEX
  5
FA8
  8
0
 10
129.9999999999999
 20
235.0
 30
-10.5
 70
   192
  0
VERTEX
  5
FA9
  8
0
 10
129.9999999999999
 20
235.0
 30
-23.5
 70
   192
  0
VERTEX
  5
FAA
  8
0
 10
129.9999999999999
 20
210.0000000000001
 30
-23.5
 70
   192
  0
VERTEX
  5
FAB
  8
0
 10
129.9999999999999
 20
210.0000000000001
 30
-13.5
 70
   192
  0
VERTEX
  5
FAC
  8
0
 10
129.9999999999999
 20
174.9999999999998
 30
-13.5
 70
   192
  0
VERTEX
  5
FAD
  8
0
 10
0.0
 20
0.0
 30
0.0
 70
   128
 71
     3
 72
     4
 73
    -5
  0
VERTEX
  5
FAE
  8
0
 10
0.0
 20
0.0
 30
0.0
 70
   128
 71
     2
 72
    -3
 73
    -5
  0
VERTEX
  5
FAF
  8
0
 10
0.0
 20
0.0
 30
0.0
 70
   128
 71
     6
 72
     1
 73
    -2
  0
VERTEX
  5
FB0
  8
0
 10
0.0
 20
0.0
 30
0.0
 70
   128
 71
     5
 72
    -6
 73
    -2
  0
SEQEND
  5
1050
  8
0
  0
POLYLINE
  5
FB1
  8
0
 66
     1
 10
0.0
 20
0.0
 30
0.0
 70
    64
 71
     4
 72
     2
  0
VERTEX
  5
FB2
  8
0
 10
129.9999999999999
 20
235.0
 30
-10.5
 70
   192
  0
VERTEX
  5
FB3
  8
0
 10
129.9999999999999
 20
235.0
 30
-23.5
 70
   192
  0
VERTEX
  5
FB4
  8
0
 10
209.9999999999999
 20
235.0
 30
-23.5
 70
   192
  0
VERTEX
  5
FB5
  8
0
 10
209.9999999999999
 20
235.0
 30
-10.5
 70
   192
  0
VERTEX
  5
FB6
  8
0
 10
0.0
 20
0.0
 30
0.0
 70
   128
 71
     1
 72
     4
 73
    -3
  0
VERTEX
  5
FB7
  8
0
 10
0.0
 20
0.0
 30
0.0
 70
   128
 71
    -1
 72
     3
 73
     2
  0
SEQEND
  5
1051
  8
0
  0
POLYLINE
  5
FB8
  8
0
 66
     1
 10
0.0
 20
0.0
 30
0.0
 70
    64
 71
     6
 72
     4
  0
VERTEX
  5
FB9
  8
0
 10
209.9999999999999
 20
235.0
 30
-10.5
 70
   192
  0
VERTEX
  5
FBA
  8
0
 10
209.9999999999999
 20
235.0
 30
-23.5
 70
   192
  0
VERTEX
  5
FBB
  8
0
 10
209.9999999999999
 20
210.0000000000001
 30
-23.5
 70
   192
  0
VERTEX
  5
FBC
  8
0
 10
209.9999999999999
 20
210.0000000000001
 30
-13.5
 70
   192
  0
VERTEX
  5
FBD
  8
0
 10
209.9999999999999
 20
174.9999999999998
 30
-13.5
 70
   192
  0
VERTEX
  5
FBE
  8
0
 10
209.9999999999999
 20
174.9999999999998
 30
-10.5
 70
   192
  0
VERTEX
  5
FBF
  8
0
 10
0.0
 20
0.0
 30
0.0
 70
   128
 71
     4
 72
     3
 73
    -2
  0
VERTEX
  5
FC0
  8
0
 10
0.0
 20
0.0
 30
0.0
 70
   128
 71
    -4
 72
     2
 73
    -1
  0
VERTEX
  5
FC1
  8
0
 10
0.0
 20
0.0
 30
0.0
 70
   128
 71
     1
 72
     6
 73
    -5
  0
VERTEX
  5
FC2
  8
0
 10
0.0
 20
0.0
 30
0.0
 70
   128
 71
    -1
 72
     5
 73
    -4
  0
SEQEND
  5
1052
  8
0
  0
POLYLINE
  5
FC3
  8
0
 66
     1
 10
0.0
 20
0.0
 30
0.0
 70
    64
 71
     4
 72
     2
  0
VERTEX
  5
FC4
  8
0
 10
209.9999999999999
 20
174.9999999999998
 30
-10.5
 70
   192
  0
VERTEX
  5
FC5
  8
0
 10
129.9999999999999
 20
174.9999999999998
 30
-10.5
 70
   192
  0
VERTEX
  5
FC6
  8
0
 10
129.9999999999999
 20
174.9999999999998
 30
-13.5
 70
   192
  0
VERTEX
  5
FC7
  8
0
 10
209.9999999999999
 20
174.9999999999998
 30
-13.5
 70
   192
  0
VERTEX
  5
FC8
  8
0
 10
0.0
 20
0.0
 30
0.0
 70
   128
 71
     3
 72
     4
 73
    -1
  0
VERTEX
  5
FC9
  8
0
 10
0.0
 20
0.0
 30
0.0
 70
   128
 71
     2
 72
    -3
 73
     1
  0
SEQEND
  5
1053
  8
0
  0
POLYLINE
  5
FCA
  8
0
 66
     1
 10
0.0
 20
0.0
 30
0.0
 70
    64
 71
     4
 72
     2
  0
VERTEX
  5
FCB
  8
0
 10
129.9999999999999
 20
235.0
 30
-10.5
 70
   192
  0
VERTEX
  5
FCC
  8
0
 10
129.9999999999999
 20
174.9999999999998
 30
-10.5
 70
   192
  0
VERTEX
  5
FCD
  8
0
 10
209.9999999999999
 20
174.9999999999998
 30
-10.5
 70
   192
  0
VERTEX
  5
FCE
  8
0
 10
209.9999999999999
 20
235.0
 30
-10.5
 70
   192
  0
VERTEX
  5
FCF
  8
0
 10
0.0
 20
0.0
 30
0.0
 70
   128
 71
     3
 72
     4
 73
    -1
  0
VERTEX
  5
FD0
  8
0
 10
0.0
 20
0.0
 30
0.0
 70
   128
 71
     2
 72
    -3
 73
     1
  0
SEQEND
  5
1054
  8
0
  0
POLYLINE
  5
FD1
  8
0
 66
     1
 10
0.0
 20
0.0
 30
0.0
 70
    64
 71
     4
 72
     2
  0
VERTEX
  5
FD2
  8
0
 10
167.0000000000003
 20
230.0
 30
-23.5
 70
   192
  0
VERTEX
  5
FD3
  8
0
 10
167.0000000000003
 20
210.0000000000001
 30
-23.5
 70
   192
  0
VERTEX
  5
FD4
  8
0
 10
167.0000000000003
 20
210.0000000000001
 30
-20.5
 70
   192
  0
VERTEX
  5
FD5
  8
0
 10
167.0000000000003
 20
230.0
 30
-20.5
 70
   192
  0
VERTEX
  5
FD6
  8
0
 10
0.0
 20
0.0
 30
0.0
 70
   128
 71
     1
 72
     4
 73
    -3
  0
VERTEX
  5
FD7
  8
0
 10
0.0
 20
0.0
 30
0.0
 70
   128
 71
    -1
 72
     3
 73
     2
  0
SEQEND
  5
1055
  8
0
  0
POLYLINE
  5
FD8
  8
0
 66
     1
 10
0.0
 20
0.0
 30
0.0
 70
    64
 71
     6
 72
     4
  0
VERTEX
  5
FD9
  8
0
 10
167.0000000000003
 20
210.0000000000001
 30
-20.5
 70
   192
  0
VERTEX
  5
FDA
  8
0
 10
167.0000000000003
 20
210.0000000000001
 30
-23.5
 70
   192
  0
VERTEX
  5
FDB
  8
0
 10
129.9999999999999
 20
210.0000000000001
 30
-23.5
 70
   192
  0
VERTEX
  5
FDC
  8
0
 10
129.9999999999999
 20
210.0000000000001
 30
-13.5
 70
   192
  0
VERTEX
  5
FDD
  8
0
 10
132.9999999999999
 20
210.0000000000001
 30
-13.5
 70
   192
  0
VERTEX
  5
FDE
  8
0
 10
132.9999999999999
 20
210.0000000000001
 30
-20.5
 70
   192
  0
VERTEX
  5
FDF
  8
0
 10
0.0
 20
0.0
 30
0.0
 70
   128
 71
     6
 72
     5
 73
    -4
  0
VERTEX
  5
FE0
  8
0
 10
0.0
 20
0.0
 30
0.0
 70
   128
 71
    -6
 72
     4
 73
    -3
  0
VERTEX
  5
FE1
  8
0
 10
0.0
 20
0.0
 30
0.0
 70
   128
 71
     3
 72
     2
 73
    -1
  0
VERTEX
  5
FE2
  8
0
 10
0.0
 20
0.0
 30
0.0
 70
   128
 71
    -3
 72
     1
 73
    -6
  0
SEQEND
  5
1056
  8
0
  0
POLYLINE
  5
FE3
  8
0
 66
     1
 10
0.0
 20
0.0
 30
0.0
 70
    64
 71
     6
 72
     4
  0
VERTEX
  5
FE4
  8
0
 10
206.9999999999999
 20
210.0000000000001
 30
-13.5
 70
   192
  0
VERTEX
  5
FE5
  8
0
 10
209.9999999999999
 20
210.0000000000001
 30
-13.5
 70
   192
  0
VERTEX
  5
FE6
  8
0
 10
209.9999999999999
 20
210.0000000000001
 30
-23.5
 70
   192
  0
VERTEX
  5
FE7
  8
0
 10
173.0000000000001
 20
210.0000000000001
 30
-23.5
 70
   192
  0
VERTEX
  5
FE8
  8
0
 10
173.0000000000001
 20
210.0000000000001
 30
-20.5
 70
   192
  0
VERTEX
  5
FE9
  8
0
 10
206.9999999999999
 20
210.0000000000001
 30
-20.5
 70
   192
  0
VERTEX
  5
FEA
  8
0
 10
0.0
 20
0.0
 30
0.0
 70
   128
 71
     6
 72
     5
 73
    -4
  0
VERTEX
  5
FEB
  8
0
 10
0.0
 20
0.0
 30
0.0
 70
   128
 71
    -6
 72
     4
 73
    -3
  0
VERTEX
  5
FEC
  8
0
 10
0.0
 20
0.0
 30
0.0
 70
   128
 71
     3
 72
     2
 73
    -1
  0
VERTEX
  5
FED
  8
0
 10
0.0
 20
0.0
 30
0.0
 70
   128
 71
    -3
 72
     1
 73
    -6
  0
SEQEND
  5
1057
  8
0
  0
POLYLINE
  5
FEE
  8
0
 66
     1
 10
0.0
 20
0.0
 30
0.0
 70
    64
 71
     4
 72
     2
  0
VERTEX
  5
FEF
  8
0
 10
173.0000000000001
 20
210.0000000000001
 30
-23.5
 70
   192
  0
VERTEX
  5
FF0
  8
0
 10
173.0000000000001
 20
230.0000000000001
 30
-23.5
 70
   192
  0
VERTEX
  5
FF1
  8
0
 10
173.0000000000001
 20
230.0000000000001
 30
-20.5
 70
   192
  0
VERTEX
  5
FF2
  8
0
 10
173.0000000000001
 20
210.0000000000001
 30
-20.5
 70
   192
  0
VERTEX
  5
FF3
  8
0
 10
0.0
 20
0.0
 30
0.0
 70
   128
 71
     1
 72
     4
 73
    -3
  0
VERTEX
  5
FF4
  8
0
 10
0.0
 20
0.0
 30
0.0
 70
   128
 71
    -1
 72
     3
 73
     2
  0
SEQEND
  5
1058
  8
0
  0
POLYLINE
  5
FF5
  8
0
 66
     1
 10
0.0
 20
0.0
 30
0.0
 70
    64
 71
     4
 72
     2
  0
VERTEX
  5
FF6
  8
0
 10
173.0000000000001
 20
230.0000000000001
 30
-23.5
 70
   192
  0
VERTEX
  5
FF7
  8
0
 10
167.0000000000003
 20
230.0
 30
-23.5
 70
   192
  0
VERTEX
  5
FF8
  8
0
 10
167.0000000000003
 20
230.0
 30
-20.5
 70
   192
  0
VERTEX
  5
FF9
  8
0
 10
173.0000000000001
 20
230.0000000000001
 30
-20.5
 70
   192
  0
VERTEX
  5
FFA
  8
0
 10
0.0
 20
0.0
 30
0.0
 70
   128
 71
     1
 72
     4
 73
    -3
  0
VERTEX
  5
FFB
  8
0
 10
0.0
 20
0.0
 30
0.0
 70
   128
 71
    -1
 72
     3
 73
     2
  0
SEQEND
  5
1059
  8
0
  0
POLYLINE
  5
FFC
  8
0
 66
     1
 10
0.0
 20
0.0
 30
0.0
 70
    64
 71
     8
 72
     6
  0
VERTEX
  5
FFD
  8
0
 10
167.0000000000003
 20
230.0
 30
-23.5
 70
   192
  0
VERTEX
  5
FFE
  8
0
 10
167.0000000000003
 20
210.0000000000001
 30
-23.5
 70
   192
  0
VERTEX
  5
FFF
  8
0
 10
129.9999999999999
 20
210.0000000000001
 30
-23.5
 70
   192
  0
VERTEX
  5
1000
  8
0
 10
129.9999999999999
 20
235.0
 30
-23.5
 70
   192
  0
VERTEX
  5
1001
  8
0
 10
209.9999999999999
 20
235.0
 30
-23.5
 70
   192
  0
VERTEX
  5
1002
  8
0
 10
209.9999999999999
 20
210.0000000000001
 30
-23.5
 70
   192
  0
VERTEX
  5
1003
  8
0
 10
173.0000000000001
 20
210.0000000000001
 30
-23.5
 70
   192
  0
VERTEX
  5
1004
  8
0
 10
173.0000000000001
 20
230.0000000000001
 30
-23.5
 70
   192
  0
VERTEX
  5
1005
  8
0
 10
0.0
 20
0.0
 30
0.0
 70
   128
 71
     6
 72
     7
 73
    -8
  0
VERTEX
  5
1006
  8
0
 10
0.0
 20
0.0
 30
0.0
 70
   128
 71
     5
 72
    -6
 73
    -8
  0
VERTEX
  5
1007
  8
0
 10
0.0
 20
0.0
 30
0.0
 70
   128
 71
    -1
 72
     4
 73
    -5
  0
VERTEX
  5
1008
  8
0
 10
0.0
 20
0.0
 30
0.0
 70
   128
 71
     8
 72
    -1
 73
    -5
  0
VERTEX
  5
1009
  8
0
 10
0.0
 20
0.0
 30
0.0
 70
   128
 71
     2
 72
     3
 73
    -4
  0
VERTEX
  5
100A
  8
0
 10
0.0
 20
0.0
 30
0.0
 70
   128
 71
     1
 72
    -2
 73
    -4
  0
SEQEND
  5
105A
  8
0
  0
POLYLINE
  5
100B
  8
0
 66
     1
 10
0.0
 20
0.0
 30
0.0
 70
    64
 71
     4
 72
     2
  0
VERTEX
  5
100C
  8
0
 10
132.9999999999999
 20
210.0000000000001
 30
-13.5
 70
   192
  0
VERTEX
  5
100D
  8
0
 10
132.9999999999999
 20
232.0
 30
-13.5
 70
   192
  0
VERTEX
  5
100E
  8
0
 10
132.9999999999999
 20
232.0
 30
-20.5
 70
   192
  0
VERTEX
  5
100F
  8
0
 10
132.9999999999999
 20
210.0000000000001
 30
-20.5
 70
   192
  0
VERTEX
  5
1010
  8
0
 10
0.0
 20
0.0
 30
0.0
 70
   128
 71
     1
 72
     4
 73
    -3
  0
VERTEX
  5
1011
  8
0
 10
0.0
 20
0.0
 30
0.0
 70
   128
 71
    -1
 72
     3
 73
     2
  0
SEQEND
  5
105B
  8
0
  0
POLYLINE
  5
1012
  8
0
 66
     1
 10
0.0
 20
0.0
 30
0.0
 70
    64
 71
     4
 72
     2
  0
VERTEX
  5
1013
  8
0
 10
206.9999999999999
 20
232.0
 30
-13.5
 70
   192
  0
VERTEX
  5
1014
  8
0
 10
132.9999999999999
 20
232.0
 30
-13.5
 70
   192
  0
VERTEX
  5
1015
  8
0
 10
132.9999999999999
 20
232.0
 30
-20.5
 70
   192
  0
VERTEX
  5
1016
  8
0
 10
206.9999999999999
 20
232.0
 30
-20.5
 70
   192
  0
VERTEX
  5
1017
  8
0
 10
0.0
 20
0.0
 30
0.0
 70
   128
 71
     3
 72
     4
 73
    -1
  0
VERTEX
  5
1018
  8
0
 10
0.0
 20
0.0
 30
0.0
 70
   128
 71
     2
 72
    -3
 73
     1
  0
SEQEND
  5
105C
  8
0
  0
POLYLINE
  5
1019
  8
0
 66
     1
 10
0.0
 20
0.0
 30
0.0
 70
    64
 71
     4
 72
     2
  0
VERTEX
  5
101A
  8
0
 10
206.9999999999999
 20
210.0000000000001
 30
-13.5
 70
   192
  0
VERTEX
  5
101B
  8
0
 10
206.9999999999999
 20
232.0
 30
-13.5
 70
   192
  0
VERTEX
  5
101C
  8
0
 10
206.9999999999999
 20
232.0
 30
-20.5
 70
   192
  0
VERTEX
  5
101D
  8
0
 10
206.9999999999999
 20
210.0000000000001
 30
-20.5
 70
   192
  0
VERTEX
  5
101E
  8
0
 10
0.0
 20
0.0
 30
0.0
 70
   128
 71
     3
 72
     4
 73
    -1
  0
VERTEX
  5
101F
  8
0
 10
0.0
 20
0.0
 30
0.0
 70
   128
 71
     2
 72
    -3
 73
     1
  0
SEQEND
  5
105D
  8
0
  0
POLYLINE
  5
1020
  8
0
 66
     1
 10
0.0
 20
0.0
 30
0.0
 70
    64
 71
     8
 72
     6
  0
VERTEX
  5
1021
  8
0
 10
167.0000000000003
 20
210.0000000000001
 30
-20.5
 70
   192
  0
VERTEX
  5
1022
  8
0
 10
132.9999999999999
 20
210.0000000000001
 30
-20.5
 70
   192
  0
VERTEX
  5
1023
  8
0
 10
132.9999999999999
 20
232.0
 30
-20.5
 70
   192
  0
VERTEX
  5
1024
  8
0
 10
206.9999999999999
 20
232.0
 30
-20.5
 70
   192
  0
VERTEX
  5
1025
  8
0
 10
206.9999999999999
 20
210.0000000000001
 30
-20.5
 70
   192
  0
VERTEX
  5
1026
  8
0
 10
173.0000000000001
 20
210.0000000000001
 30
-20.5
 70
   192
  0
VERTEX
  5
1027
  8
0
 10
173.0000000000001
 20
230.0000000000001
 30
-20.5
 70
   192
  0
VERTEX
  5
1028
  8
0
 10
167.0000000000003
 20
230.0
 30
-20.5
 70
   192
  0
VERTEX
  5
1029
  8
0
 10
0.0
 20
0.0
 30
0.0
 70
   128
 71
     7
 72
     6
 73
    -5
  0
VERTEX
  5
102A
  8
0
 10
0.0
 20
0.0
 30
0.0
 70
   128
 71
    -7
 72
     5
 73
    -4
  0
VERTEX
  5
102B
  8
0
 10
0.0
 20
0.0
 30
0.0
 70
   128
 71
    -4
 72
     8
 73
    -7
  0
VERTEX
  5
102C
  8
0
 10
0.0
 20
0.0
 30
0.0
 70
   128
 71
     4
 72
    -3
 73
    -8
  0
VERTEX
  5
102D
  8
0
 10
0.0
 20
0.0
 30
0.0
 70
   128
 71
     3
 72
     2
 73
    -1
  0
VERTEX
  5
102E
  8
0
 10
0.0
 20
0.0
 30
0.0
 70
   128
 71
    -3
 72
     1
 73
    -8
  0
SEQEND
  5
105E
  8
0
  0
ENDBLK
  5
104E
  8
0
  0
ENDSEC
  0
SECTION
  2
ENTITIES
  0
INSERT
  5
B2B
  8
0
  2
*X1
 10
0.0
 20
0.0
 30
0.0
  0
INSERT
  5
B2C
  8
0
  2
*X2
 10
0.0
 20
0.0
 30
0.0
  0
INSERT
  5
B2D
  8
0
  2
*X3
 10
0.0
 20
0.0
 30
0.0
  0
ENDSEC
  0
EOF
