  0
SECTION
  2
HEADER
  9
$ACADVER
  1
AC1009
  9
$DWGCODEPAGE
  3
ansi_1250
  9
$INSBASE
 10
0.0
 20
0.0
 30
0.0
  9
$EXTMIN
 10
-350.0
 20
-350.0000000000001
 30
-25.00000000000006
  9
$EXTMAX
 10
350.0
 20
350.0000000000002
 30
0.0000000000000711
  9
$LIMMIN
 10
0.0
 20
0.0
  9
$LIMMAX
 10
420.0
 20
297.0
  9
$ORTHOMODE
 70
     0
  9
$REGENMODE
 70
     1
  9
$FILLMODE
 70
     1
  9
$QTEXTMODE
 70
     0
  9
$MIRRTEXT
 70
     0
  9
$DRAGMODE
 70
     2
  9
$LTSCALE
 40
1.0
  9
$OSMODE
 70
   511
  9
$ATTMODE
 70
     1
  9
$TEXTSIZE
 40
2.5
  9
$TRACEWID
 40
1.0
  9
$TEXTSTYLE
  7
STANDARD
  9
$CLAYER
  8
0
  9
$CELTYPE
  6
BYLAYER
  9
$CECOLOR
 62
   256
  9
$DIMSCALE
 40
1.0
  9
$DIMASZ
 40
2.5
  9
$DIMEXO
 40
0.625
  9
$DIMDLI
 40
3.75
  9
$DIMRND
 40
0.0
  9
$DIMDLE
 40
0.0
  9
$DIMEXE
 40
1.25
  9
$DIMTP
 40
0.0
  9
$DIMTM
 40
0.0
  9
$DIMTXT
 40
2.5
  9
$DIMCEN
 40
-2.5
  9
$DIMTSZ
 40
0.0
  9
$DIMTOL
 70
     0
  9
$DIMLIM
 70
     0
  9
$DIMTIH
 70
     0
  9
$DIMTOH
 70
     0
  9
$DIMSE1
 70
     0
  9
$DIMSE2
 70
     0
  9
$DIMTAD
 70
     1
  9
$DIMZIN
 70
     8
  9
$DIMBLK
  1

  9
$DIMASO
 70
     1
  9
$DIMSHO
 70
     1
  9
$DIMPOST
  1

  9
$DIMAPOST
  1

  9
$DIMALT
 70
     0
  9
$DIMALTD
 70
     3
  9
$DIMALTF
 40
0.03937007874016
  9
$DIMLFAC
 40
1.0
  9
$DIMTOFL
 70
     1
  9
$DIMTVP
 40
0.0
  9
$DIMTIX
 70
     0
  9
$DIMSOXD
 70
     0
  9
$DIMSAH
 70
     0
  9
$DIMBLK1
  1

  9
$DIMBLK2
  1

  9
$DIMSTYLE
  2
ISO-25
  9
$DIMCLRD
 70
     0
  9
$DIMCLRE
 70
     0
  9
$DIMCLRT
 70
     0
  9
$DIMTFAC
 40
1.0
  9
$DIMGAP
 40
0.625
  9
$LUNITS
 70
     2
  9
$LUPREC
 70
     3
  9
$SKETCHINC
 40
1.0
  9
$FILLETRAD
 40
10.0
  9
$AUNITS
 70
     0
  9
$AUPREC
 70
     0
  9
$MENU
  1
.
  9
$ELEVATION
 40
0.0
  9
$PELEVATION
 40
0.0
  9
$THICKNESS
 40
0.0
  9
$LIMCHECK
 70
     0
  9
$CHAMFERA
 40
10.0
  9
$CHAMFERB
 40
10.0
  9
$SKPOLY
 70
     0
  9
$TDCREATE
 40
2455022.720692848
  9
$TDUPDATE
 40
2460521.492624155
  9
$TDINDWG
 40
0.1633426505
  9
$TDUSRTIMER
 40
0.1633426505
  9
$USRTIMER
 70
     1
  9
$ANGBASE
 50
0.0
  9
$ANGDIR
 70
     0
  9
$PDMODE
 70
     0
  9
$PDSIZE
 40
0.0
  9
$PLINEWID
 40
0.0
  9
$COORDS
 70
     1
  9
$SPLFRAME
 70
     0
  9
$SPLINETYPE
 70
     6
  9
$SPLINESEGS
 70
     8
  9
$ATTDIA
 70
     0
  9
$ATTREQ
 70
     1
  9
$HANDLING
 70
     1
  9
$HANDSEED
  5
B2B
  9
$SURFTAB1
 70
     6
  9
$SURFTAB2
 70
     6
  9
$SURFTYPE
 70
     6
  9
$SURFU
 70
     6
  9
$SURFV
 70
     6
  9
$UCSNAME
  2

  9
$UCSORG
 10
0.0
 20
0.0
 30
0.0
  9
$UCSXDIR
 10
1.0
 20
0.0
 30
0.0
  9
$UCSYDIR
 10
0.0
 20
1.0
 30
0.0
  9
$PUCSNAME
  2

  9
$PUCSORG
 10
0.0
 20
0.0
 30
0.0
  9
$PUCSXDIR
 10
1.0
 20
0.0
 30
0.0
  9
$PUCSYDIR
 10
0.0
 20
1.0
 30
0.0
  9
$USERI1
 70
     0
  9
$USERI2
 70
     0
  9
$USERI3
 70
     0
  9
$USERI4
 70
     0
  9
$USERI5
 70
     0
  9
$USERR1
 40
0.0
  9
$USERR2
 40
0.0
  9
$USERR3
 40
0.0
  9
$USERR4
 40
0.0
  9
$USERR5
 40
0.0
  9
$WORLDVIEW
 70
     1
  9
$SHADEDGE
 70
     3
  9
$SHADEDIF
 70
    70
  9
$TILEMODE
 70
     1
  9
$MAXACTVP
 70
    64
  9
$PLIMCHECK
 70
     0
  9
$PEXTMIN
 10
1.000000000000000E+20
 20
1.000000000000000E+20
 30
1.000000000000000E+20
  9
$PEXTMAX
 10
-1.000000000000000E+20
 20
-1.000000000000000E+20
 30
-1.000000000000000E+20
  9
$PLIMMIN
 10
0.0
 20
0.0
  9
$PLIMMAX
 10
0.0
 20
0.0
  9
$UNITMODE
 70
     0
  9
$VISRETAIN
 70
     1
  9
$PLINEGEN
 70
     0
  9
$PSLTSCALE
 70
     1
  0
ENDSEC
  0
SECTION
  2
TABLES
  0
TABLE
  2
VPORT
 70
     1
  0
VPORT
  2
*ACTIVE
 70
     0
 10
0.0
 20
0.0
 11
1.0
 21
1.0
 12
-116.6110757937285
 22
90.81470093901666
 13
0.0
 23
0.0
 14
10.0
 24
10.0
 15
10.0
 25
10.0
 16
0.5773502691896257
 26
0.5773502691896257
 36
0.5773502691896262
 17
-41.66599977993167
 27
123.2469651304761
 37
-82.93435654674933
 40
520.5165703414254
 41
1.88293897882939
 42
50.0
 43
0.0
 44
0.0
 50
0.0
 51
360.0
 71
    16
 72
  1000
 73
     1
 74
     3
 75
     0
 76
     0
 77
     0
 78
     0
  0
ENDTAB
  0
TABLE
  2
LTYPE
 70
     1
  0
LTYPE
  2
CONTINUOUS
 70
     0
  3
Solid line
 72
    65
 73
     0
 40
0.0
  0
ENDTAB
  0
TABLE
  2
LAYER
 70
     1
  0
LAYER
  2
0
 70
     0
 62
     7
  6
CONTINUOUS
  0
ENDTAB
  0
TABLE
  2
STYLE
 70
     2
  0
STYLE
  2
STANDARD
 70
     0
 40
0.0
 41
1.0
 50
0.0
 71
     0
 42
2.5
  3
arial.ttf
  4

  0
STYLE
  2
ANNOTATIVE
 70
     0
 40
0.0
 41
1.0
 50
0.0
 71
     0
 42
2.5
  3
arial.ttf
  4

  0
ENDTAB
  0
TABLE
  2
VIEW
 70
     0
  0
ENDTAB
  0
TABLE
  2
UCS
 70
     0
  0
ENDTAB
  0
TABLE
  2
APPID
 70
     2
  0
APPID
  2
ACAD
 70
     0
  0
APPID
  2
ACADANNOTATIVE
 70
     0
  0
ENDTAB
  0
TABLE
  2
DIMSTYLE
 70
     2
  0
DIMSTYLE
  2
ISO-25
 70
     0
  3

  4

  5

  6

  7

 40
1.0
 41
2.5
 42
0.625
 43
3.75
 44
1.25
 45
0.0
 46
0.0
 47
0.0
 48
0.0
140
2.5
141
-2.5
142
0.0
143
0.03937007874016
144
1.0
145
0.0
146
1.0
147
0.625
 71
     0
 72
     0
 73
     0
 74
     0
 75
     0
 76
     0
 77
     1
 78
     8
170
     0
171
     3
172
     1
173
     0
174
     0
175
     0
176
     0
177
     0
178
     0
  0
DIMSTYLE
  2
ANNOTATIVE
 70
     0
  3

  4

  5

  6

  7

 40
0.0
 41
2.5
 42
0.625
 43
3.75
 44
1.25
 45
0.0
 46
0.0
 47
0.0
 48
0.0
140
2.5
141
-2.5
142
0.0
143
0.03937007874016
144
1.0
145
0.0
146
1.0
147
0.625
 71
     0
 72
     0
 73
     0
 74
     0
 75
     0
 76
     0
 77
     1
 78
     8
170
     0
171
     3
172
     1
173
     0
174
     0
175
     0
176
     0
177
     0
178
     0
  0
ENDTAB
  0
ENDSEC
  0
SECTION
  2
BLOCKS
  0
BLOCK
  8
0
  2
$MODEL_SPACE
 70
     0
 10
0.0
 20
0.0
 30
0.0
  3
$MODEL_SPACE
  1

  0
ENDBLK
  5
21
  8
0
  0
BLOCK
 67
     1
  8
0
  2
$PAPER_SPACE
 70
     0
 10
0.0
 20
0.0
 30
0.0
  3
$PAPER_SPACE
  1

  0
ENDBLK
  5
1D
 67
     1
  8
0
  0
BLOCK
  8
0
  2
*X1
 70
     1
 10
0.0
 20
0.0
 30
0.0
  3
*X1
  1

  0
POLYLINE
  5
897
  8
0
 66
     1
 10
0.0
 20
0.0
 30
0.0
 70
    64
 71
    14
 72
    12
  0
VERTEX
  5
898
  8
0
 10
-170.0000000000001
 20
-294.4486372867091
 30
-25.0
 70
   192
  0
VERTEX
  5
899
  8
0
 10
-294.4486372867091
 20
-169.9999999999999
 30
-25.0
 70
   192
  0
VERTEX
  5
89A
  8
0
 10
-294.4486372867091
 20
-169.9999999999999
 30
-10.5
 70
   192
  0
VERTEX
  5
89B
  8
0
 10
-170.0000000000001
 20
-294.4486372867091
 30
-10.5
 70
   192
  0
VERTEX
  5
89C
  8
0
 10
294.448637286709
 20
-170.0000000000002
 30
-25.0
 70
   192
  0
VERTEX
  5
89D
  8
0
 10
169.9999999999998
 20
-294.4486372867092
 30
-25.0
 70
   192
  0
VERTEX
  5
89E
  8
0
 10
169.9999999999998
 20
-294.4486372867092
 30
-10.5
 70
   192
  0
VERTEX
  5
89F
  8
0
 10
294.448637286709
 20
-170.0000000000002
 30
-10.5
 70
   192
  0
VERTEX
  5
8A0
  8
0
 10
339.9999999999999
 20
-0.0000000000002454
 30
-25.0
 70
   192
  0
VERTEX
  5
8A1
  8
0
 10
339.9999999999999
 20
-0.0000000000002454
 30
-10.5
 70
   192
  0
VERTEX
  5
8A2
  8
0
 10
-0.0000000000001321
 20
-339.9999999999999
 30
-25.0
 70
   192
  0
VERTEX
  5
8A3
  8
0
 10
-0.0000000000001321
 20
-339.9999999999999
 30
-10.5
 70
   192
  0
VERTEX
  5
8A4
  8
0
 10
-339.9999999999999
 20
0.0000000000000416
 30
-25.0
 70
   192
  0
VERTEX
  5
8A5
  8
0
 10
-339.9999999999999
 20
0.0000000000000416
 30
-10.5
 70
   192
  0
VERTEX
  5
8A6
  8
0
 10
0.0
 20
0.0
 30
0.0
 70
   128
 71
     1
 72
     2
 73
    -3
  0
VERTEX
  5
8A7
  8
0
 10
0.0
 20
0.0
 30
0.0
 70
   128
 71
     4
 72
    -1
 73
     3
  0
VERTEX
  5
8A8
  8
0
 10
0.0
 20
0.0
 30
0.0
 70
   128
 71
     5
 72
     6
 73
    -7
  0
VERTEX
  5
8A9
  8
0
 10
0.0
 20
0.0
 30
0.0
 70
   128
 71
     8
 72
    -5
 73
     7
  0
VERTEX
  5
8AA
  8
0
 10
0.0
 20
0.0
 30
0.0
 70
   128
 71
     9
 72
     5
 73
    -8
  0
VERTEX
  5
8AB
  8
0
 10
0.0
 20
0.0
 30
0.0
 70
   128
 71
    10
 72
    -9
 73
     8
  0
VERTEX
  5
8AC
  8
0
 10
0.0
 20
0.0
 30
0.0
 70
   128
 71
     6
 72
    11
 73
   -12
  0
VERTEX
  5
8AD
  8
0
 10
0.0
 20
0.0
 30
0.0
 70
   128
 71
     7
 72
    -6
 73
    12
  0
VERTEX
  5
8AE
  8
0
 10
0.0
 20
0.0
 30
0.0
 70
   128
 71
    11
 72
     1
 73
    -4
  0
VERTEX
  5
8AF
  8
0
 10
0.0
 20
0.0
 30
0.0
 70
   128
 71
    12
 72
   -11
 73
     4
  0
VERTEX
  5
8B0
  8
0
 10
0.0
 20
0.0
 30
0.0
 70
   128
 71
     2
 72
    13
 73
   -14
  0
VERTEX
  5
8B1
  8
0
 10
0.0
 20
0.0
 30
0.0
 70
   128
 71
     3
 72
    -2
 73
    14
  0
SEQEND
  5
AFD
  8
0
  0
POLYLINE
  5
8B2
  8
0
 66
     1
 10
0.0
 20
0.0
 30
0.0
 70
    64
 71
    14
 72
    12
  0
VERTEX
  5
8B3
  8
0
 10
-170.0000000000001
 20
-294.4486372867091
 30
-0.5
 70
   192
  0
VERTEX
  5
8B4
  8
0
 10
-294.4486372867091
 20
-169.9999999999999
 30
-0.5
 70
   192
  0
VERTEX
  5
8B5
  8
0
 10
-294.4486372867091
 20
-169.9999999999999
 30
0.0
 70
   192
  0
VERTEX
  5
8B6
  8
0
 10
-170.0000000000001
 20
-294.4486372867091
 30
0.0
 70
   192
  0
VERTEX
  5
8B7
  8
0
 10
294.448637286709
 20
-170.0000000000002
 30
-0.5
 70
   192
  0
VERTEX
  5
8B8
  8
0
 10
169.9999999999998
 20
-294.4486372867092
 30
-0.5
 70
   192
  0
VERTEX
  5
8B9
  8
0
 10
169.9999999999998
 20
-294.4486372867092
 30
0.0
 70
   192
  0
VERTEX
  5
8BA
  8
0
 10
294.448637286709
 20
-170.0000000000002
 30
0.0
 70
   192
  0
VERTEX
  5
8BB
  8
0
 10
339.9999999999999
 20
-0.0000000000002454
 30
-0.5
 70
   192
  0
VERTEX
  5
8BC
  8
0
 10
339.9999999999999
 20
-0.0000000000002454
 30
0.0
 70
   192
  0
VERTEX
  5
8BD
  8
0
 10
-0.0000000000001321
 20
-339.9999999999999
 30
-0.5
 70
   192
  0
VERTEX
  5
8BE
  8
0
 10
-0.0000000000001321
 20
-339.9999999999999
 30
0.0
 70
   192
  0
VERTEX
  5
8BF
  8
0
 10
-339.9999999999999
 20
0.0000000000000416
 30
-0.5
 70
   192
  0
VERTEX
  5
8C0
  8
0
 10
-339.9999999999999
 20
0.0000000000000416
 30
0.0
 70
   192
  0
VERTEX
  5
8C1
  8
0
 10
0.0
 20
0.0
 30
0.0
 70
   128
 71
     1
 72
     2
 73
    -3
  0
VERTEX
  5
8C2
  8
0
 10
0.0
 20
0.0
 30
0.0
 70
   128
 71
     4
 72
    -1
 73
     3
  0
VERTEX
  5
8C3
  8
0
 10
0.0
 20
0.0
 30
0.0
 70
   128
 71
     5
 72
     6
 73
    -7
  0
VERTEX
  5
8C4
  8
0
 10
0.0
 20
0.0
 30
0.0
 70
   128
 71
     8
 72
    -5
 73
     7
  0
VERTEX
  5
8C5
  8
0
 10
0.0
 20
0.0
 30
0.0
 70
   128
 71
     9
 72
     5
 73
    -8
  0
VERTEX
  5
8C6
  8
0
 10
0.0
 20
0.0
 30
0.0
 70
   128
 71
    10
 72
    -9
 73
     8
  0
VERTEX
  5
8C7
  8
0
 10
0.0
 20
0.0
 30
0.0
 70
   128
 71
     6
 72
    11
 73
   -12
  0
VERTEX
  5
8C8
  8
0
 10
0.0
 20
0.0
 30
0.0
 70
   128
 71
     7
 72
    -6
 73
    12
  0
VERTEX
  5
8C9
  8
0
 10
0.0
 20
0.0
 30
0.0
 70
   128
 71
    11
 72
     1
 73
    -4
  0
VERTEX
  5
8CA
  8
0
 10
0.0
 20
0.0
 30
0.0
 70
   128
 71
    12
 72
   -11
 73
     4
  0
VERTEX
  5
8CB
  8
0
 10
0.0
 20
0.0
 30
0.0
 70
   128
 71
     2
 72
    13
 73
   -14
  0
VERTEX
  5
8CC
  8
0
 10
0.0
 20
0.0
 30
0.0
 70
   128
 71
     3
 72
    -2
 73
    14
  0
SEQEND
  5
AFE
  8
0
  0
POLYLINE
  5
8CD
  8
0
 66
     1
 10
0.0
 20
0.0
 30
0.0
 70
    64
 71
    14
 72
    12
  0
VERTEX
  5
8CE
  8
0
 10
303.1088913245536
 20
175.0
 30
0.0
 70
   192
  0
VERTEX
  5
8CF
  8
0
 10
303.1088913245536
 20
175.0
 30
-25.0
 70
   192
  0
VERTEX
  5
8D0
  8
0
 10
175.0000000000001
 20
303.1088913245535
 30
-25.0
 70
   192
  0
VERTEX
  5
8D1
  8
0
 10
175.0000000000001
 20
303.1088913245535
 30
0.0
 70
   192
  0
VERTEX
  5
8D2
  8
0
 10
-174.9999999999999
 20
303.1088913245536
 30
0.0
 70
   192
  0
VERTEX
  5
8D3
  8
0
 10
-174.9999999999999
 20
303.1088913245536
 30
-25.0
 70
   192
  0
VERTEX
  5
8D4
  8
0
 10
-303.1088913245535
 20
175.0000000000001
 30
-25.0
 70
   192
  0
VERTEX
  5
8D5
  8
0
 10
-303.1088913245535
 20
175.0000000000001
 30
0.0
 70
   192
  0
VERTEX
  5
8D6
  8
0
 10
-350.0
 20
0.0000000000001943
 30
-25.0
 70
   192
  0
VERTEX
  5
8D7
  8
0
 10
-350.0
 20
0.0000000000000429
 30
0.0
 70
   192
  0
VERTEX
  5
8D8
  8
0
 10
0.0000000000000971
 20
350.0
 30
0.0
 70
   192
  0
VERTEX
  5
8D9
  8
0
 10
0.0000000000000971
 20
350.0
 30
-25.0
 70
   192
  0
VERTEX
  5
8DA
  8
0
 10
350.0
 20
0.0
 30
0.0
 70
   192
  0
VERTEX
  5
8DB
  8
0
 10
350.0
 20
0.0
 30
-25.0
 70
   192
  0
VERTEX
  5
8DC
  8
0
 10
0.0
 20
0.0
 30
0.0
 70
   128
 71
     1
 72
     2
 73
    -3
  0
VERTEX
  5
8DD
  8
0
 10
0.0
 20
0.0
 30
0.0
 70
   128
 71
    -1
 72
     3
 73
     4
  0
VERTEX
  5
8DE
  8
0
 10
0.0
 20
0.0
 30
0.0
 70
   128
 71
     5
 72
     6
 73
    -7
  0
VERTEX
  5
8DF
  8
0
 10
0.0
 20
0.0
 30
0.0
 70
   128
 71
    -5
 72
     7
 73
     8
  0
VERTEX
  5
8E0
  8
0
 10
0.0
 20
0.0
 30
0.0
 70
   128
 71
     8
 72
     7
 73
    -9
  0
VERTEX
  5
8E1
  8
0
 10
0.0
 20
0.0
 30
0.0
 70
   128
 71
    -8
 72
     9
 73
    10
  0
VERTEX
  5
8E2
  8
0
 10
0.0
 20
0.0
 30
0.0
 70
   128
 71
    11
 72
    12
 73
    -6
  0
VERTEX
  5
8E3
  8
0
 10
0.0
 20
0.0
 30
0.0
 70
   128
 71
   -11
 72
     6
 73
     5
  0
VERTEX
  5
8E4
  8
0
 10
0.0
 20
0.0
 30
0.0
 70
   128
 71
     4
 72
     3
 73
   -12
  0
VERTEX
  5
8E5
  8
0
 10
0.0
 20
0.0
 30
0.0
 70
   128
 71
    -4
 72
    12
 73
    11
  0
VERTEX
  5
8E6
  8
0
 10
0.0
 20
0.0
 30
0.0
 70
   128
 71
    13
 72
    14
 73
    -2
  0
VERTEX
  5
8E7
  8
0
 10
0.0
 20
0.0
 30
0.0
 70
   128
 71
   -13
 72
     2
 73
     1
  0
SEQEND
  5
AFF
  8
0
  0
POLYLINE
  5
8E8
  8
0
 66
     1
 10
0.0
 20
0.0
 30
0.0
 70
    64
 71
    14
 72
    12
  0
VERTEX
  5
8E9
  8
0
 10
-303.1088913245536
 20
-174.9999999999999
 30
0.0
 70
   192
  0
VERTEX
  5
8EA
  8
0
 10
-303.1088913245536
 20
-174.9999999999999
 30
-25.0
 70
   192
  0
VERTEX
  5
8EB
  8
0
 10
-175.0000000000001
 20
-303.1088913245535
 30
-25.0
 70
   192
  0
VERTEX
  5
8EC
  8
0
 10
-175.0000000000001
 20
-303.1088913245535
 30
0.0
 70
   192
  0
VERTEX
  5
8ED
  8
0
 10
174.9999999999999
 20
-303.1088913245536
 30
0.0
 70
   192
  0
VERTEX
  5
8EE
  8
0
 10
174.9999999999999
 20
-303.1088913245536
 30
-25.0
 70
   192
  0
VERTEX
  5
8EF
  8
0
 10
303.1088913245534
 20
-175.0000000000002
 30
-25.0
 70
   192
  0
VERTEX
  5
8F0
  8
0
 10
303.1088913245534
 20
-175.0000000000002
 30
0.0
 70
   192
  0
VERTEX
  5
8F1
  8
0
 10
350.0
 20
-0.0000000000002526
 30
-25.0
 70
   192
  0
VERTEX
  5
8F2
  8
0
 10
350.0
 20
0.0
 30
0.0
 70
   192
  0
VERTEX
  5
8F3
  8
0
 10
-0.000000000000136
 20
-350.0
 30
0.0
 70
   192
  0
VERTEX
  5
8F4
  8
0
 10
-0.000000000000136
 20
-350.0
 30
-25.0
 70
   192
  0
VERTEX
  5
8F5
  8
0
 10
-350.0
 20
0.0000000000000429
 30
0.0
 70
   192
  0
VERTEX
  5
8F6
  8
0
 10
-350.0
 20
0.0000000000000429
 30
-25.0
 70
   192
  0
VERTEX
  5
8F7
  8
0
 10
0.0
 20
0.0
 30
0.0
 70
   128
 71
     1
 72
     2
 73
    -3
  0
VERTEX
  5
8F8
  8
0
 10
0.0
 20
0.0
 30
0.0
 70
   128
 71
    -1
 72
     3
 73
     4
  0
VERTEX
  5
8F9
  8
0
 10
0.0
 20
0.0
 30
0.0
 70
   128
 71
     5
 72
     6
 73
    -7
  0
VERTEX
  5
8FA
  8
0
 10
0.0
 20
0.0
 30
0.0
 70
   128
 71
    -5
 72
     7
 73
     8
  0
VERTEX
  5
8FB
  8
0
 10
0.0
 20
0.0
 30
0.0
 70
   128
 71
     8
 72
     7
 73
    -9
  0
VERTEX
  5
8FC
  8
0
 10
0.0
 20
0.0
 30
0.0
 70
   128
 71
    -8
 72
     9
 73
    10
  0
VERTEX
  5
8FD
  8
0
 10
0.0
 20
0.0
 30
0.0
 70
   128
 71
    11
 72
    12
 73
    -6
  0
VERTEX
  5
8FE
  8
0
 10
0.0
 20
0.0
 30
0.0
 70
   128
 71
   -11
 72
     6
 73
     5
  0
VERTEX
  5
8FF
  8
0
 10
0.0
 20
0.0
 30
0.0
 70
   128
 71
     4
 72
     3
 73
   -12
  0
VERTEX
  5
900
  8
0
 10
0.0
 20
0.0
 30
0.0
 70
   128
 71
    -4
 72
    12
 73
    11
  0
VERTEX
  5
901
  8
0
 10
0.0
 20
0.0
 30
0.0
 70
   128
 71
    13
 72
    14
 73
    -2
  0
VERTEX
  5
902
  8
0
 10
0.0
 20
0.0
 30
0.0
 70
   128
 71
   -13
 72
     2
 73
     1
  0
SEQEND
  5
B00
  8
0
  0
POLYLINE
  5
903
  8
0
 66
     1
 10
0.0
 20
0.0
 30
0.0
 70
    64
 71
    24
 72
    24
  0
VERTEX
  5
904
  8
0
 10
-350.0
 20
0.0000000000000429
 30
-25.0
 70
   192
  0
VERTEX
  5
905
  8
0
 10
-303.1088913245536
 20
-174.9999999999999
 30
-25.0
 70
   192
  0
VERTEX
  5
906
  8
0
 10
-175.0000000000001
 20
-303.1088913245535
 30
-25.0
 70
   192
  0
VERTEX
  5
907
  8
0
 10
-0.000000000000136
 20
-350.0
 30
-25.0
 70
   192
  0
VERTEX
  5
908
  8
0
 10
174.9999999999999
 20
-303.1088913245536
 30
-25.0
 70
   192
  0
VERTEX
  5
909
  8
0
 10
303.1088913245534
 20
-175.0000000000002
 30
-25.0
 70
   192
  0
VERTEX
  5
90A
  8
0
 10
350.0
 20
0.0
 30
-25.0
 70
   192
  0
VERTEX
  5
90B
  8
0
 10
303.1088913245536
 20
175.0
 30
-25.0
 70
   192
  0
VERTEX
  5
90C
  8
0
 10
175.0000000000001
 20
303.1088913245535
 30
-25.0
 70
   192
  0
VERTEX
  5
90D
  8
0
 10
0.0000000000000971
 20
350.0
 30
-25.0
 70
   192
  0
VERTEX
  5
90E
  8
0
 10
-174.9999999999999
 20
303.1088913245536
 30
-25.0
 70
   192
  0
VERTEX
  5
90F
  8
0
 10
-303.1088913245535
 20
175.0000000000001
 30
-25.0
 70
   192
  0
VERTEX
  5
910
  8
0
 10
339.9999999999999
 20
-0.0000000000002454
 30
-25.0
 70
   192
  0
VERTEX
  5
911
  8
0
 10
294.448637286709
 20
-170.0000000000002
 30
-25.0
 70
   192
  0
VERTEX
  5
912
  8
0
 10
169.9999999999998
 20
-294.4486372867092
 30
-25.0
 70
   192
  0
VERTEX
  5
913
  8
0
 10
-0.0000000000001321
 20
-339.9999999999999
 30
-25.0
 70
   192
  0
VERTEX
  5
914
  8
0
 10
-170.0000000000001
 20
-294.4486372867091
 30
-25.0
 70
   192
  0
VERTEX
  5
915
  8
0
 10
-294.4486372867091
 20
-169.9999999999999
 30
-25.0
 70
   192
  0
VERTEX
  5
916
  8
0
 10
-339.9999999999999
 20
0.0000000000001887
 30
-25.0
 70
   192
  0
VERTEX
  5
917
  8
0
 10
-294.448637286709
 20
170.0000000000001
 30
-25.0
 70
   192
  0
VERTEX
  5
918
  8
0
 10
-169.9999999999999
 20
294.4486372867091
 30
-25.0
 70
   192
  0
VERTEX
  5
919
  8
0
 10
0.0000000000000944
 20
339.9999999999999
 30
-25.0
 70
   192
  0
VERTEX
  5
91A
  8
0
 10
170.0000000000001
 20
294.4486372867091
 30
-25.0
 70
   192
  0
VERTEX
  5
91B
  8
0
 10
294.4486372867091
 20
169.9999999999999
 30
-25.0
 70
   192
  0
VERTEX
  5
91C
  8
0
 10
0.0
 20
0.0
 30
0.0
 70
   128
 71
    14
 72
   -13
 73
    -7
  0
VERTEX
  5
91D
  8
0
 10
0.0
 20
0.0
 30
0.0
 70
   128
 71
   -14
 72
     7
 73
    -6
  0
VERTEX
  5
91E
  8
0
 10
0.0
 20
0.0
 30
0.0
 70
   128
 71
     6
 72
    -5
 73
   -15
  0
VERTEX
  5
91F
  8
0
 10
0.0
 20
0.0
 30
0.0
 70
   128
 71
    -6
 72
    15
 73
   -14
  0
VERTEX
  5
920
  8
0
 10
0.0
 20
0.0
 30
0.0
 70
   128
 71
     5
 72
    -4
 73
   -16
  0
VERTEX
  5
921
  8
0
 10
0.0
 20
0.0
 30
0.0
 70
   128
 71
    -5
 72
    16
 73
   -15
  0
VERTEX
  5
922
  8
0
 10
0.0
 20
0.0
 30
0.0
 70
   128
 71
     4
 72
    -3
 73
   -17
  0
VERTEX
  5
923
  8
0
 10
0.0
 20
0.0
 30
0.0
 70
   128
 71
    -4
 72
    17
 73
   -16
  0
VERTEX
  5
924
  8
0
 10
0.0
 20
0.0
 30
0.0
 70
   128
 71
     3
 72
    -2
 73
   -18
  0
VERTEX
  5
925
  8
0
 10
0.0
 20
0.0
 30
0.0
 70
   128
 71
    -3
 72
    18
 73
   -17
  0
VERTEX
  5
926
  8
0
 10
0.0
 20
0.0
 30
0.0
 70
   128
 71
     2
 72
    -1
 73
   -19
  0
VERTEX
  5
927
  8
0
 10
0.0
 20
0.0
 30
0.0
 70
   128
 71
    -2
 72
    19
 73
   -18
  0
VERTEX
  5
928
  8
0
 10
0.0
 20
0.0
 30
0.0
 70
   128
 71
     1
 72
   -12
 73
   -20
  0
VERTEX
  5
929
  8
0
 10
0.0
 20
0.0
 30
0.0
 70
   128
 71
    -1
 72
    20
 73
   -19
  0
VERTEX
  5
92A
  8
0
 10
0.0
 20
0.0
 30
0.0
 70
   128
 71
    12
 72
   -11
 73
   -21
  0
VERTEX
  5
92B
  8
0
 10
0.0
 20
0.0
 30
0.0
 70
   128
 71
   -12
 72
    21
 73
   -20
  0
VERTEX
  5
92C
  8
0
 10
0.0
 20
0.0
 30
0.0
 70
   128
 71
    11
 72
   -10
 73
   -22
  0
VERTEX
  5
92D
  8
0
 10
0.0
 20
0.0
 30
0.0
 70
   128
 71
   -11
 72
    22
 73
   -21
  0
VERTEX
  5
92E
  8
0
 10
0.0
 20
0.0
 30
0.0
 70
   128
 71
    10
 72
    -9
 73
   -23
  0
VERTEX
  5
92F
  8
0
 10
0.0
 20
0.0
 30
0.0
 70
   128
 71
   -10
 72
    23
 73
   -22
  0
VERTEX
  5
930
  8
0
 10
0.0
 20
0.0
 30
0.0
 70
   128
 71
     9
 72
    -8
 73
   -24
  0
VERTEX
  5
931
  8
0
 10
0.0
 20
0.0
 30
0.0
 70
   128
 71
    -9
 72
    24
 73
   -23
  0
VERTEX
  5
932
  8
0
 10
0.0
 20
0.0
 30
0.0
 70
   128
 71
     8
 72
    -7
 73
   -13
  0
VERTEX
  5
933
  8
0
 10
0.0
 20
0.0
 30
0.0
 70
   128
 71
    -8
 72
    13
 73
   -24
  0
SEQEND
  5
B01
  8
0
  0
POLYLINE
  5
934
  8
0
 66
     1
 10
0.0
 20
0.0
 30
0.0
 70
    64
 71
    24
 72
    24
  0
VERTEX
  5
935
  8
0
 10
350.0
 20
0.0
 30
0.0
 70
   192
  0
VERTEX
  5
936
  8
0
 10
303.1088913245536
 20
175.0
 30
0.0
 70
   192
  0
VERTEX
  5
937
  8
0
 10
175.0000000000001
 20
303.1088913245535
 30
0.0
 70
   192
  0
VERTEX
  5
938
  8
0
 10
0.0000000000000971
 20
350.0
 30
0.0
 70
   192
  0
VERTEX
  5
939
  8
0
 10
-174.9999999999999
 20
303.1088913245536
 30
0.0
 70
   192
  0
VERTEX
  5
93A
  8
0
 10
-303.1088913245535
 20
175.0000000000001
 30
0.0
 70
   192
  0
VERTEX
  5
93B
  8
0
 10
-350.0
 20
0.0000000000001943
 30
0.0
 70
   192
  0
VERTEX
  5
93C
  8
0
 10
-303.1088913245536
 20
-174.9999999999999
 30
0.0
 70
   192
  0
VERTEX
  5
93D
  8
0
 10
-175.0000000000001
 20
-303.1088913245535
 30
0.0
 70
   192
  0
VERTEX
  5
93E
  8
0
 10
-0.000000000000136
 20
-350.0
 30
0.0
 70
   192
  0
VERTEX
  5
93F
  8
0
 10
174.9999999999999
 20
-303.1088913245536
 30
0.0
 70
   192
  0
VERTEX
  5
940
  8
0
 10
303.1088913245534
 20
-175.0000000000002
 30
0.0
 70
   192
  0
VERTEX
  5
941
  8
0
 10
-339.9999999999999
 20
0.0000000000001887
 30
0.0
 70
   192
  0
VERTEX
  5
942
  8
0
 10
-294.448637286709
 20
170.0000000000001
 30
0.0
 70
   192
  0
VERTEX
  5
943
  8
0
 10
-169.9999999999999
 20
294.4486372867091
 30
0.0
 70
   192
  0
VERTEX
  5
944
  8
0
 10
0.0000000000000944
 20
339.9999999999999
 30
0.0
 70
   192
  0
VERTEX
  5
945
  8
0
 10
170.0000000000001
 20
294.4486372867091
 30
0.0
 70
   192
  0
VERTEX
  5
946
  8
0
 10
294.4486372867091
 20
169.9999999999999
 30
0.0
 70
   192
  0
VERTEX
  5
947
  8
0
 10
339.9999999999999
 20
0.0
 30
0.0
 70
   192
  0
VERTEX
  5
948
  8
0
 10
294.448637286709
 20
-170.0000000000002
 30
0.0
 70
   192
  0
VERTEX
  5
949
  8
0
 10
169.9999999999998
 20
-294.4486372867092
 30
0.0
 70
   192
  0
VERTEX
  5
94A
  8
0
 10
-0.0000000000001321
 20
-339.9999999999999
 30
0.0
 70
   192
  0
VERTEX
  5
94B
  8
0
 10
-170.0000000000001
 20
-294.4486372867091
 30
0.0
 70
   192
  0
VERTEX
  5
94C
  8
0
 10
-294.4486372867091
 20
-169.9999999999999
 30
0.0
 70
   192
  0
VERTEX
  5
94D
  8
0
 10
0.0
 20
0.0
 30
0.0
 70
   128
 71
    -7
 72
    13
 73
   -14
  0
VERTEX
  5
94E
  8
0
 10
0.0
 20
0.0
 30
0.0
 70
   128
 71
     6
 72
    -7
 73
   -14
  0
VERTEX
  5
94F
  8
0
 10
0.0
 20
0.0
 30
0.0
 70
   128
 71
   -15
 72
     5
 73
    -6
  0
VERTEX
  5
950
  8
0
 10
0.0
 20
0.0
 30
0.0
 70
   128
 71
    14
 72
   -15
 73
    -6
  0
VERTEX
  5
951
  8
0
 10
0.0
 20
0.0
 30
0.0
 70
   128
 71
   -16
 72
     4
 73
    -5
  0
VERTEX
  5
952
  8
0
 10
0.0
 20
0.0
 30
0.0
 70
   128
 71
    15
 72
   -16
 73
    -5
  0
VERTEX
  5
953
  8
0
 10
0.0
 20
0.0
 30
0.0
 70
   128
 71
   -17
 72
     3
 73
    -4
  0
VERTEX
  5
954
  8
0
 10
0.0
 20
0.0
 30
0.0
 70
   128
 71
    16
 72
   -17
 73
    -4
  0
VERTEX
  5
955
  8
0
 10
0.0
 20
0.0
 30
0.0
 70
   128
 71
   -18
 72
     2
 73
    -3
  0
VERTEX
  5
956
  8
0
 10
0.0
 20
0.0
 30
0.0
 70
   128
 71
    17
 72
   -18
 73
    -3
  0
VERTEX
  5
957
  8
0
 10
0.0
 20
0.0
 30
0.0
 70
   128
 71
   -19
 72
     1
 73
    -2
  0
VERTEX
  5
958
  8
0
 10
0.0
 20
0.0
 30
0.0
 70
   128
 71
    18
 72
   -19
 73
    -2
  0
VERTEX
  5
959
  8
0
 10
0.0
 20
0.0
 30
0.0
 70
   128
 71
   -20
 72
    12
 73
    -1
  0
VERTEX
  5
95A
  8
0
 10
0.0
 20
0.0
 30
0.0
 70
   128
 71
    19
 72
   -20
 73
    -1
  0
VERTEX
  5
95B
  8
0
 10
0.0
 20
0.0
 30
0.0
 70
   128
 71
   -21
 72
    11
 73
   -12
  0
VERTEX
  5
95C
  8
0
 10
0.0
 20
0.0
 30
0.0
 70
   128
 71
    20
 72
   -21
 73
   -12
  0
VERTEX
  5
95D
  8
0
 10
0.0
 20
0.0
 30
0.0
 70
   128
 71
   -22
 72
    10
 73
   -11
  0
VERTEX
  5
95E
  8
0
 10
0.0
 20
0.0
 30
0.0
 70
   128
 71
    21
 72
   -22
 73
   -11
  0
VERTEX
  5
95F
  8
0
 10
0.0
 20
0.0
 30
0.0
 70
   128
 71
   -23
 72
     9
 73
   -10
  0
VERTEX
  5
960
  8
0
 10
0.0
 20
0.0
 30
0.0
 70
   128
 71
    22
 72
   -23
 73
   -10
  0
VERTEX
  5
961
  8
0
 10
0.0
 20
0.0
 30
0.0
 70
   128
 71
   -24
 72
     8
 73
    -9
  0
VERTEX
  5
962
  8
0
 10
0.0
 20
0.0
 30
0.0
 70
   128
 71
    23
 72
   -24
 73
    -9
  0
VERTEX
  5
963
  8
0
 10
0.0
 20
0.0
 30
0.0
 70
   128
 71
   -13
 72
     7
 73
    -8
  0
VERTEX
  5
964
  8
0
 10
0.0
 20
0.0
 30
0.0
 70
   128
 71
    24
 72
   -13
 73
    -8
  0
SEQEND
  5
B02
  8
0
  0
POLYLINE
  5
965
  8
0
 66
     1
 10
0.0
 20
0.0
 30
0.0
 70
    64
 71
    14
 72
    12
  0
VERTEX
  5
966
  8
0
 10
170.0000000000001
 20
294.4486372867091
 30
-0.5
 70
   192
  0
VERTEX
  5
967
  8
0
 10
294.4486372867091
 20
169.9999999999999
 30
-0.5
 70
   192
  0
VERTEX
  5
968
  8
0
 10
294.4486372867091
 20
169.9999999999999
 30
0.0
 70
   192
  0
VERTEX
  5
969
  8
0
 10
170.0000000000001
 20
294.4486372867091
 30
0.0
 70
   192
  0
VERTEX
  5
96A
  8
0
 10
-294.448637286709
 20
170.0000000000001
 30
-0.5
 70
   192
  0
VERTEX
  5
96B
  8
0
 10
-169.9999999999999
 20
294.4486372867091
 30
-0.5
 70
   192
  0
VERTEX
  5
96C
  8
0
 10
-169.9999999999999
 20
294.4486372867091
 30
0.0
 70
   192
  0
VERTEX
  5
96D
  8
0
 10
-294.448637286709
 20
170.0000000000001
 30
0.0
 70
   192
  0
VERTEX
  5
96E
  8
0
 10
-339.9999999999999
 20
0.0000000000000416
 30
-0.5
 70
   192
  0
VERTEX
  5
96F
  8
0
 10
-339.9999999999999
 20
0.0000000000000416
 30
0.0
 70
   192
  0
VERTEX
  5
970
  8
0
 10
0.0000000000000944
 20
339.9999999999999
 30
-0.5
 70
   192
  0
VERTEX
  5
971
  8
0
 10
0.0000000000000944
 20
339.9999999999999
 30
0.0
 70
   192
  0
VERTEX
  5
972
  8
0
 10
339.9999999999999
 20
0.0
 30
-0.5
 70
   192
  0
VERTEX
  5
973
  8
0
 10
339.9999999999999
 20
0.0
 30
0.0
 70
   192
  0
VERTEX
  5
974
  8
0
 10
0.0
 20
0.0
 30
0.0
 70
   128
 71
     1
 72
     2
 73
    -3
  0
VERTEX
  5
975
  8
0
 10
0.0
 20
0.0
 30
0.0
 70
   128
 71
     4
 72
    -1
 73
     3
  0
VERTEX
  5
976
  8
0
 10
0.0
 20
0.0
 30
0.0
 70
   128
 71
     5
 72
     6
 73
    -7
  0
VERTEX
  5
977
  8
0
 10
0.0
 20
0.0
 30
0.0
 70
   128
 71
     8
 72
    -5
 73
     7
  0
VERTEX
  5
978
  8
0
 10
0.0
 20
0.0
 30
0.0
 70
   128
 71
     9
 72
     5
 73
    -8
  0
VERTEX
  5
979
  8
0
 10
0.0
 20
0.0
 30
0.0
 70
   128
 71
    10
 72
    -9
 73
     8
  0
VERTEX
  5
97A
  8
0
 10
0.0
 20
0.0
 30
0.0
 70
   128
 71
     6
 72
    11
 73
   -12
  0
VERTEX
  5
97B
  8
0
 10
0.0
 20
0.0
 30
0.0
 70
   128
 71
     7
 72
    -6
 73
    12
  0
VERTEX
  5
97C
  8
0
 10
0.0
 20
0.0
 30
0.0
 70
   128
 71
    11
 72
     1
 73
    -4
  0
VERTEX
  5
97D
  8
0
 10
0.0
 20
0.0
 30
0.0
 70
   128
 71
    12
 72
   -11
 73
     4
  0
VERTEX
  5
97E
  8
0
 10
0.0
 20
0.0
 30
0.0
 70
   128
 71
     2
 72
    13
 73
   -14
  0
VERTEX
  5
97F
  8
0
 10
0.0
 20
0.0
 30
0.0
 70
   128
 71
     3
 72
    -2
 73
    14
  0
SEQEND
  5
B03
  8
0
  0
POLYLINE
  5
980
  8
0
 66
     1
 10
0.0
 20
0.0
 30
0.0
 70
    64
 71
    12
 72
    10
  0
VERTEX
  5
981
  8
0
 10
339.9999999999999
 20
0.0
 30
-0.5
 70
   192
  0
VERTEX
  5
982
  8
0
 10
294.4486372867091
 20
169.9999999999999
 30
-0.5
 70
   192
  0
VERTEX
  5
983
  8
0
 10
170.0000000000001
 20
294.4486372867091
 30
-0.5
 70
   192
  0
VERTEX
  5
984
  8
0
 10
0.0000000000000944
 20
339.9999999999999
 30
-0.5
 70
   192
  0
VERTEX
  5
985
  8
0
 10
-169.9999999999999
 20
294.4486372867091
 30
-0.5
 70
   192
  0
VERTEX
  5
986
  8
0
 10
-294.448637286709
 20
170.0000000000001
 30
-0.5
 70
   192
  0
VERTEX
  5
987
  8
0
 10
-339.9999999999999
 20
0.0000000000001887
 30
-0.5
 70
   192
  0
VERTEX
  5
988
  8
0
 10
-294.4486372867091
 20
-169.9999999999999
 30
-0.5
 70
   192
  0
VERTEX
  5
989
  8
0
 10
-170.0000000000001
 20
-294.4486372867091
 30
-0.5
 70
   192
  0
VERTEX
  5
98A
  8
0
 10
-0.0000000000001321
 20
-339.9999999999999
 30
-0.5
 70
   192
  0
VERTEX
  5
98B
  8
0
 10
169.9999999999998
 20
-294.4486372867092
 30
-0.5
 70
   192
  0
VERTEX
  5
98C
  8
0
 10
294.448637286709
 20
-170.0000000000002
 30
-0.5
 70
   192
  0
VERTEX
  5
98D
  8
0
 10
0.0
 20
0.0
 30
0.0
 70
   128
 71
    11
 72
    12
 73
    -1
  0
VERTEX
  5
98E
  8
0
 10
0.0
 20
0.0
 30
0.0
 70
   128
 71
    10
 72
   -11
 73
    -1
  0
VERTEX
  5
98F
  8
0
 10
0.0
 20
0.0
 30
0.0
 70
   128
 71
     9
 72
   -10
 73
    -1
  0
VERTEX
  5
990
  8
0
 10
0.0
 20
0.0
 30
0.0
 70
   128
 71
     8
 72
    -9
 73
    -1
  0
VERTEX
  5
991
  8
0
 10
0.0
 20
0.0
 30
0.0
 70
   128
 71
     7
 72
    -8
 73
    -1
  0
VERTEX
  5
992
  8
0
 10
0.0
 20
0.0
 30
0.0
 70
   128
 71
     6
 72
    -7
 73
    -1
  0
VERTEX
  5
993
  8
0
 10
0.0
 20
0.0
 30
0.0
 70
   128
 71
     5
 72
    -6
 73
    -1
  0
VERTEX
  5
994
  8
0
 10
0.0
 20
0.0
 30
0.0
 70
   128
 71
     4
 72
    -5
 73
    -1
  0
VERTEX
  5
995
  8
0
 10
0.0
 20
0.0
 30
0.0
 70
   128
 71
     3
 72
    -4
 73
    -1
  0
VERTEX
  5
996
  8
0
 10
0.0
 20
0.0
 30
0.0
 70
   128
 71
     2
 72
    -3
 73
     1
  0
SEQEND
  5
B04
  8
0
  0
POLYLINE
  5
997
  8
0
 66
     1
 10
0.0
 20
0.0
 30
0.0
 70
    64
 71
    12
 72
    10
  0
VERTEX
  5
998
  8
0
 10
-339.9999999999999
 20
0.0000000000000416
 30
-10.5
 70
   192
  0
VERTEX
  5
999
  8
0
 10
-294.4486372867091
 20
-169.9999999999999
 30
-10.5
 70
   192
  0
VERTEX
  5
99A
  8
0
 10
-170.0000000000001
 20
-294.4486372867091
 30
-10.5
 70
   192
  0
VERTEX
  5
99B
  8
0
 10
-0.0000000000001321
 20
-339.9999999999999
 30
-10.5
 70
   192
  0
VERTEX
  5
99C
  8
0
 10
169.9999999999998
 20
-294.4486372867092
 30
-10.5
 70
   192
  0
VERTEX
  5
99D
  8
0
 10
294.448637286709
 20
-170.0000000000002
 30
-10.5
 70
   192
  0
VERTEX
  5
99E
  8
0
 10
339.9999999999999
 20
0.0
 30
-10.5
 70
   192
  0
VERTEX
  5
99F
  8
0
 10
294.4486372867091
 20
169.9999999999999
 30
-10.5
 70
   192
  0
VERTEX
  5
9A0
  8
0
 10
170.0000000000001
 20
294.4486372867091
 30
-10.5
 70
   192
  0
VERTEX
  5
9A1
  8
0
 10
0.0000000000000944
 20
339.9999999999999
 30
-10.5
 70
   192
  0
VERTEX
  5
9A2
  8
0
 10
-169.9999999999999
 20
294.4486372867091
 30
-10.5
 70
   192
  0
VERTEX
  5
9A3
  8
0
 10
-294.448637286709
 20
170.0000000000001
 30
-10.5
 70
   192
  0
VERTEX
  5
9A4
  8
0
 10
0.0
 20
0.0
 30
0.0
 70
   128
 71
     1
 72
    12
 73
   -11
  0
VERTEX
  5
9A5
  8
0
 10
0.0
 20
0.0
 30
0.0
 70
   128
 71
    -1
 72
    11
 73
   -10
  0
VERTEX
  5
9A6
  8
0
 10
0.0
 20
0.0
 30
0.0
 70
   128
 71
    -1
 72
    10
 73
    -9
  0
VERTEX
  5
9A7
  8
0
 10
0.0
 20
0.0
 30
0.0
 70
   128
 71
    -1
 72
     9
 73
    -8
  0
VERTEX
  5
9A8
  8
0
 10
0.0
 20
0.0
 30
0.0
 70
   128
 71
    -1
 72
     8
 73
    -7
  0
VERTEX
  5
9A9
  8
0
 10
0.0
 20
0.0
 30
0.0
 70
   128
 71
    -1
 72
     7
 73
    -6
  0
VERTEX
  5
9AA
  8
0
 10
0.0
 20
0.0
 30
0.0
 70
   128
 71
    -1
 72
     6
 73
    -5
  0
VERTEX
  5
9AB
  8
0
 10
0.0
 20
0.0
 30
0.0
 70
   128
 71
    -1
 72
     5
 73
    -4
  0
VERTEX
  5
9AC
  8
0
 10
0.0
 20
0.0
 30
0.0
 70
   128
 71
    -1
 72
     4
 73
    -3
  0
VERTEX
  5
9AD
  8
0
 10
0.0
 20
0.0
 30
0.0
 70
   128
 71
    -1
 72
     3
 73
     2
  0
SEQEND
  5
B05
  8
0
  0
POLYLINE
  5
9AE
  8
0
 66
     1
 10
0.0
 20
0.0
 30
0.0
 70
    64
 71
    14
 72
    12
  0
VERTEX
  5
9AF
  8
0
 10
170.0000000000001
 20
294.4486372867091
 30
-25.0
 70
   192
  0
VERTEX
  5
9B0
  8
0
 10
294.4486372867091
 20
169.9999999999999
 30
-25.0
 70
   192
  0
VERTEX
  5
9B1
  8
0
 10
294.4486372867091
 20
169.9999999999999
 30
-10.5
 70
   192
  0
VERTEX
  5
9B2
  8
0
 10
170.0000000000001
 20
294.4486372867091
 30
-10.5
 70
   192
  0
VERTEX
  5
9B3
  8
0
 10
-294.448637286709
 20
170.0000000000001
 30
-25.0
 70
   192
  0
VERTEX
  5
9B4
  8
0
 10
-169.9999999999999
 20
294.4486372867091
 30
-25.0
 70
   192
  0
VERTEX
  5
9B5
  8
0
 10
-169.9999999999999
 20
294.4486372867091
 30
-10.5
 70
   192
  0
VERTEX
  5
9B6
  8
0
 10
-294.448637286709
 20
170.0000000000001
 30
-10.5
 70
   192
  0
VERTEX
  5
9B7
  8
0
 10
-339.9999999999999
 20
0.0000000000000416
 30
-25.0
 70
   192
  0
VERTEX
  5
9B8
  8
0
 10
-339.9999999999999
 20
0.0000000000000416
 30
-10.5
 70
   192
  0
VERTEX
  5
9B9
  8
0
 10
0.0000000000000944
 20
339.9999999999999
 30
-25.0
 70
   192
  0
VERTEX
  5
9BA
  8
0
 10
0.0000000000000944
 20
339.9999999999999
 30
-10.5
 70
   192
  0
VERTEX
  5
9BB
  8
0
 10
339.9999999999999
 20
0.0
 30
-25.0
 70
   192
  0
VERTEX
  5
9BC
  8
0
 10
339.9999999999999
 20
0.0
 30
-10.5
 70
   192
  0
VERTEX
  5
9BD
  8
0
 10
0.0
 20
0.0
 30
0.0
 70
   128
 71
     1
 72
     2
 73
    -3
  0
VERTEX
  5
9BE
  8
0
 10
0.0
 20
0.0
 30
0.0
 70
   128
 71
     4
 72
    -1
 73
     3
  0
VERTEX
  5
9BF
  8
0
 10
0.0
 20
0.0
 30
0.0
 70
   128
 71
     5
 72
     6
 73
    -7
  0
VERTEX
  5
9C0
  8
0
 10
0.0
 20
0.0
 30
0.0
 70
   128
 71
     8
 72
    -5
 73
     7
  0
VERTEX
  5
9C1
  8
0
 10
0.0
 20
0.0
 30
0.0
 70
   128
 71
     9
 72
     5
 73
    -8
  0
VERTEX
  5
9C2
  8
0
 10
0.0
 20
0.0
 30
0.0
 70
   128
 71
    10
 72
    -9
 73
     8
  0
VERTEX
  5
9C3
  8
0
 10
0.0
 20
0.0
 30
0.0
 70
   128
 71
     6
 72
    11
 73
   -12
  0
VERTEX
  5
9C4
  8
0
 10
0.0
 20
0.0
 30
0.0
 70
   128
 71
     7
 72
    -6
 73
    12
  0
VERTEX
  5
9C5
  8
0
 10
0.0
 20
0.0
 30
0.0
 70
   128
 71
    11
 72
     1
 73
    -4
  0
VERTEX
  5
9C6
  8
0
 10
0.0
 20
0.0
 30
0.0
 70
   128
 71
    12
 72
   -11
 73
     4
  0
VERTEX
  5
9C7
  8
0
 10
0.0
 20
0.0
 30
0.0
 70
   128
 71
     2
 72
    13
 73
   -14
  0
VERTEX
  5
9C8
  8
0
 10
0.0
 20
0.0
 30
0.0
 70
   128
 71
     3
 72
    -2
 73
    14
  0
SEQEND
  5
B06
  8
0
  0
ENDBLK
  5
AFC
  8
0
  0
BLOCK
  8
0
  2
*X2
 70
     1
 10
0.0
 20
0.0
 30
0.0
  3
*X2
  1

  0
POLYLINE
  5
9CA
  8
0
 66
     1
 10
0.0
 20
0.0
 30
0.0
 70
    64
 71
     6
 72
     4
  0
VERTEX
  5
9CB
  8
0
 10
-133.0000000000002
 20
179.9999999999999
 30
-20.5
 70
   192
  0
VERTEX
  5
9CC
  8
0
 10
-167.0000000000003
 20
179.9999999999999
 30
-20.5
 70
   192
  0
VERTEX
  5
9CD
  8
0
 10
-167.0000000000003
 20
179.9999999999999
 30
-13.5
 70
   192
  0
VERTEX
  5
9CE
  8
0
 10
-170.0000000000003
 20
179.9999999999999
 30
-13.5
 70
   192
  0
VERTEX
  5
9CF
  8
0
 10
-170.0000000000003
 20
179.9999999999999
 30
-23.5
 70
   192
  0
VERTEX
  5
9D0
  8
0
 10
-133.0000000000002
 20
179.9999999999999
 30
-23.5
 70
   192
  0
VERTEX
  5
9D1
  8
0
 10
0.0
 20
0.0
 30
0.0
 70
   128
 71
     6
 72
     1
 73
    -2
  0
VERTEX
  5
9D2
  8
0
 10
0.0
 20
0.0
 30
0.0
 70
   128
 71
     5
 72
    -6
 73
    -2
  0
VERTEX
  5
9D3
  8
0
 10
0.0
 20
0.0
 30
0.0
 70
   128
 71
     3
 72
     4
 73
    -5
  0
VERTEX
  5
9D4
  8
0
 10
0.0
 20
0.0
 30
0.0
 70
   128
 71
     2
 72
    -3
 73
    -5
  0
SEQEND
  5
B09
  8
0
  0
POLYLINE
  5
9D5
  8
0
 66
     1
 10
0.0
 20
0.0
 30
0.0
 70
    64
 71
     6
 72
     4
  0
VERTEX
  5
9D6
  8
0
 10
-170.0000000000002
 20
144.9999999999999
 30
-10.5
 70
   192
  0
VERTEX
  5
9D7
  8
0
 10
-170.0000000000003
 20
204.9999999999999
 30
-10.5
 70
   192
  0
VERTEX
  5
9D8
  8
0
 10
-170.0000000000003
 20
204.9999999999999
 30
-23.5
 70
   192
  0
VERTEX
  5
9D9
  8
0
 10
-170.0000000000003
 20
179.9999999999999
 30
-23.5
 70
   192
  0
VERTEX
  5
9DA
  8
0
 10
-170.0000000000003
 20
179.9999999999999
 30
-13.5
 70
   192
  0
VERTEX
  5
9DB
  8
0
 10
-170.0000000000002
 20
144.9999999999999
 30
-13.5
 70
   192
  0
VERTEX
  5
9DC
  8
0
 10
0.0
 20
0.0
 30
0.0
 70
   128
 71
     3
 72
     4
 73
    -5
  0
VERTEX
  5
9DD
  8
0
 10
0.0
 20
0.0
 30
0.0
 70
   128
 71
     2
 72
    -3
 73
    -5
  0
VERTEX
  5
9DE
  8
0
 10
0.0
 20
0.0
 30
0.0
 70
   128
 71
     6
 72
     1
 73
    -2
  0
VERTEX
  5
9DF
  8
0
 10
0.0
 20
0.0
 30
0.0
 70
   128
 71
     5
 72
    -6
 73
    -2
  0
SEQEND
  5
B0A
  8
0
  0
POLYLINE
  5
9E0
  8
0
 66
     1
 10
0.0
 20
0.0
 30
0.0
 70
    64
 71
     4
 72
     2
  0
VERTEX
  5
9E1
  8
0
 10
-170.0000000000003
 20
204.9999999999999
 30
-10.5
 70
   192
  0
VERTEX
  5
9E2
  8
0
 10
-170.0000000000003
 20
204.9999999999999
 30
-23.5
 70
   192
  0
VERTEX
  5
9E3
  8
0
 10
-90.00000000000024
 20
205.0
 30
-23.5
 70
   192
  0
VERTEX
  5
9E4
  8
0
 10
-90.00000000000024
 20
205.0
 30
-10.5
 70
   192
  0
VERTEX
  5
9E5
  8
0
 10
0.0
 20
0.0
 30
0.0
 70
   128
 71
     1
 72
     4
 73
    -3
  0
VERTEX
  5
9E6
  8
0
 10
0.0
 20
0.0
 30
0.0
 70
   128
 71
    -1
 72
     3
 73
     2
  0
SEQEND
  5
B0B
  8
0
  0
POLYLINE
  5
9E7
  8
0
 66
     1
 10
0.0
 20
0.0
 30
0.0
 70
    64
 71
     6
 72
     4
  0
VERTEX
  5
9E8
  8
0
 10
-90.00000000000024
 20
205.0
 30
-10.5
 70
   192
  0
VERTEX
  5
9E9
  8
0
 10
-90.00000000000024
 20
205.0
 30
-23.5
 70
   192
  0
VERTEX
  5
9EA
  8
0
 10
-90.00000000000021
 20
179.9999999999999
 30
-23.5
 70
   192
  0
VERTEX
  5
9EB
  8
0
 10
-90.00000000000021
 20
179.9999999999999
 30
-13.5
 70
   192
  0
VERTEX
  5
9EC
  8
0
 10
-90.00000000000018
 20
145.0
 30
-13.5
 70
   192
  0
VERTEX
  5
9ED
  8
0
 10
-90.00000000000018
 20
145.0
 30
-10.5
 70
   192
  0
VERTEX
  5
9EE
  8
0
 10
0.0
 20
0.0
 30
0.0
 70
   128
 71
     4
 72
     3
 73
    -2
  0
VERTEX
  5
9EF
  8
0
 10
0.0
 20
0.0
 30
0.0
 70
   128
 71
    -4
 72
     2
 73
    -1
  0
VERTEX
  5
9F0
  8
0
 10
0.0
 20
0.0
 30
0.0
 70
   128
 71
     1
 72
     6
 73
    -5
  0
VERTEX
  5
9F1
  8
0
 10
0.0
 20
0.0
 30
0.0
 70
   128
 71
    -1
 72
     5
 73
    -4
  0
SEQEND
  5
B0C
  8
0
  0
POLYLINE
  5
9F2
  8
0
 66
     1
 10
0.0
 20
0.0
 30
0.0
 70
    64
 71
     4
 72
     2
  0
VERTEX
  5
9F3
  8
0
 10
-90.00000000000018
 20
145.0
 30
-10.5
 70
   192
  0
VERTEX
  5
9F4
  8
0
 10
-170.0000000000002
 20
144.9999999999999
 30
-10.5
 70
   192
  0
VERTEX
  5
9F5
  8
0
 10
-170.0000000000002
 20
144.9999999999999
 30
-13.5
 70
   192
  0
VERTEX
  5
9F6
  8
0
 10
-90.00000000000018
 20
145.0
 30
-13.5
 70
   192
  0
VERTEX
  5
9F7
  8
0
 10
0.0
 20
0.0
 30
0.0
 70
   128
 71
     3
 72
     4
 73
    -1
  0
VERTEX
  5
9F8
  8
0
 10
0.0
 20
0.0
 30
0.0
 70
   128
 71
     2
 72
    -3
 73
     1
  0
SEQEND
  5
B0D
  8
0
  0
POLYLINE
  5
9F9
  8
0
 66
     1
 10
0.0
 20
0.0
 30
0.0
 70
    64
 71
     8
 72
     6
  0
VERTEX
  5
9FA
  8
0
 10
-93.00000000000026
 20
201.9999999999999
 30
-13.5
 70
   192
  0
VERTEX
  5
9FB
  8
0
 10
-167.0000000000003
 20
201.9999999999999
 30
-13.5
 70
   192
  0
VERTEX
  5
9FC
  8
0
 10
-167.0000000000003
 20
179.9999999999999
 30
-13.5
 70
   192
  0
VERTEX
  5
9FD
  8
0
 10
-170.0000000000003
 20
179.9999999999999
 30
-13.5
 70
   192
  0
VERTEX
  5
9FE
  8
0
 10
-170.0000000000002
 20
144.9999999999999
 30
-13.5
 70
   192
  0
VERTEX
  5
9FF
  8
0
 10
-90.00000000000018
 20
145.0
 30
-13.5
 70
   192
  0
VERTEX
  5
A00
  8
0
 10
-90.00000000000021
 20
179.9999999999999
 30
-13.5
 70
   192
  0
VERTEX
  5
A01
  8
0
 10
-93.00000000000023
 20
179.9999999999999
 30
-13.5
 70
   192
  0
VERTEX
  5
A02
  8
0
 10
0.0
 20
0.0
 30
0.0
 70
   128
 71
     8
 72
     7
 73
    -6
  0
VERTEX
  5
A03
  8
0
 10
0.0
 20
0.0
 30
0.0
 70
   128
 71
     3
 72
     2
 73
    -1
  0
VERTEX
  5
A04
  8
0
 10
0.0
 20
0.0
 30
0.0
 70
   128
 71
    -3
 72
     1
 73
    -8
  0
VERTEX
  5
A05
  8
0
 10
0.0
 20
0.0
 30
0.0
 70
   128
 71
    -8
 72
     6
 73
    -5
  0
VERTEX
  5
A06
  8
0
 10
0.0
 20
0.0
 30
0.0
 70
   128
 71
    -8
 72
    -5
 73
    -3
  0
VERTEX
  5
A07
  8
0
 10
0.0
 20
0.0
 30
0.0
 70
   128
 71
     5
 72
     4
 73
    -3
  0
SEQEND
  5
B0E
  8
0
  0
POLYLINE
  5
A08
  8
0
 66
     1
 10
0.0
 20
0.0
 30
0.0
 70
    64
 71
     4
 72
     2
  0
VERTEX
  5
A09
  8
0
 10
-170.0000000000003
 20
204.9999999999999
 30
-10.5
 70
   192
  0
VERTEX
  5
A0A
  8
0
 10
-170.0000000000002
 20
144.9999999999999
 30
-10.5
 70
   192
  0
VERTEX
  5
A0B
  8
0
 10
-90.00000000000018
 20
145.0
 30
-10.5
 70
   192
  0
VERTEX
  5
A0C
  8
0
 10
-90.00000000000024
 20
205.0
 30
-10.5
 70
   192
  0
VERTEX
  5
A0D
  8
0
 10
0.0
 20
0.0
 30
0.0
 70
   128
 71
     3
 72
     4
 73
    -1
  0
VERTEX
  5
A0E
  8
0
 10
0.0
 20
0.0
 30
0.0
 70
   128
 71
     2
 72
    -3
 73
     1
  0
SEQEND
  5
B0F
  8
0
  0
POLYLINE
  5
A0F
  8
0
 66
     1
 10
0.0
 20
0.0
 30
0.0
 70
    64
 71
     4
 72
     2
  0
VERTEX
  5
A10
  8
0
 10
-127.0000000000003
 20
199.9999999999999
 30
-20.5
 70
   192
  0
VERTEX
  5
A11
  8
0
 10
-133.0000000000002
 20
199.9999999999999
 30
-20.5
 70
   192
  0
VERTEX
  5
A12
  8
0
 10
-133.0000000000002
 20
199.9999999999999
 30
-23.5
 70
   192
  0
VERTEX
  5
A13
  8
0
 10
-127.0000000000003
 20
199.9999999999999
 30
-23.5
 70
   192
  0
VERTEX
  5
A14
  8
0
 10
0.0
 20
0.0
 30
0.0
 70
   128
 71
     3
 72
     4
 73
    -1
  0
VERTEX
  5
A15
  8
0
 10
0.0
 20
0.0
 30
0.0
 70
   128
 71
     2
 72
    -3
 73
     1
  0
SEQEND
  5
B10
  8
0
  0
POLYLINE
  5
A16
  8
0
 66
     1
 10
0.0
 20
0.0
 30
0.0
 70
    64
 71
     4
 72
     2
  0
VERTEX
  5
A17
  8
0
 10
-133.0000000000002
 20
199.9999999999999
 30
-20.5
 70
   192
  0
VERTEX
  5
A18
  8
0
 10
-133.0000000000002
 20
179.9999999999999
 30
-20.5
 70
   192
  0
VERTEX
  5
A19
  8
0
 10
-133.0000000000002
 20
179.9999999999999
 30
-23.5
 70
   192
  0
VERTEX
  5
A1A
  8
0
 10
-133.0000000000002
 20
199.9999999999999
 30
-23.5
 70
   192
  0
VERTEX
  5
A1B
  8
0
 10
0.0
 20
0.0
 30
0.0
 70
   128
 71
     3
 72
     4
 73
    -1
  0
VERTEX
  5
A1C
  8
0
 10
0.0
 20
0.0
 30
0.0
 70
   128
 71
     2
 72
    -3
 73
     1
  0
SEQEND
  5
B11
  8
0
  0
POLYLINE
  5
A1D
  8
0
 66
     1
 10
0.0
 20
0.0
 30
0.0
 70
    64
 71
     6
 72
     4
  0
VERTEX
  5
A1E
  8
0
 10
-93.00000000000023
 20
179.9999999999999
 30
-13.5
 70
   192
  0
VERTEX
  5
A1F
  8
0
 10
-93.00000000000023
 20
179.9999999999999
 30
-20.5
 70
   192
  0
VERTEX
  5
A20
  8
0
 10
-127.0000000000003
 20
179.9999999999999
 30
-20.5
 70
   192
  0
VERTEX
  5
A21
  8
0
 10
-127.0000000000003
 20
179.9999999999999
 30
-23.5
 70
   192
  0
VERTEX
  5
A22
  8
0
 10
-90.00000000000021
 20
179.9999999999999
 30
-23.5
 70
   192
  0
VERTEX
  5
A23
  8
0
 10
-90.00000000000021
 20
179.9999999999999
 30
-13.5
 70
   192
  0
VERTEX
  5
A24
  8
0
 10
0.0
 20
0.0
 30
0.0
 70
   128
 71
     6
 72
     1
 73
    -2
  0
VERTEX
  5
A25
  8
0
 10
0.0
 20
0.0
 30
0.0
 70
   128
 71
     5
 72
    -6
 73
    -2
  0
VERTEX
  5
A26
  8
0
 10
0.0
 20
0.0
 30
0.0
 70
   128
 71
     3
 72
     4
 73
    -5
  0
VERTEX
  5
A27
  8
0
 10
0.0
 20
0.0
 30
0.0
 70
   128
 71
     2
 72
    -3
 73
    -5
  0
SEQEND
  5
B12
  8
0
  0
POLYLINE
  5
A28
  8
0
 66
     1
 10
0.0
 20
0.0
 30
0.0
 70
    64
 71
     4
 72
     2
  0
VERTEX
  5
A29
  8
0
 10
-127.0000000000003
 20
179.9999999999999
 30
-20.5
 70
   192
  0
VERTEX
  5
A2A
  8
0
 10
-127.0000000000003
 20
199.9999999999999
 30
-20.5
 70
   192
  0
VERTEX
  5
A2B
  8
0
 10
-127.0000000000003
 20
199.9999999999999
 30
-23.5
 70
   192
  0
VERTEX
  5
A2C
  8
0
 10
-127.0000000000003
 20
179.9999999999999
 30
-23.5
 70
   192
  0
VERTEX
  5
A2D
  8
0
 10
0.0
 20
0.0
 30
0.0
 70
   128
 71
     3
 72
     4
 73
    -1
  0
VERTEX
  5
A2E
  8
0
 10
0.0
 20
0.0
 30
0.0
 70
   128
 71
     2
 72
    -3
 73
     1
  0
SEQEND
  5
B13
  8
0
  0
POLYLINE
  5
A2F
  8
0
 66
     1
 10
0.0
 20
0.0
 30
0.0
 70
    64
 71
     8
 72
     6
  0
VERTEX
  5
A30
  8
0
 10
-127.0000000000003
 20
199.9999999999999
 30
-23.5
 70
   192
  0
VERTEX
  5
A31
  8
0
 10
-133.0000000000002
 20
199.9999999999999
 30
-23.5
 70
   192
  0
VERTEX
  5
A32
  8
0
 10
-133.0000000000002
 20
179.9999999999999
 30
-23.5
 70
   192
  0
VERTEX
  5
A33
  8
0
 10
-170.0000000000003
 20
179.9999999999999
 30
-23.5
 70
   192
  0
VERTEX
  5
A34
  8
0
 10
-170.0000000000003
 20
204.9999999999999
 30
-23.5
 70
   192
  0
VERTEX
  5
A35
  8
0
 10
-90.00000000000026
 20
205.0
 30
-23.5
 70
   192
  0
VERTEX
  5
A36
  8
0
 10
-90.00000000000023
 20
179.9999999999999
 30
-23.5
 70
   192
  0
VERTEX
  5
A37
  8
0
 10
-127.0000000000003
 20
179.9999999999999
 30
-23.5
 70
   192
  0
VERTEX
  5
A38
  8
0
 10
0.0
 20
0.0
 30
0.0
 70
   128
 71
     7
 72
     8
 73
    -1
  0
VERTEX
  5
A39
  8
0
 10
0.0
 20
0.0
 30
0.0
 70
   128
 71
     6
 72
    -7
 73
    -1
  0
VERTEX
  5
A3A
  8
0
 10
0.0
 20
0.0
 30
0.0
 70
   128
 71
    -6
 72
     1
 73
    -2
  0
VERTEX
  5
A3B
  8
0
 10
0.0
 20
0.0
 30
0.0
 70
   128
 71
     5
 72
    -6
 73
    -2
  0
VERTEX
  5
A3C
  8
0
 10
0.0
 20
0.0
 30
0.0
 70
   128
 71
     3
 72
     4
 73
    -5
  0
VERTEX
  5
A3D
  8
0
 10
0.0
 20
0.0
 30
0.0
 70
   128
 71
     2
 72
    -3
 73
    -5
  0
SEQEND
  5
B14
  8
0
  0
POLYLINE
  5
A3E
  8
0
 66
     1
 10
0.0
 20
0.0
 30
0.0
 70
    64
 71
     4
 72
     2
  0
VERTEX
  5
A3F
  8
0
 10
-167.0000000000003
 20
179.9999999999999
 30
-13.5
 70
   192
  0
VERTEX
  5
A40
  8
0
 10
-167.0000000000003
 20
201.9999999999999
 30
-13.5
 70
   192
  0
VERTEX
  5
A41
  8
0
 10
-167.0000000000003
 20
201.9999999999999
 30
-20.5
 70
   192
  0
VERTEX
  5
A42
  8
0
 10
-167.0000000000003
 20
179.9999999999999
 30
-20.5
 70
   192
  0
VERTEX
  5
A43
  8
0
 10
0.0
 20
0.0
 30
0.0
 70
   128
 71
     1
 72
     4
 73
    -3
  0
VERTEX
  5
A44
  8
0
 10
0.0
 20
0.0
 30
0.0
 70
   128
 71
    -1
 72
     3
 73
     2
  0
SEQEND
  5
B15
  8
0
  0
POLYLINE
  5
A45
  8
0
 66
     1
 10
0.0
 20
0.0
 30
0.0
 70
    64
 71
     4
 72
     2
  0
VERTEX
  5
A46
  8
0
 10
-93.00000000000026
 20
201.9999999999999
 30
-13.5
 70
   192
  0
VERTEX
  5
A47
  8
0
 10
-167.0000000000003
 20
201.9999999999999
 30
-13.5
 70
   192
  0
VERTEX
  5
A48
  8
0
 10
-167.0000000000003
 20
201.9999999999999
 30
-20.5
 70
   192
  0
VERTEX
  5
A49
  8
0
 10
-93.00000000000026
 20
202.0
 30
-20.5
 70
   192
  0
VERTEX
  5
A4A
  8
0
 10
0.0
 20
0.0
 30
0.0
 70
   128
 71
     3
 72
     4
 73
    -1
  0
VERTEX
  5
A4B
  8
0
 10
0.0
 20
0.0
 30
0.0
 70
   128
 71
     2
 72
    -3
 73
     1
  0
SEQEND
  5
B16
  8
0
  0
POLYLINE
  5
A4C
  8
0
 66
     1
 10
0.0
 20
0.0
 30
0.0
 70
    64
 71
     4
 72
     2
  0
VERTEX
  5
A4D
  8
0
 10
-93.00000000000023
 20
179.9999999999999
 30
-13.5
 70
   192
  0
VERTEX
  5
A4E
  8
0
 10
-93.00000000000024
 20
201.9999999999999
 30
-13.5
 70
   192
  0
VERTEX
  5
A4F
  8
0
 10
-93.00000000000026
 20
201.9999999999999
 30
-20.5
 70
   192
  0
VERTEX
  5
A50
  8
0
 10
-93.00000000000023
 20
179.9999999999999
 30
-20.5
 70
   192
  0
VERTEX
  5
A51
  8
0
 10
0.0
 20
0.0
 30
0.0
 70
   128
 71
     3
 72
     4
 73
    -1
  0
VERTEX
  5
A52
  8
0
 10
0.0
 20
0.0
 30
0.0
 70
   128
 71
     2
 72
    -3
 73
     1
  0
SEQEND
  5
B17
  8
0
  0
POLYLINE
  5
A53
  8
0
 66
     1
 10
0.0
 20
0.0
 30
0.0
 70
    64
 71
     8
 72
     6
  0
VERTEX
  5
A54
  8
0
 10
-133.0000000000002
 20
199.9999999999999
 30
-20.5
 70
   192
  0
VERTEX
  5
A55
  8
0
 10
-133.0000000000002
 20
179.9999999999999
 30
-20.5
 70
   192
  0
VERTEX
  5
A56
  8
0
 10
-167.0000000000003
 20
179.9999999999999
 30
-20.5
 70
   192
  0
VERTEX
  5
A57
  8
0
 10
-167.0000000000003
 20
201.9999999999999
 30
-20.5
 70
   192
  0
VERTEX
  5
A58
  8
0
 10
-93.00000000000026
 20
201.9999999999999
 30
-20.5
 70
   192
  0
VERTEX
  5
A59
  8
0
 10
-93.00000000000024
 20
179.9999999999999
 30
-20.5
 70
   192
  0
VERTEX
  5
A5A
  8
0
 10
-127.0000000000003
 20
179.9999999999999
 30
-20.5
 70
   192
  0
VERTEX
  5
A5B
  8
0
 10
-127.0000000000003
 20
199.9999999999999
 30
-20.5
 70
   192
  0
VERTEX
  5
A5C
  8
0
 10
0.0
 20
0.0
 30
0.0
 70
   128
 71
     8
 72
     7
 73
    -6
  0
VERTEX
  5
A5D
  8
0
 10
0.0
 20
0.0
 30
0.0
 70
   128
 71
    -8
 72
     6
 73
    -5
  0
VERTEX
  5
A5E
  8
0
 10
0.0
 20
0.0
 30
0.0
 70
   128
 71
    -5
 72
     1
 73
    -8
  0
VERTEX
  5
A5F
  8
0
 10
0.0
 20
0.0
 30
0.0
 70
   128
 71
     5
 72
    -4
 73
    -1
  0
VERTEX
  5
A60
  8
0
 10
0.0
 20
0.0
 30
0.0
 70
   128
 71
     4
 72
     3
 73
    -2
  0
VERTEX
  5
A61
  8
0
 10
0.0
 20
0.0
 30
0.0
 70
   128
 71
    -4
 72
     2
 73
    -1
  0
SEQEND
  5
B18
  8
0
  0
ENDBLK
  5
B08
  8
0
  0
BLOCK
  8
0
  2
*X3
 70
     1
 10
0.0
 20
0.0
 30
0.0
  3
*X3
  1

  0
POLYLINE
  5
A63
  8
0
 66
     1
 10
0.0
 20
0.0
 30
0.0
 70
    64
 71
     8
 72
     6
  0
VERTEX
  5
A64
  8
0
 10
89.99999999999982
 20
180.0
 30
-13.5
 70
   192
  0
VERTEX
  5
A65
  8
0
 10
89.99999999999983
 20
145.0
 30
-13.5
 70
   192
  0
VERTEX
  5
A66
  8
0
 10
170.0
 20
144.9999999999999
 30
-13.5
 70
   192
  0
VERTEX
  5
A67
  8
0
 10
170.0
 20
180.0
 30
-13.5
 70
   192
  0
VERTEX
  5
A68
  8
0
 10
167.0
 20
180.0
 30
-13.5
 70
   192
  0
VERTEX
  5
A69
  8
0
 10
167.0
 20
201.9999999999999
 30
-13.5
 70
   192
  0
VERTEX
  5
A6A
  8
0
 10
92.99999999999982
 20
201.9999999999999
 30
-13.5
 70
   192
  0
VERTEX
  5
A6B
  8
0
 10
92.9999999999998
 20
180.0
 30
-13.5
 70
   192
  0
VERTEX
  5
A6C
  8
0
 10
0.0
 20
0.0
 30
0.0
 70
   128
 71
     5
 72
    -4
 73
    -8
  0
VERTEX
  5
A6D
  8
0
 10
0.0
 20
0.0
 30
0.0
 70
   128
 71
     8
 72
     7
 73
    -6
  0
VERTEX
  5
A6E
  8
0
 10
0.0
 20
0.0
 30
0.0
 70
   128
 71
    -8
 72
     6
 73
    -5
  0
VERTEX
  5
A6F
  8
0
 10
0.0
 20
0.0
 30
0.0
 70
   128
 71
     4
 72
     3
 73
    -2
  0
VERTEX
  5
A70
  8
0
 10
0.0
 20
0.0
 30
0.0
 70
   128
 71
    -4
 72
    -2
 73
    -8
  0
VERTEX
  5
A71
  8
0
 10
0.0
 20
0.0
 30
0.0
 70
   128
 71
     2
 72
     1
 73
    -8
  0
SEQEND
  5
B1B
  8
0
  0
POLYLINE
  5
A72
  8
0
 66
     1
 10
0.0
 20
0.0
 30
0.0
 70
    64
 71
     6
 72
     4
  0
VERTEX
  5
A73
  8
0
 10
89.99999999999983
 20
145.0
 30
-10.5
 70
   192
  0
VERTEX
  5
A74
  8
0
 10
89.99999999999982
 20
205.0
 30
-10.5
 70
   192
  0
VERTEX
  5
A75
  8
0
 10
89.99999999999982
 20
205.0
 30
-23.5
 70
   192
  0
VERTEX
  5
A76
  8
0
 10
89.99999999999982
 20
180.0
 30
-23.5
 70
   192
  0
VERTEX
  5
A77
  8
0
 10
89.99999999999982
 20
180.0
 30
-13.5
 70
   192
  0
VERTEX
  5
A78
  8
0
 10
89.99999999999983
 20
145.0
 30
-13.5
 70
   192
  0
VERTEX
  5
A79
  8
0
 10
0.0
 20
0.0
 30
0.0
 70
   128
 71
     3
 72
     4
 73
    -5
  0
VERTEX
  5
A7A
  8
0
 10
0.0
 20
0.0
 30
0.0
 70
   128
 71
     2
 72
    -3
 73
    -5
  0
VERTEX
  5
A7B
  8
0
 10
0.0
 20
0.0
 30
0.0
 70
   128
 71
     6
 72
     1
 73
    -2
  0
VERTEX
  5
A7C
  8
0
 10
0.0
 20
0.0
 30
0.0
 70
   128
 71
     5
 72
    -6
 73
    -2
  0
SEQEND
  5
B1C
  8
0
  0
POLYLINE
  5
A7D
  8
0
 66
     1
 10
0.0
 20
0.0
 30
0.0
 70
    64
 71
     4
 72
     2
  0
VERTEX
  5
A7E
  8
0
 10
89.99999999999982
 20
205.0
 30
-10.5
 70
   192
  0
VERTEX
  5
A7F
  8
0
 10
89.99999999999982
 20
205.0
 30
-23.5
 70
   192
  0
VERTEX
  5
A80
  8
0
 10
170.0
 20
205.0
 30
-23.5
 70
   192
  0
VERTEX
  5
A81
  8
0
 10
170.0000000000001
 20
205.0
 30
-10.5
 70
   192
  0
VERTEX
  5
A82
  8
0
 10
0.0
 20
0.0
 30
0.0
 70
   128
 71
     1
 72
     4
 73
    -3
  0
VERTEX
  5
A83
  8
0
 10
0.0
 20
0.0
 30
0.0
 70
   128
 71
    -1
 72
     3
 73
     2
  0
SEQEND
  5
B1D
  8
0
  0
POLYLINE
  5
A84
  8
0
 66
     1
 10
0.0
 20
0.0
 30
0.0
 70
    64
 71
     6
 72
     4
  0
VERTEX
  5
A85
  8
0
 10
170.0
 20
205.0
 30
-10.5
 70
   192
  0
VERTEX
  5
A86
  8
0
 10
170.0
 20
205.0
 30
-23.5
 70
   192
  0
VERTEX
  5
A87
  8
0
 10
170.0
 20
180.0
 30
-23.5
 70
   192
  0
VERTEX
  5
A88
  8
0
 10
170.0
 20
180.0
 30
-13.5
 70
   192
  0
VERTEX
  5
A89
  8
0
 10
170.0
 20
144.9999999999999
 30
-13.5
 70
   192
  0
VERTEX
  5
A8A
  8
0
 10
170.0
 20
144.9999999999999
 30
-10.5
 70
   192
  0
VERTEX
  5
A8B
  8
0
 10
0.0
 20
0.0
 30
0.0
 70
   128
 71
     4
 72
     3
 73
    -2
  0
VERTEX
  5
A8C
  8
0
 10
0.0
 20
0.0
 30
0.0
 70
   128
 71
    -4
 72
     2
 73
    -1
  0
VERTEX
  5
A8D
  8
0
 10
0.0
 20
0.0
 30
0.0
 70
   128
 71
     1
 72
     6
 73
    -5
  0
VERTEX
  5
A8E
  8
0
 10
0.0
 20
0.0
 30
0.0
 70
   128
 71
    -1
 72
     5
 73
    -4
  0
SEQEND
  5
B1E
  8
0
  0
POLYLINE
  5
A8F
  8
0
 66
     1
 10
0.0
 20
0.0
 30
0.0
 70
    64
 71
     4
 72
     2
  0
VERTEX
  5
A90
  8
0
 10
170.0000000000001
 20
144.9999999999999
 30
-10.5
 70
   192
  0
VERTEX
  5
A91
  8
0
 10
89.99999999999983
 20
145.0
 30
-10.5
 70
   192
  0
VERTEX
  5
A92
  8
0
 10
89.99999999999983
 20
145.0
 30
-13.5
 70
   192
  0
VERTEX
  5
A93
  8
0
 10
170.0000000000001
 20
144.9999999999999
 30
-13.5
 70
   192
  0
VERTEX
  5
A94
  8
0
 10
0.0
 20
0.0
 30
0.0
 70
   128
 71
     3
 72
     4
 73
    -1
  0
VERTEX
  5
A95
  8
0
 10
0.0
 20
0.0
 30
0.0
 70
   128
 71
     2
 72
    -3
 73
     1
  0
SEQEND
  5
B1F
  8
0
  0
POLYLINE
  5
A96
  8
0
 66
     1
 10
0.0
 20
0.0
 30
0.0
 70
    64
 71
     4
 72
     2
  0
VERTEX
  5
A97
  8
0
 10
89.99999999999982
 20
205.0
 30
-10.5
 70
   192
  0
VERTEX
  5
A98
  8
0
 10
89.99999999999983
 20
145.0
 30
-10.5
 70
   192
  0
VERTEX
  5
A99
  8
0
 10
170.0000000000001
 20
144.9999999999999
 30
-10.5
 70
   192
  0
VERTEX
  5
A9A
  8
0
 10
170.0
 20
205.0
 30
-10.5
 70
   192
  0
VERTEX
  5
A9B
  8
0
 10
0.0
 20
0.0
 30
0.0
 70
   128
 71
     3
 72
     4
 73
    -1
  0
VERTEX
  5
A9C
  8
0
 10
0.0
 20
0.0
 30
0.0
 70
   128
 71
     2
 72
    -3
 73
     1
  0
SEQEND
  5
B20
  8
0
  0
POLYLINE
  5
A9D
  8
0
 66
     1
 10
0.0
 20
0.0
 30
0.0
 70
    64
 71
     4
 72
     2
  0
VERTEX
  5
A9E
  8
0
 10
127.0000000000003
 20
200.0
 30
-23.5
 70
   192
  0
VERTEX
  5
A9F
  8
0
 10
127.0000000000003
 20
180.0
 30
-23.5
 70
   192
  0
VERTEX
  5
AA0
  8
0
 10
127.0000000000003
 20
180.0
 30
-20.5
 70
   192
  0
VERTEX
  5
AA1
  8
0
 10
127.0000000000003
 20
200.0
 30
-20.5
 70
   192
  0
VERTEX
  5
AA2
  8
0
 10
0.0
 20
0.0
 30
0.0
 70
   128
 71
     1
 72
     4
 73
    -3
  0
VERTEX
  5
AA3
  8
0
 10
0.0
 20
0.0
 30
0.0
 70
   128
 71
    -1
 72
     3
 73
     2
  0
SEQEND
  5
B21
  8
0
  0
POLYLINE
  5
AA4
  8
0
 66
     1
 10
0.0
 20
0.0
 30
0.0
 70
    64
 71
     6
 72
     4
  0
VERTEX
  5
AA5
  8
0
 10
127.0000000000003
 20
180.0
 30
-20.5
 70
   192
  0
VERTEX
  5
AA6
  8
0
 10
127.0000000000003
 20
180.0
 30
-23.5
 70
   192
  0
VERTEX
  5
AA7
  8
0
 10
89.99999999999982
 20
180.0
 30
-23.5
 70
   192
  0
VERTEX
  5
AA8
  8
0
 10
89.99999999999982
 20
180.0
 30
-13.5
 70
   192
  0
VERTEX
  5
AA9
  8
0
 10
92.99999999999982
 20
180.0
 30
-13.5
 70
   192
  0
VERTEX
  5
AAA
  8
0
 10
92.9999999999998
 20
180.0
 30
-20.5
 70
   192
  0
VERTEX
  5
AAB
  8
0
 10
0.0
 20
0.0
 30
0.0
 70
   128
 71
     6
 72
     5
 73
    -4
  0
VERTEX
  5
AAC
  8
0
 10
0.0
 20
0.0
 30
0.0
 70
   128
 71
    -6
 72
     4
 73
    -3
  0
VERTEX
  5
AAD
  8
0
 10
0.0
 20
0.0
 30
0.0
 70
   128
 71
     3
 72
     2
 73
    -1
  0
VERTEX
  5
AAE
  8
0
 10
0.0
 20
0.0
 30
0.0
 70
   128
 71
    -3
 72
     1
 73
    -6
  0
SEQEND
  5
B22
  8
0
  0
POLYLINE
  5
AAF
  8
0
 66
     1
 10
0.0
 20
0.0
 30
0.0
 70
    64
 71
     6
 72
     4
  0
VERTEX
  5
AB0
  8
0
 10
167.0
 20
180.0
 30
-13.5
 70
   192
  0
VERTEX
  5
AB1
  8
0
 10
170.0
 20
180.0
 30
-13.5
 70
   192
  0
VERTEX
  5
AB2
  8
0
 10
170.0
 20
180.0
 30
-23.5
 70
   192
  0
VERTEX
  5
AB3
  8
0
 10
133.0000000000002
 20
180.0
 30
-23.5
 70
   192
  0
VERTEX
  5
AB4
  8
0
 10
133.0000000000002
 20
180.0
 30
-20.5
 70
   192
  0
VERTEX
  5
AB5
  8
0
 10
167.0
 20
180.0
 30
-20.5
 70
   192
  0
VERTEX
  5
AB6
  8
0
 10
0.0
 20
0.0
 30
0.0
 70
   128
 71
     6
 72
     5
 73
    -4
  0
VERTEX
  5
AB7
  8
0
 10
0.0
 20
0.0
 30
0.0
 70
   128
 71
    -6
 72
     4
 73
    -3
  0
VERTEX
  5
AB8
  8
0
 10
0.0
 20
0.0
 30
0.0
 70
   128
 71
     3
 72
     2
 73
    -1
  0
VERTEX
  5
AB9
  8
0
 10
0.0
 20
0.0
 30
0.0
 70
   128
 71
    -3
 72
     1
 73
    -6
  0
SEQEND
  5
B23
  8
0
  0
POLYLINE
  5
ABA
  8
0
 66
     1
 10
0.0
 20
0.0
 30
0.0
 70
    64
 71
     4
 72
     2
  0
VERTEX
  5
ABB
  8
0
 10
133.0000000000002
 20
180.0
 30
-23.5
 70
   192
  0
VERTEX
  5
ABC
  8
0
 10
133.0000000000002
 20
200.0
 30
-23.5
 70
   192
  0
VERTEX
  5
ABD
  8
0
 10
133.0000000000002
 20
200.0
 30
-20.5
 70
   192
  0
VERTEX
  5
ABE
  8
0
 10
133.0000000000002
 20
180.0
 30
-20.5
 70
   192
  0
VERTEX
  5
ABF
  8
0
 10
0.0
 20
0.0
 30
0.0
 70
   128
 71
     1
 72
     4
 73
    -3
  0
VERTEX
  5
AC0
  8
0
 10
0.0
 20
0.0
 30
0.0
 70
   128
 71
    -1
 72
     3
 73
     2
  0
SEQEND
  5
B24
  8
0
  0
POLYLINE
  5
AC1
  8
0
 66
     1
 10
0.0
 20
0.0
 30
0.0
 70
    64
 71
     4
 72
     2
  0
VERTEX
  5
AC2
  8
0
 10
133.0000000000002
 20
200.0
 30
-23.5
 70
   192
  0
VERTEX
  5
AC3
  8
0
 10
127.0000000000003
 20
200.0
 30
-23.5
 70
   192
  0
VERTEX
  5
AC4
  8
0
 10
127.0000000000003
 20
200.0
 30
-20.5
 70
   192
  0
VERTEX
  5
AC5
  8
0
 10
133.0000000000002
 20
200.0
 30
-20.5
 70
   192
  0
VERTEX
  5
AC6
  8
0
 10
0.0
 20
0.0
 30
0.0
 70
   128
 71
     1
 72
     4
 73
    -3
  0
VERTEX
  5
AC7
  8
0
 10
0.0
 20
0.0
 30
0.0
 70
   128
 71
    -1
 72
     3
 73
     2
  0
SEQEND
  5
B25
  8
0
  0
POLYLINE
  5
AC8
  8
0
 66
     1
 10
0.0
 20
0.0
 30
0.0
 70
    64
 71
     8
 72
     6
  0
VERTEX
  5
AC9
  8
0
 10
127.0000000000003
 20
200.0
 30
-23.5
 70
   192
  0
VERTEX
  5
ACA
  8
0
 10
127.0000000000003
 20
180.0
 30
-23.5
 70
   192
  0
VERTEX
  5
ACB
  8
0
 10
89.99999999999982
 20
180.0
 30
-23.5
 70
   192
  0
VERTEX
  5
ACC
  8
0
 10
89.99999999999982
 20
205.0
 30
-23.5
 70
   192
  0
VERTEX
  5
ACD
  8
0
 10
170.0
 20
205.0
 30
-23.5
 70
   192
  0
VERTEX
  5
ACE
  8
0
 10
170.0
 20
180.0
 30
-23.5
 70
   192
  0
VERTEX
  5
ACF
  8
0
 10
133.0000000000002
 20
180.0
 30
-23.5
 70
   192
  0
VERTEX
  5
AD0
  8
0
 10
133.0000000000002
 20
200.0
 30
-23.5
 70
   192
  0
VERTEX
  5
AD1
  8
0
 10
0.0
 20
0.0
 30
0.0
 70
   128
 71
     6
 72
     7
 73
    -8
  0
VERTEX
  5
AD2
  8
0
 10
0.0
 20
0.0
 30
0.0
 70
   128
 71
     5
 72
    -6
 73
    -8
  0
VERTEX
  5
AD3
  8
0
 10
0.0
 20
0.0
 30
0.0
 70
   128
 71
    -1
 72
     4
 73
    -5
  0
VERTEX
  5
AD4
  8
0
 10
0.0
 20
0.0
 30
0.0
 70
   128
 71
     8
 72
    -1
 73
    -5
  0
VERTEX
  5
AD5
  8
0
 10
0.0
 20
0.0
 30
0.0
 70
   128
 71
     2
 72
     3
 73
    -4
  0
VERTEX
  5
AD6
  8
0
 10
0.0
 20
0.0
 30
0.0
 70
   128
 71
     1
 72
    -2
 73
    -4
  0
SEQEND
  5
B26
  8
0
  0
POLYLINE
  5
AD7
  8
0
 66
     1
 10
0.0
 20
0.0
 30
0.0
 70
    64
 71
     4
 72
     2
  0
VERTEX
  5
AD8
  8
0
 10
92.99999999999982
 20
180.0
 30
-13.5
 70
   192
  0
VERTEX
  5
AD9
  8
0
 10
92.99999999999982
 20
201.9999999999999
 30
-13.5
 70
   192
  0
VERTEX
  5
ADA
  8
0
 10
92.99999999999982
 20
201.9999999999999
 30
-20.5
 70
   192
  0
VERTEX
  5
ADB
  8
0
 10
92.99999999999982
 20
180.0
 30
-20.5
 70
   192
  0
VERTEX
  5
ADC
  8
0
 10
0.0
 20
0.0
 30
0.0
 70
   128
 71
     1
 72
     4
 73
    -3
  0
VERTEX
  5
ADD
  8
0
 10
0.0
 20
0.0
 30
0.0
 70
   128
 71
    -1
 72
     3
 73
     2
  0
SEQEND
  5
B27
  8
0
  0
POLYLINE
  5
ADE
  8
0
 66
     1
 10
0.0
 20
0.0
 30
0.0
 70
    64
 71
     4
 72
     2
  0
VERTEX
  5
ADF
  8
0
 10
167.0
 20
201.9999999999999
 30
-13.5
 70
   192
  0
VERTEX
  5
AE0
  8
0
 10
92.9999999999998
 20
201.9999999999999
 30
-13.5
 70
   192
  0
VERTEX
  5
AE1
  8
0
 10
92.99999999999982
 20
201.9999999999999
 30
-20.5
 70
   192
  0
VERTEX
  5
AE2
  8
0
 10
167.0000000000001
 20
201.9999999999999
 30
-20.5
 70
   192
  0
VERTEX
  5
AE3
  8
0
 10
0.0
 20
0.0
 30
0.0
 70
   128
 71
     3
 72
     4
 73
    -1
  0
VERTEX
  5
AE4
  8
0
 10
0.0
 20
0.0
 30
0.0
 70
   128
 71
     2
 72
    -3
 73
     1
  0
SEQEND
  5
B28
  8
0
  0
POLYLINE
  5
AE5
  8
0
 66
     1
 10
0.0
 20
0.0
 30
0.0
 70
    64
 71
     4
 72
     2
  0
VERTEX
  5
AE6
  8
0
 10
167.0
 20
180.0
 30
-13.5
 70
   192
  0
VERTEX
  5
AE7
  8
0
 10
167.0
 20
201.9999999999999
 30
-13.5
 70
   192
  0
VERTEX
  5
AE8
  8
0
 10
167.0
 20
201.9999999999999
 30
-20.5
 70
   192
  0
VERTEX
  5
AE9
  8
0
 10
167.0
 20
180.0
 30
-20.5
 70
   192
  0
VERTEX
  5
AEA
  8
0
 10
0.0
 20
0.0
 30
0.0
 70
   128
 71
     3
 72
     4
 73
    -1
  0
VERTEX
  5
AEB
  8
0
 10
0.0
 20
0.0
 30
0.0
 70
   128
 71
     2
 72
    -3
 73
     1
  0
SEQEND
  5
B29
  8
0
  0
POLYLINE
  5
AEC
  8
0
 66
     1
 10
0.0
 20
0.0
 30
0.0
 70
    64
 71
     8
 72
     6
  0
VERTEX
  5
AED
  8
0
 10
127.0000000000003
 20
180.0
 30
-20.5
 70
   192
  0
VERTEX
  5
AEE
  8
0
 10
92.99999999999982
 20
180.0
 30
-20.5
 70
   192
  0
VERTEX
  5
AEF
  8
0
 10
92.99999999999982
 20
201.9999999999999
 30
-20.5
 70
   192
  0
VERTEX
  5
AF0
  8
0
 10
167.0
 20
201.9999999999999
 30
-20.5
 70
   192
  0
VERTEX
  5
AF1
  8
0
 10
167.0
 20
180.0
 30
-20.5
 70
   192
  0
VERTEX
  5
AF2
  8
0
 10
133.0000000000002
 20
180.0
 30
-20.5
 70
   192
  0
VERTEX
  5
AF3
  8
0
 10
133.0000000000002
 20
200.0
 30
-20.5
 70
   192
  0
VERTEX
  5
AF4
  8
0
 10
127.0000000000003
 20
200.0
 30
-20.5
 70
   192
  0
VERTEX
  5
AF5
  8
0
 10
0.0
 20
0.0
 30
0.0
 70
   128
 71
     7
 72
     6
 73
    -5
  0
VERTEX
  5
AF6
  8
0
 10
0.0
 20
0.0
 30
0.0
 70
   128
 71
    -7
 72
     5
 73
    -4
  0
VERTEX
  5
AF7
  8
0
 10
0.0
 20
0.0
 30
0.0
 70
   128
 71
    -4
 72
     8
 73
    -7
  0
VERTEX
  5
AF8
  8
0
 10
0.0
 20
0.0
 30
0.0
 70
   128
 71
     4
 72
    -3
 73
    -8
  0
VERTEX
  5
AF9
  8
0
 10
0.0
 20
0.0
 30
0.0
 70
   128
 71
     3
 72
     2
 73
    -1
  0
VERTEX
  5
AFA
  8
0
 10
0.0
 20
0.0
 30
0.0
 70
   128
 71
    -3
 72
     1
 73
    -8
  0
SEQEND
  5
B2A
  8
0
  0
ENDBLK
  5
B1A
  8
0
  0
ENDSEC
  0
SECTION
  2
ENTITIES
  0
INSERT
  5
5F7
  8
0
  2
*X1
 10
0.0
 20
0.0
 30
0.0
  0
INSERT
  5
5F8
  8
0
  2
*X2
 10
0.0
 20
0.0
 30
0.0
  0
INSERT
  5
5F9
  8
0
  2
*X3
 10
0.0
 20
0.0
 30
0.0
  0
ENDSEC
  0
EOF
