  0
SECTION
  2
HEADER
  9
$ACADVER
  1
AC1009
  9
$DWGCODEPAGE
  3
ansi_1250
  9
$INSBASE
 10
0.0
 20
0.0
 30
0.0
  9
$EXTMIN
 10
-300.0000000000001
 20
-300.0
 30
-35.00000000000006
  9
$EXTMAX
 10
299.9999999999999
 20
300.0
 30
0.0000000000000711
  9
$LIMMIN
 10
0.0
 20
0.0
  9
$LIMMAX
 10
420.0
 20
297.0
  9
$ORTHOMODE
 70
     0
  9
$REGENMODE
 70
     1
  9
$FILLMODE
 70
     1
  9
$QTEXTMODE
 70
     0
  9
$MIRRTEXT
 70
     0
  9
$DRAGMODE
 70
     2
  9
$LTSCALE
 40
1.0
  9
$OSMODE
 70
   511
  9
$ATTMODE
 70
     1
  9
$TEXTSIZE
 40
2.5
  9
$TRACEWID
 40
1.0
  9
$TEXTSTYLE
  7
STANDARD
  9
$CLAYER
  8
0
  9
$CELTYPE
  6
BYLAYER
  9
$CECOLOR
 62
   256
  9
$DIMSCALE
 40
1.0
  9
$DIMASZ
 40
2.5
  9
$DIMEXO
 40
0.625
  9
$DIMDLI
 40
3.75
  9
$DIMRND
 40
0.0
  9
$DIMDLE
 40
0.0
  9
$DIMEXE
 40
1.25
  9
$DIMTP
 40
0.0
  9
$DIMTM
 40
0.0
  9
$DIMTXT
 40
2.5
  9
$DIMCEN
 40
-2.5
  9
$DIMTSZ
 40
0.0
  9
$DIMTOL
 70
     0
  9
$DIMLIM
 70
     0
  9
$DIMTIH
 70
     0
  9
$DIMTOH
 70
     0
  9
$DIMSE1
 70
     0
  9
$DIMSE2
 70
     0
  9
$DIMTAD
 70
     1
  9
$DIMZIN
 70
     8
  9
$DIMBLK
  1

  9
$DIMASO
 70
     1
  9
$DIMSHO
 70
     1
  9
$DIMPOST
  1

  9
$DIMAPOST
  1

  9
$DIMALT
 70
     0
  9
$DIMALTD
 70
     3
  9
$DIMALTF
 40
0.03937007874016
  9
$DIMLFAC
 40
1.0
  9
$DIMTOFL
 70
     1
  9
$DIMTVP
 40
0.0
  9
$DIMTIX
 70
     0
  9
$DIMSOXD
 70
     0
  9
$DIMSAH
 70
     0
  9
$DIMBLK1
  1

  9
$DIMBLK2
  1

  9
$DIMSTYLE
  2
ISO-25
  9
$DIMCLRD
 70
     0
  9
$DIMCLRE
 70
     0
  9
$DIMCLRT
 70
     0
  9
$DIMTFAC
 40
1.0
  9
$DIMGAP
 40
0.625
  9
$LUNITS
 70
     2
  9
$LUPREC
 70
     3
  9
$SKETCHINC
 40
1.0
  9
$FILLETRAD
 40
10.0
  9
$AUNITS
 70
     0
  9
$AUPREC
 70
     0
  9
$MENU
  1
.
  9
$ELEVATION
 40
0.0
  9
$PELEVATION
 40
0.0
  9
$THICKNESS
 40
0.0
  9
$LIMCHECK
 70
     0
  9
$CHAMFERA
 40
10.0
  9
$CHAMFERB
 40
10.0
  9
$SKPOLY
 70
     0
  9
$TDCREATE
 40
2455022.720692848
  9
$TDUPDATE
 40
2460521.494873704
  9
$TDINDWG
 40
0.1655923495
  9
$TDUSRTIMER
 40
0.1655923495
  9
$USRTIMER
 70
     1
  9
$ANGBASE
 50
0.0
  9
$ANGDIR
 70
     0
  9
$PDMODE
 70
     0
  9
$PDSIZE
 40
0.0
  9
$PLINEWID
 40
0.0
  9
$COORDS
 70
     1
  9
$SPLFRAME
 70
     0
  9
$SPLINETYPE
 70
     6
  9
$SPLINESEGS
 70
     8
  9
$ATTDIA
 70
     0
  9
$ATTREQ
 70
     1
  9
$HANDLING
 70
     1
  9
$HANDSEED
  5
6F61
  9
$SURFTAB1
 70
     6
  9
$SURFTAB2
 70
     6
  9
$SURFTYPE
 70
     6
  9
$SURFU
 70
     6
  9
$SURFV
 70
     6
  9
$UCSNAME
  2

  9
$UCSORG
 10
0.0
 20
0.0
 30
0.0
  9
$UCSXDIR
 10
1.0
 20
0.0
 30
0.0
  9
$UCSYDIR
 10
0.0
 20
1.0
 30
0.0
  9
$PUCSNAME
  2

  9
$PUCSORG
 10
0.0
 20
0.0
 30
0.0
  9
$PUCSXDIR
 10
1.0
 20
0.0
 30
0.0
  9
$PUCSYDIR
 10
0.0
 20
1.0
 30
0.0
  9
$USERI1
 70
     0
  9
$USERI2
 70
     0
  9
$USERI3
 70
     0
  9
$USERI4
 70
     0
  9
$USERI5
 70
     0
  9
$USERR1
 40
0.0
  9
$USERR2
 40
0.0
  9
$USERR3
 40
0.0
  9
$USERR4
 40
0.0
  9
$USERR5
 40
0.0
  9
$WORLDVIEW
 70
     1
  9
$SHADEDGE
 70
     3
  9
$SHADEDIF
 70
    70
  9
$TILEMODE
 70
     1
  9
$MAXACTVP
 70
    64
  9
$PLIMCHECK
 70
     0
  9
$PEXTMIN
 10
1.000000000000000E+20
 20
1.000000000000000E+20
 30
1.000000000000000E+20
  9
$PEXTMAX
 10
-1.000000000000000E+20
 20
-1.000000000000000E+20
 30
-1.000000000000000E+20
  9
$PLIMMIN
 10
0.0
 20
0.0
  9
$PLIMMAX
 10
0.0
 20
0.0
  9
$UNITMODE
 70
     0
  9
$VISRETAIN
 70
     1
  9
$PLINEGEN
 70
     0
  9
$PSLTSCALE
 70
     1
  0
ENDSEC
  0
SECTION
  2
TABLES
  0
TABLE
  2
VPORT
 70
     1
  0
VPORT
  2
*ACTIVE
 70
     0
 10
0.0
 20
0.0
 11
1.0
 21
1.0
 12
-116.6110757937285
 22
90.81470093901663
 13
0.0
 23
0.0
 14
10.0
 24
10.0
 15
10.0
 25
10.0
 16
0.5773502691896262
 26
0.5773502691896262
 36
0.5773502691896262
 17
-41.66599977993164
 27
123.2469651304761
 37
-82.93435654674934
 40
770.3645241053097
 41
1.88293897882939
 42
50.0
 43
0.0
 44
0.0
 50
0.0
 51
0.0
 71
    16
 72
  1000
 73
     1
 74
     3
 75
     0
 76
     0
 77
     0
 78
     0
  0
ENDTAB
  0
TABLE
  2
LTYPE
 70
     1
  0
LTYPE
  2
CONTINUOUS
 70
     0
  3
Solid line
 72
    65
 73
     0
 40
0.0
  0
ENDTAB
  0
TABLE
  2
LAYER
 70
     1
  0
LAYER
  2
0
 70
     0
 62
     7
  6
CONTINUOUS
  0
ENDTAB
  0
TABLE
  2
STYLE
 70
     2
  0
STYLE
  2
STANDARD
 70
     0
 40
0.0
 41
1.0
 50
0.0
 71
     0
 42
2.5
  3
arial.ttf
  4

  0
STYLE
  2
ANNOTATIVE
 70
     0
 40
0.0
 41
1.0
 50
0.0
 71
     0
 42
2.5
  3
arial.ttf
  4

  0
ENDTAB
  0
TABLE
  2
VIEW
 70
     0
  0
ENDTAB
  0
TABLE
  2
UCS
 70
     0
  0
ENDTAB
  0
TABLE
  2
APPID
 70
     2
  0
APPID
  2
ACAD
 70
     0
  0
APPID
  2
ACADANNOTATIVE
 70
     0
  0
ENDTAB
  0
TABLE
  2
DIMSTYLE
 70
     2
  0
DIMSTYLE
  2
ISO-25
 70
     0
  3

  4

  5

  6

  7

 40
1.0
 41
2.5
 42
0.625
 43
3.75
 44
1.25
 45
0.0
 46
0.0
 47
0.0
 48
0.0
140
2.5
141
-2.5
142
0.0
143
0.03937007874016
144
1.0
145
0.0
146
1.0
147
0.625
 71
     0
 72
     0
 73
     0
 74
     0
 75
     0
 76
     0
 77
     1
 78
     8
170
     0
171
     3
172
     1
173
     0
174
     0
175
     0
176
     0
177
     0
178
     0
  0
DIMSTYLE
  2
ANNOTATIVE
 70
     0
  3

  4

  5

  6

  7

 40
0.0
 41
2.5
 42
0.625
 43
3.75
 44
1.25
 45
0.0
 46
0.0
 47
0.0
 48
0.0
140
2.5
141
-2.5
142
0.0
143
0.03937007874016
144
1.0
145
0.0
146
1.0
147
0.625
 71
     0
 72
     0
 73
     0
 74
     0
 75
     0
 76
     0
 77
     1
 78
     8
170
     0
171
     3
172
     1
173
     0
174
     0
175
     0
176
     0
177
     0
178
     0
  0
ENDTAB
  0
ENDSEC
  0
SECTION
  2
BLOCKS
  0
BLOCK
  8
0
  2
$MODEL_SPACE
 70
     0
 10
0.0
 20
0.0
 30
0.0
  3
$MODEL_SPACE
  1

  0
ENDBLK
  5
21
  8
0
  0
BLOCK
 67
     1
  8
0
  2
$PAPER_SPACE
 70
     0
 10
0.0
 20
0.0
 30
0.0
  3
$PAPER_SPACE
  1

  0
ENDBLK
  5
1D
 67
     1
  8
0
  0
BLOCK
  8
0
  2
*X1
 70
     1
 10
0.0
 20
0.0
 30
0.0
  3
*X1
  1

  0
POLYLINE
  5
6B0C
  8
0
 66
     1
 10
0.0
 20
0.0
 30
0.0
 70
    64
 71
    14
 72
    12
  0
VERTEX
  5
6B0D
  8
0
 10
-145.0000000000001
 20
-251.1473670974872
 30
-35.0
 70
   192
  0
VERTEX
  5
6B0E
  8
0
 10
-251.1473670974873
 20
-145.0
 30
-35.0
 70
   192
  0
VERTEX
  5
6B0F
  8
0
 10
-251.1473670974873
 20
-145.0
 30
-10.5
 70
   192
  0
VERTEX
  5
6B10
  8
0
 10
-145.0000000000001
 20
-251.1473670974872
 30
-10.5
 70
   192
  0
VERTEX
  5
6B11
  8
0
 10
251.1473670974872
 20
-145.0000000000002
 30
-35.0
 70
   192
  0
VERTEX
  5
6B12
  8
0
 10
144.9999999999999
 20
-251.1473670974873
 30
-35.0
 70
   192
  0
VERTEX
  5
6B13
  8
0
 10
144.9999999999999
 20
-251.1473670974873
 30
-10.5
 70
   192
  0
VERTEX
  5
6B14
  8
0
 10
251.1473670974872
 20
-145.0000000000002
 30
-10.5
 70
   192
  0
VERTEX
  5
6B15
  8
0
 10
290.0000000000001
 20
-0.0000000000002093
 30
-35.0
 70
   192
  0
VERTEX
  5
6B16
  8
0
 10
290.0000000000001
 20
-0.0000000000002093
 30
-10.5
 70
   192
  0
VERTEX
  5
6B17
  8
0
 10
-0.0000000000001127
 20
-290.0000000000001
 30
-35.0
 70
   192
  0
VERTEX
  5
6B18
  8
0
 10
-0.0000000000001127
 20
-290.0000000000001
 30
-10.5
 70
   192
  0
VERTEX
  5
6B19
  8
0
 10
-290.0000000000001
 20
0.0000000000000355
 30
-35.0
 70
   192
  0
VERTEX
  5
6B1A
  8
0
 10
-290.0000000000001
 20
0.0000000000000355
 30
-10.5
 70
   192
  0
VERTEX
  5
6B1B
  8
0
 10
0.0
 20
0.0
 30
0.0
 70
   128
 71
     1
 72
     2
 73
    -3
  0
VERTEX
  5
6B1C
  8
0
 10
0.0
 20
0.0
 30
0.0
 70
   128
 71
     4
 72
    -1
 73
     3
  0
VERTEX
  5
6B1D
  8
0
 10
0.0
 20
0.0
 30
0.0
 70
   128
 71
     5
 72
     6
 73
    -7
  0
VERTEX
  5
6B1E
  8
0
 10
0.0
 20
0.0
 30
0.0
 70
   128
 71
     8
 72
    -5
 73
     7
  0
VERTEX
  5
6B1F
  8
0
 10
0.0
 20
0.0
 30
0.0
 70
   128
 71
     9
 72
     5
 73
    -8
  0
VERTEX
  5
6B20
  8
0
 10
0.0
 20
0.0
 30
0.0
 70
   128
 71
    10
 72
    -9
 73
     8
  0
VERTEX
  5
6B21
  8
0
 10
0.0
 20
0.0
 30
0.0
 70
   128
 71
     6
 72
    11
 73
   -12
  0
VERTEX
  5
6B22
  8
0
 10
0.0
 20
0.0
 30
0.0
 70
   128
 71
     7
 72
    -6
 73
    12
  0
VERTEX
  5
6B23
  8
0
 10
0.0
 20
0.0
 30
0.0
 70
   128
 71
    11
 72
     1
 73
    -4
  0
VERTEX
  5
6B24
  8
0
 10
0.0
 20
0.0
 30
0.0
 70
   128
 71
    12
 72
   -11
 73
     4
  0
VERTEX
  5
6B25
  8
0
 10
0.0
 20
0.0
 30
0.0
 70
   128
 71
     2
 72
    13
 73
   -14
  0
VERTEX
  5
6B26
  8
0
 10
0.0
 20
0.0
 30
0.0
 70
   128
 71
     3
 72
    -2
 73
    14
  0
SEQEND
  5
6F1E
  8
0
  0
POLYLINE
  5
6B27
  8
0
 66
     1
 10
0.0
 20
0.0
 30
0.0
 70
    64
 71
    14
 72
    12
  0
VERTEX
  5
6B28
  8
0
 10
-264.9999999999999
 20
0.0000000000000325
 30
-0.5
 70
   192
  0
VERTEX
  5
6B29
  8
0
 10
-264.9999999999999
 20
0.0000000000000325
 30
0.0
 70
   192
  0
VERTEX
  5
6B2A
  8
0
 10
-229.4967320028762
 20
-132.4999999999999
 30
0.0
 70
   192
  0
VERTEX
  5
6B2B
  8
0
 10
-229.4967320028762
 20
-132.4999999999999
 30
-0.5
 70
   192
  0
VERTEX
  5
6B2C
  8
0
 10
-0.000000000000103
 20
-264.9999999999999
 30
0.0
 70
   192
  0
VERTEX
  5
6B2D
  8
0
 10
-0.000000000000103
 20
-264.9999999999999
 30
-0.5
 70
   192
  0
VERTEX
  5
6B2E
  8
0
 10
-132.5000000000001
 20
-229.4967320028762
 30
-0.5
 70
   192
  0
VERTEX
  5
6B2F
  8
0
 10
-132.5000000000001
 20
-229.4967320028762
 30
0.0
 70
   192
  0
VERTEX
  5
6B30
  8
0
 10
132.4999999999999
 20
-229.4967320028763
 30
0.0
 70
   192
  0
VERTEX
  5
6B31
  8
0
 10
132.4999999999999
 20
-229.4967320028763
 30
-0.5
 70
   192
  0
VERTEX
  5
6B32
  8
0
 10
264.9999999999999
 20
-0.0000000000001912
 30
0.0
 70
   192
  0
VERTEX
  5
6B33
  8
0
 10
264.9999999999999
 20
-0.0000000000001912
 30
-0.5
 70
   192
  0
VERTEX
  5
6B34
  8
0
 10
229.4967320028761
 20
-132.5000000000001
 30
-0.5
 70
   192
  0
VERTEX
  5
6B35
  8
0
 10
229.4967320028761
 20
-132.5000000000001
 30
0.0
 70
   192
  0
VERTEX
  5
6B36
  8
0
 10
0.0
 20
0.0
 30
0.0
 70
   128
 71
     1
 72
     2
 73
    -3
  0
VERTEX
  5
6B37
  8
0
 10
0.0
 20
0.0
 30
0.0
 70
   128
 71
     4
 72
    -1
 73
     3
  0
VERTEX
  5
6B38
  8
0
 10
0.0
 20
0.0
 30
0.0
 70
   128
 71
     5
 72
     6
 73
    -7
  0
VERTEX
  5
6B39
  8
0
 10
0.0
 20
0.0
 30
0.0
 70
   128
 71
     8
 72
    -5
 73
     7
  0
VERTEX
  5
6B3A
  8
0
 10
0.0
 20
0.0
 30
0.0
 70
   128
 71
     6
 72
     5
 73
    -9
  0
VERTEX
  5
6B3B
  8
0
 10
0.0
 20
0.0
 30
0.0
 70
   128
 71
    10
 72
    -6
 73
     9
  0
VERTEX
  5
6B3C
  8
0
 10
0.0
 20
0.0
 30
0.0
 70
   128
 71
    11
 72
    12
 73
   -13
  0
VERTEX
  5
6B3D
  8
0
 10
0.0
 20
0.0
 30
0.0
 70
   128
 71
    14
 72
   -11
 73
    13
  0
VERTEX
  5
6B3E
  8
0
 10
0.0
 20
0.0
 30
0.0
 70
   128
 71
     7
 72
     4
 73
    -3
  0
VERTEX
  5
6B3F
  8
0
 10
0.0
 20
0.0
 30
0.0
 70
   128
 71
     8
 72
    -7
 73
     3
  0
VERTEX
  5
6B40
  8
0
 10
0.0
 20
0.0
 30
0.0
 70
   128
 71
    13
 72
    10
 73
    -9
  0
VERTEX
  5
6B41
  8
0
 10
0.0
 20
0.0
 30
0.0
 70
   128
 71
    14
 72
   -13
 73
     9
  0
SEQEND
  5
6F1F
  8
0
  0
POLYLINE
  5
6B42
  8
0
 66
     1
 10
0.0
 20
0.0
 30
0.0
 70
    64
 71
    14
 72
    12
  0
VERTEX
  5
6B43
  8
0
 10
-145.0000000000001
 20
-251.1473670974872
 30
-0.5
 70
   192
  0
VERTEX
  5
6B44
  8
0
 10
-251.1473670974873
 20
-145.0
 30
-0.5
 70
   192
  0
VERTEX
  5
6B45
  8
0
 10
-251.1473670974873
 20
-145.0
 30
0.0
 70
   192
  0
VERTEX
  5
6B46
  8
0
 10
-145.0000000000001
 20
-251.1473670974872
 30
0.0
 70
   192
  0
VERTEX
  5
6B47
  8
0
 10
251.1473670974872
 20
-145.0000000000002
 30
-0.5
 70
   192
  0
VERTEX
  5
6B48
  8
0
 10
144.9999999999999
 20
-251.1473670974873
 30
-0.5
 70
   192
  0
VERTEX
  5
6B49
  8
0
 10
144.9999999999999
 20
-251.1473670974873
 30
0.0
 70
   192
  0
VERTEX
  5
6B4A
  8
0
 10
251.1473670974872
 20
-145.0000000000002
 30
0.0
 70
   192
  0
VERTEX
  5
6B4B
  8
0
 10
290.0000000000001
 20
-0.0000000000002093
 30
-0.5
 70
   192
  0
VERTEX
  5
6B4C
  8
0
 10
290.0000000000001
 20
-0.0000000000002093
 30
0.0
 70
   192
  0
VERTEX
  5
6B4D
  8
0
 10
-0.0000000000001127
 20
-290.0000000000001
 30
-0.5
 70
   192
  0
VERTEX
  5
6B4E
  8
0
 10
-0.0000000000001127
 20
-290.0000000000001
 30
0.0
 70
   192
  0
VERTEX
  5
6B4F
  8
0
 10
-290.0000000000001
 20
0.0000000000000355
 30
-0.5
 70
   192
  0
VERTEX
  5
6B50
  8
0
 10
-290.0000000000001
 20
0.0000000000000355
 30
0.0
 70
   192
  0
VERTEX
  5
6B51
  8
0
 10
0.0
 20
0.0
 30
0.0
 70
   128
 71
     1
 72
     2
 73
    -3
  0
VERTEX
  5
6B52
  8
0
 10
0.0
 20
0.0
 30
0.0
 70
   128
 71
     4
 72
    -1
 73
     3
  0
VERTEX
  5
6B53
  8
0
 10
0.0
 20
0.0
 30
0.0
 70
   128
 71
     5
 72
     6
 73
    -7
  0
VERTEX
  5
6B54
  8
0
 10
0.0
 20
0.0
 30
0.0
 70
   128
 71
     8
 72
    -5
 73
     7
  0
VERTEX
  5
6B55
  8
0
 10
0.0
 20
0.0
 30
0.0
 70
   128
 71
     9
 72
     5
 73
    -8
  0
VERTEX
  5
6B56
  8
0
 10
0.0
 20
0.0
 30
0.0
 70
   128
 71
    10
 72
    -9
 73
     8
  0
VERTEX
  5
6B57
  8
0
 10
0.0
 20
0.0
 30
0.0
 70
   128
 71
     6
 72
    11
 73
   -12
  0
VERTEX
  5
6B58
  8
0
 10
0.0
 20
0.0
 30
0.0
 70
   128
 71
     7
 72
    -6
 73
    12
  0
VERTEX
  5
6B59
  8
0
 10
0.0
 20
0.0
 30
0.0
 70
   128
 71
    11
 72
     1
 73
    -4
  0
VERTEX
  5
6B5A
  8
0
 10
0.0
 20
0.0
 30
0.0
 70
   128
 71
    12
 72
   -11
 73
     4
  0
VERTEX
  5
6B5B
  8
0
 10
0.0
 20
0.0
 30
0.0
 70
   128
 71
     2
 72
    13
 73
   -14
  0
VERTEX
  5
6B5C
  8
0
 10
0.0
 20
0.0
 30
0.0
 70
   128
 71
     3
 72
    -2
 73
    14
  0
SEQEND
  5
6F20
  8
0
  0
POLYLINE
  5
6B5D
  8
0
 66
     1
 10
0.0
 20
0.0
 30
0.0
 70
    64
 71
    14
 72
    12
  0
VERTEX
  5
6B5E
  8
0
 10
242.4871130596428
 20
140.0
 30
0.0
 70
   192
  0
VERTEX
  5
6B5F
  8
0
 10
242.4871130596428
 20
140.0
 30
-0.5
 70
   192
  0
VERTEX
  5
6B60
  8
0
 10
140.0000000000001
 20
242.4871130596428
 30
-0.5
 70
   192
  0
VERTEX
  5
6B61
  8
0
 10
140.0000000000001
 20
242.4871130596428
 30
0.0
 70
   192
  0
VERTEX
  5
6B62
  8
0
 10
-139.9999999999999
 20
242.4871130596429
 30
0.0
 70
   192
  0
VERTEX
  5
6B63
  8
0
 10
-139.9999999999999
 20
242.4871130596429
 30
-0.5
 70
   192
  0
VERTEX
  5
6B64
  8
0
 10
-242.4871130596428
 20
140.0000000000001
 30
-0.5
 70
   192
  0
VERTEX
  5
6B65
  8
0
 10
-242.4871130596428
 20
140.0000000000001
 30
0.0
 70
   192
  0
VERTEX
  5
6B66
  8
0
 10
-280.0
 20
0.0000000000001554
 30
-0.5
 70
   192
  0
VERTEX
  5
6B67
  8
0
 10
-280.0
 20
0.0000000000000343
 30
0.0
 70
   192
  0
VERTEX
  5
6B68
  8
0
 10
0.0000000000000777
 20
280.0
 30
0.0
 70
   192
  0
VERTEX
  5
6B69
  8
0
 10
0.0000000000000777
 20
280.0
 30
-0.5
 70
   192
  0
VERTEX
  5
6B6A
  8
0
 10
280.0
 20
0.0
 30
0.0
 70
   192
  0
VERTEX
  5
6B6B
  8
0
 10
280.0
 20
0.0
 30
-0.5
 70
   192
  0
VERTEX
  5
6B6C
  8
0
 10
0.0
 20
0.0
 30
0.0
 70
   128
 71
     1
 72
     2
 73
    -3
  0
VERTEX
  5
6B6D
  8
0
 10
0.0
 20
0.0
 30
0.0
 70
   128
 71
    -1
 72
     3
 73
     4
  0
VERTEX
  5
6B6E
  8
0
 10
0.0
 20
0.0
 30
0.0
 70
   128
 71
     5
 72
     6
 73
    -7
  0
VERTEX
  5
6B6F
  8
0
 10
0.0
 20
0.0
 30
0.0
 70
   128
 71
    -5
 72
     7
 73
     8
  0
VERTEX
  5
6B70
  8
0
 10
0.0
 20
0.0
 30
0.0
 70
   128
 71
     8
 72
     7
 73
    -9
  0
VERTEX
  5
6B71
  8
0
 10
0.0
 20
0.0
 30
0.0
 70
   128
 71
    -8
 72
     9
 73
    10
  0
VERTEX
  5
6B72
  8
0
 10
0.0
 20
0.0
 30
0.0
 70
   128
 71
    11
 72
    12
 73
    -6
  0
VERTEX
  5
6B73
  8
0
 10
0.0
 20
0.0
 30
0.0
 70
   128
 71
   -11
 72
     6
 73
     5
  0
VERTEX
  5
6B74
  8
0
 10
0.0
 20
0.0
 30
0.0
 70
   128
 71
     4
 72
     3
 73
   -12
  0
VERTEX
  5
6B75
  8
0
 10
0.0
 20
0.0
 30
0.0
 70
   128
 71
    -4
 72
    12
 73
    11
  0
VERTEX
  5
6B76
  8
0
 10
0.0
 20
0.0
 30
0.0
 70
   128
 71
    13
 72
    14
 73
    -2
  0
VERTEX
  5
6B77
  8
0
 10
0.0
 20
0.0
 30
0.0
 70
   128
 71
   -13
 72
     2
 73
     1
  0
SEQEND
  5
6F21
  8
0
  0
POLYLINE
  5
6B78
  8
0
 66
     1
 10
0.0
 20
0.0
 30
0.0
 70
    64
 71
    14
 72
    12
  0
VERTEX
  5
6B79
  8
0
 10
259.8076211353317
 20
150.0
 30
0.0
 70
   192
  0
VERTEX
  5
6B7A
  8
0
 10
259.8076211353317
 20
150.0
 30
-35.0
 70
   192
  0
VERTEX
  5
6B7B
  8
0
 10
150.0000000000001
 20
259.8076211353316
 30
-35.0
 70
   192
  0
VERTEX
  5
6B7C
  8
0
 10
150.0000000000001
 20
259.8076211353316
 30
0.0
 70
   192
  0
VERTEX
  5
6B7D
  8
0
 10
-149.9999999999999
 20
259.8076211353317
 30
0.0
 70
   192
  0
VERTEX
  5
6B7E
  8
0
 10
-149.9999999999999
 20
259.8076211353317
 30
-35.0
 70
   192
  0
VERTEX
  5
6B7F
  8
0
 10
-259.8076211353316
 20
150.0000000000002
 30
-35.0
 70
   192
  0
VERTEX
  5
6B80
  8
0
 10
-259.8076211353316
 20
150.0000000000002
 30
0.0
 70
   192
  0
VERTEX
  5
6B81
  8
0
 10
-300.0000000000001
 20
0.0000000000001665
 30
-35.0
 70
   192
  0
VERTEX
  5
6B82
  8
0
 10
-300.0000000000001
 20
0.0000000000000367
 30
0.0
 70
   192
  0
VERTEX
  5
6B83
  8
0
 10
0.0000000000000833
 20
300.0000000000001
 30
0.0
 70
   192
  0
VERTEX
  5
6B84
  8
0
 10
0.0000000000000833
 20
300.0000000000001
 30
-35.0
 70
   192
  0
VERTEX
  5
6B85
  8
0
 10
300.0000000000001
 20
0.0
 30
0.0
 70
   192
  0
VERTEX
  5
6B86
  8
0
 10
300.0000000000001
 20
0.0
 30
-35.0
 70
   192
  0
VERTEX
  5
6B87
  8
0
 10
0.0
 20
0.0
 30
0.0
 70
   128
 71
     1
 72
     2
 73
    -3
  0
VERTEX
  5
6B88
  8
0
 10
0.0
 20
0.0
 30
0.0
 70
   128
 71
    -1
 72
     3
 73
     4
  0
VERTEX
  5
6B89
  8
0
 10
0.0
 20
0.0
 30
0.0
 70
   128
 71
     5
 72
     6
 73
    -7
  0
VERTEX
  5
6B8A
  8
0
 10
0.0
 20
0.0
 30
0.0
 70
   128
 71
    -5
 72
     7
 73
     8
  0
VERTEX
  5
6B8B
  8
0
 10
0.0
 20
0.0
 30
0.0
 70
   128
 71
     8
 72
     7
 73
    -9
  0
VERTEX
  5
6B8C
  8
0
 10
0.0
 20
0.0
 30
0.0
 70
   128
 71
    -8
 72
     9
 73
    10
  0
VERTEX
  5
6B8D
  8
0
 10
0.0
 20
0.0
 30
0.0
 70
   128
 71
    11
 72
    12
 73
    -6
  0
VERTEX
  5
6B8E
  8
0
 10
0.0
 20
0.0
 30
0.0
 70
   128
 71
   -11
 72
     6
 73
     5
  0
VERTEX
  5
6B8F
  8
0
 10
0.0
 20
0.0
 30
0.0
 70
   128
 71
     4
 72
     3
 73
   -12
  0
VERTEX
  5
6B90
  8
0
 10
0.0
 20
0.0
 30
0.0
 70
   128
 71
    -4
 72
    12
 73
    11
  0
VERTEX
  5
6B91
  8
0
 10
0.0
 20
0.0
 30
0.0
 70
   128
 71
    13
 72
    14
 73
    -2
  0
VERTEX
  5
6B92
  8
0
 10
0.0
 20
0.0
 30
0.0
 70
   128
 71
   -13
 72
     2
 73
     1
  0
SEQEND
  5
6F22
  8
0
  0
POLYLINE
  5
6B93
  8
0
 66
     1
 10
0.0
 20
0.0
 30
0.0
 70
    64
 71
    14
 72
    12
  0
VERTEX
  5
6B94
  8
0
 10
-259.8076211353317
 20
-150.0
 30
0.0
 70
   192
  0
VERTEX
  5
6B95
  8
0
 10
-259.8076211353317
 20
-150.0
 30
-35.0
 70
   192
  0
VERTEX
  5
6B96
  8
0
 10
-150.0000000000001
 20
-259.8076211353316
 30
-35.0
 70
   192
  0
VERTEX
  5
6B97
  8
0
 10
-150.0000000000001
 20
-259.8076211353316
 30
0.0
 70
   192
  0
VERTEX
  5
6B98
  8
0
 10
149.9999999999999
 20
-259.8076211353317
 30
0.0
 70
   192
  0
VERTEX
  5
6B99
  8
0
 10
149.9999999999999
 20
-259.8076211353317
 30
-35.0
 70
   192
  0
VERTEX
  5
6B9A
  8
0
 10
259.8076211353315
 20
-150.0000000000002
 30
-35.0
 70
   192
  0
VERTEX
  5
6B9B
  8
0
 10
259.8076211353315
 20
-150.0000000000002
 30
0.0
 70
   192
  0
VERTEX
  5
6B9C
  8
0
 10
300.0000000000001
 20
-0.0000000000002165
 30
-35.0
 70
   192
  0
VERTEX
  5
6B9D
  8
0
 10
300.0000000000001
 20
0.0
 30
0.0
 70
   192
  0
VERTEX
  5
6B9E
  8
0
 10
-0.0000000000001166
 20
-300.0000000000001
 30
0.0
 70
   192
  0
VERTEX
  5
6B9F
  8
0
 10
-0.0000000000001166
 20
-300.0000000000001
 30
-35.0
 70
   192
  0
VERTEX
  5
6BA0
  8
0
 10
-300.0000000000001
 20
0.0000000000000367
 30
0.0
 70
   192
  0
VERTEX
  5
6BA1
  8
0
 10
-300.0000000000001
 20
0.0000000000000367
 30
-35.0
 70
   192
  0
VERTEX
  5
6BA2
  8
0
 10
0.0
 20
0.0
 30
0.0
 70
   128
 71
     1
 72
     2
 73
    -3
  0
VERTEX
  5
6BA3
  8
0
 10
0.0
 20
0.0
 30
0.0
 70
   128
 71
    -1
 72
     3
 73
     4
  0
VERTEX
  5
6BA4
  8
0
 10
0.0
 20
0.0
 30
0.0
 70
   128
 71
     5
 72
     6
 73
    -7
  0
VERTEX
  5
6BA5
  8
0
 10
0.0
 20
0.0
 30
0.0
 70
   128
 71
    -5
 72
     7
 73
     8
  0
VERTEX
  5
6BA6
  8
0
 10
0.0
 20
0.0
 30
0.0
 70
   128
 71
     8
 72
     7
 73
    -9
  0
VERTEX
  5
6BA7
  8
0
 10
0.0
 20
0.0
 30
0.0
 70
   128
 71
    -8
 72
     9
 73
    10
  0
VERTEX
  5
6BA8
  8
0
 10
0.0
 20
0.0
 30
0.0
 70
   128
 71
    11
 72
    12
 73
    -6
  0
VERTEX
  5
6BA9
  8
0
 10
0.0
 20
0.0
 30
0.0
 70
   128
 71
   -11
 72
     6
 73
     5
  0
VERTEX
  5
6BAA
  8
0
 10
0.0
 20
0.0
 30
0.0
 70
   128
 71
     4
 72
     3
 73
   -12
  0
VERTEX
  5
6BAB
  8
0
 10
0.0
 20
0.0
 30
0.0
 70
   128
 71
    -4
 72
    12
 73
    11
  0
VERTEX
  5
6BAC
  8
0
 10
0.0
 20
0.0
 30
0.0
 70
   128
 71
    13
 72
    14
 73
    -2
  0
VERTEX
  5
6BAD
  8
0
 10
0.0
 20
0.0
 30
0.0
 70
   128
 71
   -13
 72
     2
 73
     1
  0
SEQEND
  5
6F23
  8
0
  0
POLYLINE
  5
6BAE
  8
0
 66
     1
 10
0.0
 20
0.0
 30
0.0
 70
    64
 71
    24
 72
    24
  0
VERTEX
  5
6BAF
  8
0
 10
-300.0000000000001
 20
0.0000000000000367
 30
-35.0
 70
   192
  0
VERTEX
  5
6BB0
  8
0
 10
-259.8076211353317
 20
-150.0
 30
-35.0
 70
   192
  0
VERTEX
  5
6BB1
  8
0
 10
-150.0000000000001
 20
-259.8076211353316
 30
-35.0
 70
   192
  0
VERTEX
  5
6BB2
  8
0
 10
-0.0000000000001166
 20
-300.0000000000001
 30
-35.0
 70
   192
  0
VERTEX
  5
6BB3
  8
0
 10
149.9999999999999
 20
-259.8076211353317
 30
-35.0
 70
   192
  0
VERTEX
  5
6BB4
  8
0
 10
259.8076211353315
 20
-150.0000000000002
 30
-35.0
 70
   192
  0
VERTEX
  5
6BB5
  8
0
 10
300.0000000000001
 20
0.0
 30
-35.0
 70
   192
  0
VERTEX
  5
6BB6
  8
0
 10
259.8076211353317
 20
150.0
 30
-35.0
 70
   192
  0
VERTEX
  5
6BB7
  8
0
 10
150.0000000000001
 20
259.8076211353316
 30
-35.0
 70
   192
  0
VERTEX
  5
6BB8
  8
0
 10
0.0000000000000833
 20
300.0000000000001
 30
-35.0
 70
   192
  0
VERTEX
  5
6BB9
  8
0
 10
-149.9999999999999
 20
259.8076211353317
 30
-35.0
 70
   192
  0
VERTEX
  5
6BBA
  8
0
 10
-259.8076211353316
 20
150.0000000000002
 30
-35.0
 70
   192
  0
VERTEX
  5
6BBB
  8
0
 10
290.0000000000001
 20
-0.0000000000002093
 30
-35.0
 70
   192
  0
VERTEX
  5
6BBC
  8
0
 10
251.1473670974872
 20
-145.0000000000002
 30
-35.0
 70
   192
  0
VERTEX
  5
6BBD
  8
0
 10
144.9999999999999
 20
-251.1473670974873
 30
-35.0
 70
   192
  0
VERTEX
  5
6BBE
  8
0
 10
-0.0000000000001127
 20
-290.0000000000001
 30
-35.0
 70
   192
  0
VERTEX
  5
6BBF
  8
0
 10
-145.0000000000001
 20
-251.1473670974872
 30
-35.0
 70
   192
  0
VERTEX
  5
6BC0
  8
0
 10
-251.1473670974873
 20
-145.0
 30
-35.0
 70
   192
  0
VERTEX
  5
6BC1
  8
0
 10
-290.0000000000001
 20
0.000000000000161
 30
-35.0
 70
   192
  0
VERTEX
  5
6BC2
  8
0
 10
-251.1473670974872
 20
145.0000000000002
 30
-35.0
 70
   192
  0
VERTEX
  5
6BC3
  8
0
 10
-144.9999999999999
 20
251.1473670974873
 30
-35.0
 70
   192
  0
VERTEX
  5
6BC4
  8
0
 10
0.0000000000000805
 20
290.0000000000001
 30
-35.0
 70
   192
  0
VERTEX
  5
6BC5
  8
0
 10
145.0000000000001
 20
251.1473670974872
 30
-35.0
 70
   192
  0
VERTEX
  5
6BC6
  8
0
 10
251.1473670974873
 20
145.0
 30
-35.0
 70
   192
  0
VERTEX
  5
6BC7
  8
0
 10
0.0
 20
0.0
 30
0.0
 70
   128
 71
    14
 72
   -13
 73
    -7
  0
VERTEX
  5
6BC8
  8
0
 10
0.0
 20
0.0
 30
0.0
 70
   128
 71
   -14
 72
     7
 73
    -6
  0
VERTEX
  5
6BC9
  8
0
 10
0.0
 20
0.0
 30
0.0
 70
   128
 71
     6
 72
    -5
 73
   -15
  0
VERTEX
  5
6BCA
  8
0
 10
0.0
 20
0.0
 30
0.0
 70
   128
 71
    -6
 72
    15
 73
   -14
  0
VERTEX
  5
6BCB
  8
0
 10
0.0
 20
0.0
 30
0.0
 70
   128
 71
     5
 72
    -4
 73
   -16
  0
VERTEX
  5
6BCC
  8
0
 10
0.0
 20
0.0
 30
0.0
 70
   128
 71
    -5
 72
    16
 73
   -15
  0
VERTEX
  5
6BCD
  8
0
 10
0.0
 20
0.0
 30
0.0
 70
   128
 71
     4
 72
    -3
 73
   -17
  0
VERTEX
  5
6BCE
  8
0
 10
0.0
 20
0.0
 30
0.0
 70
   128
 71
    -4
 72
    17
 73
   -16
  0
VERTEX
  5
6BCF
  8
0
 10
0.0
 20
0.0
 30
0.0
 70
   128
 71
     3
 72
    -2
 73
   -18
  0
VERTEX
  5
6BD0
  8
0
 10
0.0
 20
0.0
 30
0.0
 70
   128
 71
    -3
 72
    18
 73
   -17
  0
VERTEX
  5
6BD1
  8
0
 10
0.0
 20
0.0
 30
0.0
 70
   128
 71
     2
 72
    -1
 73
   -19
  0
VERTEX
  5
6BD2
  8
0
 10
0.0
 20
0.0
 30
0.0
 70
   128
 71
    -2
 72
    19
 73
   -18
  0
VERTEX
  5
6BD3
  8
0
 10
0.0
 20
0.0
 30
0.0
 70
   128
 71
     1
 72
   -12
 73
   -20
  0
VERTEX
  5
6BD4
  8
0
 10
0.0
 20
0.0
 30
0.0
 70
   128
 71
    -1
 72
    20
 73
   -19
  0
VERTEX
  5
6BD5
  8
0
 10
0.0
 20
0.0
 30
0.0
 70
   128
 71
    12
 72
   -11
 73
   -21
  0
VERTEX
  5
6BD6
  8
0
 10
0.0
 20
0.0
 30
0.0
 70
   128
 71
   -12
 72
    21
 73
   -20
  0
VERTEX
  5
6BD7
  8
0
 10
0.0
 20
0.0
 30
0.0
 70
   128
 71
    11
 72
   -10
 73
   -22
  0
VERTEX
  5
6BD8
  8
0
 10
0.0
 20
0.0
 30
0.0
 70
   128
 71
   -11
 72
    22
 73
   -21
  0
VERTEX
  5
6BD9
  8
0
 10
0.0
 20
0.0
 30
0.0
 70
   128
 71
    10
 72
    -9
 73
   -23
  0
VERTEX
  5
6BDA
  8
0
 10
0.0
 20
0.0
 30
0.0
 70
   128
 71
   -10
 72
    23
 73
   -22
  0
VERTEX
  5
6BDB
  8
0
 10
0.0
 20
0.0
 30
0.0
 70
   128
 71
     9
 72
    -8
 73
   -24
  0
VERTEX
  5
6BDC
  8
0
 10
0.0
 20
0.0
 30
0.0
 70
   128
 71
    -9
 72
    24
 73
   -23
  0
VERTEX
  5
6BDD
  8
0
 10
0.0
 20
0.0
 30
0.0
 70
   128
 71
     8
 72
    -7
 73
   -13
  0
VERTEX
  5
6BDE
  8
0
 10
0.0
 20
0.0
 30
0.0
 70
   128
 71
    -8
 72
    13
 73
   -24
  0
SEQEND
  5
6F24
  8
0
  0
POLYLINE
  5
6BDF
  8
0
 66
     1
 10
0.0
 20
0.0
 30
0.0
 70
    64
 71
    24
 72
    24
  0
VERTEX
  5
6BE0
  8
0
 10
300.0000000000001
 20
0.0
 30
0.0
 70
   192
  0
VERTEX
  5
6BE1
  8
0
 10
259.8076211353317
 20
150.0
 30
0.0
 70
   192
  0
VERTEX
  5
6BE2
  8
0
 10
150.0000000000001
 20
259.8076211353316
 30
0.0
 70
   192
  0
VERTEX
  5
6BE3
  8
0
 10
0.0000000000000833
 20
300.0000000000001
 30
0.0
 70
   192
  0
VERTEX
  5
6BE4
  8
0
 10
-149.9999999999999
 20
259.8076211353317
 30
0.0
 70
   192
  0
VERTEX
  5
6BE5
  8
0
 10
-259.8076211353316
 20
150.0000000000002
 30
0.0
 70
   192
  0
VERTEX
  5
6BE6
  8
0
 10
-300.0000000000001
 20
0.0000000000001665
 30
0.0
 70
   192
  0
VERTEX
  5
6BE7
  8
0
 10
-259.8076211353317
 20
-150.0
 30
0.0
 70
   192
  0
VERTEX
  5
6BE8
  8
0
 10
-150.0000000000001
 20
-259.8076211353316
 30
0.0
 70
   192
  0
VERTEX
  5
6BE9
  8
0
 10
-0.0000000000001166
 20
-300.0000000000001
 30
0.0
 70
   192
  0
VERTEX
  5
6BEA
  8
0
 10
149.9999999999999
 20
-259.8076211353317
 30
0.0
 70
   192
  0
VERTEX
  5
6BEB
  8
0
 10
259.8076211353315
 20
-150.0000000000002
 30
0.0
 70
   192
  0
VERTEX
  5
6BEC
  8
0
 10
-290.0000000000001
 20
0.000000000000161
 30
0.0
 70
   192
  0
VERTEX
  5
6BED
  8
0
 10
-251.1473670974872
 20
145.0000000000002
 30
0.0
 70
   192
  0
VERTEX
  5
6BEE
  8
0
 10
-144.9999999999999
 20
251.1473670974873
 30
0.0
 70
   192
  0
VERTEX
  5
6BEF
  8
0
 10
0.0000000000000805
 20
290.0000000000001
 30
0.0
 70
   192
  0
VERTEX
  5
6BF0
  8
0
 10
145.0000000000001
 20
251.1473670974872
 30
0.0
 70
   192
  0
VERTEX
  5
6BF1
  8
0
 10
251.1473670974873
 20
145.0
 30
0.0
 70
   192
  0
VERTEX
  5
6BF2
  8
0
 10
290.0000000000001
 20
0.0
 30
0.0
 70
   192
  0
VERTEX
  5
6BF3
  8
0
 10
251.1473670974872
 20
-145.0000000000002
 30
0.0
 70
   192
  0
VERTEX
  5
6BF4
  8
0
 10
144.9999999999999
 20
-251.1473670974873
 30
0.0
 70
   192
  0
VERTEX
  5
6BF5
  8
0
 10
-0.0000000000001127
 20
-290.0000000000001
 30
0.0
 70
   192
  0
VERTEX
  5
6BF6
  8
0
 10
-145.0000000000001
 20
-251.1473670974872
 30
0.0
 70
   192
  0
VERTEX
  5
6BF7
  8
0
 10
-251.1473670974873
 20
-145.0
 30
0.0
 70
   192
  0
VERTEX
  5
6BF8
  8
0
 10
0.0
 20
0.0
 30
0.0
 70
   128
 71
    -7
 72
    13
 73
   -14
  0
VERTEX
  5
6BF9
  8
0
 10
0.0
 20
0.0
 30
0.0
 70
   128
 71
     6
 72
    -7
 73
   -14
  0
VERTEX
  5
6BFA
  8
0
 10
0.0
 20
0.0
 30
0.0
 70
   128
 71
   -15
 72
     5
 73
    -6
  0
VERTEX
  5
6BFB
  8
0
 10
0.0
 20
0.0
 30
0.0
 70
   128
 71
    14
 72
   -15
 73
    -6
  0
VERTEX
  5
6BFC
  8
0
 10
0.0
 20
0.0
 30
0.0
 70
   128
 71
   -16
 72
     4
 73
    -5
  0
VERTEX
  5
6BFD
  8
0
 10
0.0
 20
0.0
 30
0.0
 70
   128
 71
    15
 72
   -16
 73
    -5
  0
VERTEX
  5
6BFE
  8
0
 10
0.0
 20
0.0
 30
0.0
 70
   128
 71
   -17
 72
     3
 73
    -4
  0
VERTEX
  5
6BFF
  8
0
 10
0.0
 20
0.0
 30
0.0
 70
   128
 71
    16
 72
   -17
 73
    -4
  0
VERTEX
  5
6C00
  8
0
 10
0.0
 20
0.0
 30
0.0
 70
   128
 71
   -18
 72
     2
 73
    -3
  0
VERTEX
  5
6C01
  8
0
 10
0.0
 20
0.0
 30
0.0
 70
   128
 71
    17
 72
   -18
 73
    -3
  0
VERTEX
  5
6C02
  8
0
 10
0.0
 20
0.0
 30
0.0
 70
   128
 71
   -19
 72
     1
 73
    -2
  0
VERTEX
  5
6C03
  8
0
 10
0.0
 20
0.0
 30
0.0
 70
   128
 71
    18
 72
   -19
 73
    -2
  0
VERTEX
  5
6C04
  8
0
 10
0.0
 20
0.0
 30
0.0
 70
   128
 71
   -20
 72
    12
 73
    -1
  0
VERTEX
  5
6C05
  8
0
 10
0.0
 20
0.0
 30
0.0
 70
   128
 71
    19
 72
   -20
 73
    -1
  0
VERTEX
  5
6C06
  8
0
 10
0.0
 20
0.0
 30
0.0
 70
   128
 71
   -21
 72
    11
 73
   -12
  0
VERTEX
  5
6C07
  8
0
 10
0.0
 20
0.0
 30
0.0
 70
   128
 71
    20
 72
   -21
 73
   -12
  0
VERTEX
  5
6C08
  8
0
 10
0.0
 20
0.0
 30
0.0
 70
   128
 71
   -22
 72
    10
 73
   -11
  0
VERTEX
  5
6C09
  8
0
 10
0.0
 20
0.0
 30
0.0
 70
   128
 71
    21
 72
   -22
 73
   -11
  0
VERTEX
  5
6C0A
  8
0
 10
0.0
 20
0.0
 30
0.0
 70
   128
 71
   -23
 72
     9
 73
   -10
  0
VERTEX
  5
6C0B
  8
0
 10
0.0
 20
0.0
 30
0.0
 70
   128
 71
    22
 72
   -23
 73
   -10
  0
VERTEX
  5
6C0C
  8
0
 10
0.0
 20
0.0
 30
0.0
 70
   128
 71
   -24
 72
     8
 73
    -9
  0
VERTEX
  5
6C0D
  8
0
 10
0.0
 20
0.0
 30
0.0
 70
   128
 71
    23
 72
   -24
 73
    -9
  0
VERTEX
  5
6C0E
  8
0
 10
0.0
 20
0.0
 30
0.0
 70
   128
 71
   -13
 72
     7
 73
    -8
  0
VERTEX
  5
6C0F
  8
0
 10
0.0
 20
0.0
 30
0.0
 70
   128
 71
    24
 72
   -13
 73
    -8
  0
SEQEND
  5
6F25
  8
0
  0
POLYLINE
  5
6C10
  8
0
 66
     1
 10
0.0
 20
0.0
 30
0.0
 70
    64
 71
    14
 72
    12
  0
VERTEX
  5
6C11
  8
0
 10
-242.4871130596429
 20
-139.9999999999999
 30
0.0
 70
   192
  0
VERTEX
  5
6C12
  8
0
 10
-242.4871130596429
 20
-139.9999999999999
 30
-0.5
 70
   192
  0
VERTEX
  5
6C13
  8
0
 10
-140.0000000000001
 20
-242.4871130596428
 30
-0.5
 70
   192
  0
VERTEX
  5
6C14
  8
0
 10
-140.0000000000001
 20
-242.4871130596428
 30
0.0
 70
   192
  0
VERTEX
  5
6C15
  8
0
 10
139.9999999999999
 20
-242.4871130596429
 30
0.0
 70
   192
  0
VERTEX
  5
6C16
  8
0
 10
139.9999999999999
 20
-242.4871130596429
 30
-0.5
 70
   192
  0
VERTEX
  5
6C17
  8
0
 10
242.4871130596428
 20
-140.0000000000001
 30
-0.5
 70
   192
  0
VERTEX
  5
6C18
  8
0
 10
242.4871130596428
 20
-140.0000000000001
 30
0.0
 70
   192
  0
VERTEX
  5
6C19
  8
0
 10
280.0
 20
-0.0000000000002021
 30
-0.5
 70
   192
  0
VERTEX
  5
6C1A
  8
0
 10
280.0
 20
0.0
 30
0.0
 70
   192
  0
VERTEX
  5
6C1B
  8
0
 10
-0.0000000000001088
 20
-280.0
 30
0.0
 70
   192
  0
VERTEX
  5
6C1C
  8
0
 10
-0.0000000000001088
 20
-280.0
 30
-0.5
 70
   192
  0
VERTEX
  5
6C1D
  8
0
 10
-280.0
 20
0.0000000000000343
 30
0.0
 70
   192
  0
VERTEX
  5
6C1E
  8
0
 10
-280.0
 20
0.0000000000000343
 30
-0.5
 70
   192
  0
VERTEX
  5
6C1F
  8
0
 10
0.0
 20
0.0
 30
0.0
 70
   128
 71
     1
 72
     2
 73
    -3
  0
VERTEX
  5
6C20
  8
0
 10
0.0
 20
0.0
 30
0.0
 70
   128
 71
    -1
 72
     3
 73
     4
  0
VERTEX
  5
6C21
  8
0
 10
0.0
 20
0.0
 30
0.0
 70
   128
 71
     5
 72
     6
 73
    -7
  0
VERTEX
  5
6C22
  8
0
 10
0.0
 20
0.0
 30
0.0
 70
   128
 71
    -5
 72
     7
 73
     8
  0
VERTEX
  5
6C23
  8
0
 10
0.0
 20
0.0
 30
0.0
 70
   128
 71
     8
 72
     7
 73
    -9
  0
VERTEX
  5
6C24
  8
0
 10
0.0
 20
0.0
 30
0.0
 70
   128
 71
    -8
 72
     9
 73
    10
  0
VERTEX
  5
6C25
  8
0
 10
0.0
 20
0.0
 30
0.0
 70
   128
 71
    11
 72
    12
 73
    -6
  0
VERTEX
  5
6C26
  8
0
 10
0.0
 20
0.0
 30
0.0
 70
   128
 71
   -11
 72
     6
 73
     5
  0
VERTEX
  5
6C27
  8
0
 10
0.0
 20
0.0
 30
0.0
 70
   128
 71
     4
 72
     3
 73
   -12
  0
VERTEX
  5
6C28
  8
0
 10
0.0
 20
0.0
 30
0.0
 70
   128
 71
    -4
 72
    12
 73
    11
  0
VERTEX
  5
6C29
  8
0
 10
0.0
 20
0.0
 30
0.0
 70
   128
 71
    13
 72
    14
 73
    -2
  0
VERTEX
  5
6C2A
  8
0
 10
0.0
 20
0.0
 30
0.0
 70
   128
 71
   -13
 72
     2
 73
     1
  0
SEQEND
  5
6F26
  8
0
  0
POLYLINE
  5
6C2B
  8
0
 66
     1
 10
0.0
 20
0.0
 30
0.0
 70
    64
 71
    14
 72
    12
  0
VERTEX
  5
6C2C
  8
0
 10
145.0000000000001
 20
251.1473670974872
 30
-0.5
 70
   192
  0
VERTEX
  5
6C2D
  8
0
 10
251.1473670974873
 20
145.0
 30
-0.5
 70
   192
  0
VERTEX
  5
6C2E
  8
0
 10
251.1473670974873
 20
145.0
 30
0.0
 70
   192
  0
VERTEX
  5
6C2F
  8
0
 10
145.0000000000001
 20
251.1473670974872
 30
0.0
 70
   192
  0
VERTEX
  5
6C30
  8
0
 10
-251.1473670974872
 20
145.0000000000002
 30
-0.5
 70
   192
  0
VERTEX
  5
6C31
  8
0
 10
-144.9999999999999
 20
251.1473670974873
 30
-0.5
 70
   192
  0
VERTEX
  5
6C32
  8
0
 10
-144.9999999999999
 20
251.1473670974873
 30
0.0
 70
   192
  0
VERTEX
  5
6C33
  8
0
 10
-251.1473670974872
 20
145.0000000000002
 30
0.0
 70
   192
  0
VERTEX
  5
6C34
  8
0
 10
-290.0000000000001
 20
0.0000000000000355
 30
-0.5
 70
   192
  0
VERTEX
  5
6C35
  8
0
 10
-290.0000000000001
 20
0.0000000000000355
 30
0.0
 70
   192
  0
VERTEX
  5
6C36
  8
0
 10
0.0000000000000805
 20
290.0000000000001
 30
-0.5
 70
   192
  0
VERTEX
  5
6C37
  8
0
 10
0.0000000000000805
 20
290.0000000000001
 30
0.0
 70
   192
  0
VERTEX
  5
6C38
  8
0
 10
290.0000000000001
 20
0.0
 30
-0.5
 70
   192
  0
VERTEX
  5
6C39
  8
0
 10
290.0000000000001
 20
0.0
 30
0.0
 70
   192
  0
VERTEX
  5
6C3A
  8
0
 10
0.0
 20
0.0
 30
0.0
 70
   128
 71
     1
 72
     2
 73
    -3
  0
VERTEX
  5
6C3B
  8
0
 10
0.0
 20
0.0
 30
0.0
 70
   128
 71
     4
 72
    -1
 73
     3
  0
VERTEX
  5
6C3C
  8
0
 10
0.0
 20
0.0
 30
0.0
 70
   128
 71
     5
 72
     6
 73
    -7
  0
VERTEX
  5
6C3D
  8
0
 10
0.0
 20
0.0
 30
0.0
 70
   128
 71
     8
 72
    -5
 73
     7
  0
VERTEX
  5
6C3E
  8
0
 10
0.0
 20
0.0
 30
0.0
 70
   128
 71
     9
 72
     5
 73
    -8
  0
VERTEX
  5
6C3F
  8
0
 10
0.0
 20
0.0
 30
0.0
 70
   128
 71
    10
 72
    -9
 73
     8
  0
VERTEX
  5
6C40
  8
0
 10
0.0
 20
0.0
 30
0.0
 70
   128
 71
     6
 72
    11
 73
   -12
  0
VERTEX
  5
6C41
  8
0
 10
0.0
 20
0.0
 30
0.0
 70
   128
 71
     7
 72
    -6
 73
    12
  0
VERTEX
  5
6C42
  8
0
 10
0.0
 20
0.0
 30
0.0
 70
   128
 71
    11
 72
     1
 73
    -4
  0
VERTEX
  5
6C43
  8
0
 10
0.0
 20
0.0
 30
0.0
 70
   128
 71
    12
 72
   -11
 73
     4
  0
VERTEX
  5
6C44
  8
0
 10
0.0
 20
0.0
 30
0.0
 70
   128
 71
     2
 72
    13
 73
   -14
  0
VERTEX
  5
6C45
  8
0
 10
0.0
 20
0.0
 30
0.0
 70
   128
 71
     3
 72
    -2
 73
    14
  0
SEQEND
  5
6F27
  8
0
  0
POLYLINE
  5
6C46
  8
0
 66
     1
 10
0.0
 20
0.0
 30
0.0
 70
    64
 71
    24
 72
    24
  0
VERTEX
  5
6C47
  8
0
 10
290.0000000000001
 20
0.0
 30
-0.5
 70
   192
  0
VERTEX
  5
6C48
  8
0
 10
251.1473670974873
 20
145.0
 30
-0.5
 70
   192
  0
VERTEX
  5
6C49
  8
0
 10
145.0000000000001
 20
251.1473670974872
 30
-0.5
 70
   192
  0
VERTEX
  5
6C4A
  8
0
 10
0.0000000000000805
 20
290.0000000000001
 30
-0.5
 70
   192
  0
VERTEX
  5
6C4B
  8
0
 10
-144.9999999999999
 20
251.1473670974873
 30
-0.5
 70
   192
  0
VERTEX
  5
6C4C
  8
0
 10
-251.1473670974872
 20
145.0000000000002
 30
-0.5
 70
   192
  0
VERTEX
  5
6C4D
  8
0
 10
-290.0000000000001
 20
0.000000000000161
 30
-0.5
 70
   192
  0
VERTEX
  5
6C4E
  8
0
 10
-251.1473670974873
 20
-145.0
 30
-0.5
 70
   192
  0
VERTEX
  5
6C4F
  8
0
 10
-145.0000000000001
 20
-251.1473670974872
 30
-0.5
 70
   192
  0
VERTEX
  5
6C50
  8
0
 10
-0.0000000000001127
 20
-290.0000000000001
 30
-0.5
 70
   192
  0
VERTEX
  5
6C51
  8
0
 10
144.9999999999999
 20
-251.1473670974873
 30
-0.5
 70
   192
  0
VERTEX
  5
6C52
  8
0
 10
251.1473670974872
 20
-145.0000000000002
 30
-0.5
 70
   192
  0
VERTEX
  5
6C53
  8
0
 10
-280.0
 20
0.0000000000001554
 30
-0.5
 70
   192
  0
VERTEX
  5
6C54
  8
0
 10
-242.4871130596428
 20
140.0000000000001
 30
-0.5
 70
   192
  0
VERTEX
  5
6C55
  8
0
 10
-139.9999999999999
 20
242.4871130596429
 30
-0.5
 70
   192
  0
VERTEX
  5
6C56
  8
0
 10
0.0000000000000777
 20
280.0
 30
-0.5
 70
   192
  0
VERTEX
  5
6C57
  8
0
 10
140.0000000000001
 20
242.4871130596428
 30
-0.5
 70
   192
  0
VERTEX
  5
6C58
  8
0
 10
242.4871130596428
 20
140.0
 30
-0.5
 70
   192
  0
VERTEX
  5
6C59
  8
0
 10
280.0
 20
0.0
 30
-0.5
 70
   192
  0
VERTEX
  5
6C5A
  8
0
 10
242.4871130596428
 20
-140.0000000000001
 30
-0.5
 70
   192
  0
VERTEX
  5
6C5B
  8
0
 10
139.9999999999999
 20
-242.4871130596429
 30
-0.5
 70
   192
  0
VERTEX
  5
6C5C
  8
0
 10
-0.0000000000001088
 20
-280.0
 30
-0.5
 70
   192
  0
VERTEX
  5
6C5D
  8
0
 10
-140.0000000000001
 20
-242.4871130596428
 30
-0.5
 70
   192
  0
VERTEX
  5
6C5E
  8
0
 10
-242.4871130596429
 20
-139.9999999999999
 30
-0.5
 70
   192
  0
VERTEX
  5
6C5F
  8
0
 10
0.0
 20
0.0
 30
0.0
 70
   128
 71
    -7
 72
    13
 73
   -14
  0
VERTEX
  5
6C60
  8
0
 10
0.0
 20
0.0
 30
0.0
 70
   128
 71
     6
 72
    -7
 73
   -14
  0
VERTEX
  5
6C61
  8
0
 10
0.0
 20
0.0
 30
0.0
 70
   128
 71
   -15
 72
     5
 73
    -6
  0
VERTEX
  5
6C62
  8
0
 10
0.0
 20
0.0
 30
0.0
 70
   128
 71
    14
 72
   -15
 73
    -6
  0
VERTEX
  5
6C63
  8
0
 10
0.0
 20
0.0
 30
0.0
 70
   128
 71
   -16
 72
     4
 73
    -5
  0
VERTEX
  5
6C64
  8
0
 10
0.0
 20
0.0
 30
0.0
 70
   128
 71
    15
 72
   -16
 73
    -5
  0
VERTEX
  5
6C65
  8
0
 10
0.0
 20
0.0
 30
0.0
 70
   128
 71
   -17
 72
     3
 73
    -4
  0
VERTEX
  5
6C66
  8
0
 10
0.0
 20
0.0
 30
0.0
 70
   128
 71
    16
 72
   -17
 73
    -4
  0
VERTEX
  5
6C67
  8
0
 10
0.0
 20
0.0
 30
0.0
 70
   128
 71
   -18
 72
     2
 73
    -3
  0
VERTEX
  5
6C68
  8
0
 10
0.0
 20
0.0
 30
0.0
 70
   128
 71
    17
 72
   -18
 73
    -3
  0
VERTEX
  5
6C69
  8
0
 10
0.0
 20
0.0
 30
0.0
 70
   128
 71
   -19
 72
     1
 73
    -2
  0
VERTEX
  5
6C6A
  8
0
 10
0.0
 20
0.0
 30
0.0
 70
   128
 71
    18
 72
   -19
 73
    -2
  0
VERTEX
  5
6C6B
  8
0
 10
0.0
 20
0.0
 30
0.0
 70
   128
 71
   -20
 72
    12
 73
    -1
  0
VERTEX
  5
6C6C
  8
0
 10
0.0
 20
0.0
 30
0.0
 70
   128
 71
    19
 72
   -20
 73
    -1
  0
VERTEX
  5
6C6D
  8
0
 10
0.0
 20
0.0
 30
0.0
 70
   128
 71
   -21
 72
    11
 73
   -12
  0
VERTEX
  5
6C6E
  8
0
 10
0.0
 20
0.0
 30
0.0
 70
   128
 71
    20
 72
   -21
 73
   -12
  0
VERTEX
  5
6C6F
  8
0
 10
0.0
 20
0.0
 30
0.0
 70
   128
 71
   -22
 72
    10
 73
   -11
  0
VERTEX
  5
6C70
  8
0
 10
0.0
 20
0.0
 30
0.0
 70
   128
 71
    21
 72
   -22
 73
   -11
  0
VERTEX
  5
6C71
  8
0
 10
0.0
 20
0.0
 30
0.0
 70
   128
 71
   -23
 72
     9
 73
   -10
  0
VERTEX
  5
6C72
  8
0
 10
0.0
 20
0.0
 30
0.0
 70
   128
 71
    22
 72
   -23
 73
   -10
  0
VERTEX
  5
6C73
  8
0
 10
0.0
 20
0.0
 30
0.0
 70
   128
 71
   -24
 72
     8
 73
    -9
  0
VERTEX
  5
6C74
  8
0
 10
0.0
 20
0.0
 30
0.0
 70
   128
 71
    23
 72
   -24
 73
    -9
  0
VERTEX
  5
6C75
  8
0
 10
0.0
 20
0.0
 30
0.0
 70
   128
 71
   -13
 72
     7
 73
    -8
  0
VERTEX
  5
6C76
  8
0
 10
0.0
 20
0.0
 30
0.0
 70
   128
 71
    24
 72
   -13
 73
    -8
  0
SEQEND
  5
6F28
  8
0
  0
POLYLINE
  5
6C77
  8
0
 66
     1
 10
0.0
 20
0.0
 30
0.0
 70
    64
 71
    24
 72
    24
  0
VERTEX
  5
6C78
  8
0
 10
280.0
 20
0.0
 30
0.0
 70
   192
  0
VERTEX
  5
6C79
  8
0
 10
242.4871130596428
 20
140.0
 30
0.0
 70
   192
  0
VERTEX
  5
6C7A
  8
0
 10
140.0000000000001
 20
242.4871130596428
 30
0.0
 70
   192
  0
VERTEX
  5
6C7B
  8
0
 10
0.0000000000000777
 20
280.0
 30
0.0
 70
   192
  0
VERTEX
  5
6C7C
  8
0
 10
-139.9999999999999
 20
242.4871130596429
 30
0.0
 70
   192
  0
VERTEX
  5
6C7D
  8
0
 10
-242.4871130596428
 20
140.0000000000001
 30
0.0
 70
   192
  0
VERTEX
  5
6C7E
  8
0
 10
-280.0
 20
0.0000000000001554
 30
0.0
 70
   192
  0
VERTEX
  5
6C7F
  8
0
 10
-242.4871130596429
 20
-139.9999999999999
 30
0.0
 70
   192
  0
VERTEX
  5
6C80
  8
0
 10
-140.0000000000001
 20
-242.4871130596428
 30
0.0
 70
   192
  0
VERTEX
  5
6C81
  8
0
 10
-0.0000000000001088
 20
-280.0
 30
0.0
 70
   192
  0
VERTEX
  5
6C82
  8
0
 10
139.9999999999999
 20
-242.4871130596429
 30
0.0
 70
   192
  0
VERTEX
  5
6C83
  8
0
 10
242.4871130596428
 20
-140.0000000000001
 30
0.0
 70
   192
  0
VERTEX
  5
6C84
  8
0
 10
-264.9999999999999
 20
0.0000000000001471
 30
0.0
 70
   192
  0
VERTEX
  5
6C85
  8
0
 10
-229.4967320028761
 20
132.5000000000001
 30
0.0
 70
   192
  0
VERTEX
  5
6C86
  8
0
 10
-132.4999999999999
 20
229.4967320028762
 30
0.0
 70
   192
  0
VERTEX
  5
6C87
  8
0
 10
0.0000000000000736
 20
264.9999999999999
 30
0.0
 70
   192
  0
VERTEX
  5
6C88
  8
0
 10
132.5
 20
229.4967320028762
 30
0.0
 70
   192
  0
VERTEX
  5
6C89
  8
0
 10
229.4967320028762
 20
132.4999999999999
 30
0.0
 70
   192
  0
VERTEX
  5
6C8A
  8
0
 10
264.9999999999999
 20
0.0
 30
0.0
 70
   192
  0
VERTEX
  5
6C8B
  8
0
 10
229.4967320028761
 20
-132.5000000000001
 30
0.0
 70
   192
  0
VERTEX
  5
6C8C
  8
0
 10
132.4999999999999
 20
-229.4967320028763
 30
0.0
 70
   192
  0
VERTEX
  5
6C8D
  8
0
 10
-0.000000000000103
 20
-264.9999999999999
 30
0.0
 70
   192
  0
VERTEX
  5
6C8E
  8
0
 10
-132.5000000000001
 20
-229.4967320028762
 30
0.0
 70
   192
  0
VERTEX
  5
6C8F
  8
0
 10
-229.4967320028762
 20
-132.4999999999999
 30
0.0
 70
   192
  0
VERTEX
  5
6C90
  8
0
 10
0.0
 20
0.0
 30
0.0
 70
   128
 71
    -7
 72
    13
 73
   -14
  0
VERTEX
  5
6C91
  8
0
 10
0.0
 20
0.0
 30
0.0
 70
   128
 71
     6
 72
    -7
 73
   -14
  0
VERTEX
  5
6C92
  8
0
 10
0.0
 20
0.0
 30
0.0
 70
   128
 71
   -15
 72
     5
 73
    -6
  0
VERTEX
  5
6C93
  8
0
 10
0.0
 20
0.0
 30
0.0
 70
   128
 71
    14
 72
   -15
 73
    -6
  0
VERTEX
  5
6C94
  8
0
 10
0.0
 20
0.0
 30
0.0
 70
   128
 71
   -16
 72
     4
 73
    -5
  0
VERTEX
  5
6C95
  8
0
 10
0.0
 20
0.0
 30
0.0
 70
   128
 71
    15
 72
   -16
 73
    -5
  0
VERTEX
  5
6C96
  8
0
 10
0.0
 20
0.0
 30
0.0
 70
   128
 71
   -17
 72
     3
 73
    -4
  0
VERTEX
  5
6C97
  8
0
 10
0.0
 20
0.0
 30
0.0
 70
   128
 71
    16
 72
   -17
 73
    -4
  0
VERTEX
  5
6C98
  8
0
 10
0.0
 20
0.0
 30
0.0
 70
   128
 71
   -18
 72
     2
 73
    -3
  0
VERTEX
  5
6C99
  8
0
 10
0.0
 20
0.0
 30
0.0
 70
   128
 71
    17
 72
   -18
 73
    -3
  0
VERTEX
  5
6C9A
  8
0
 10
0.0
 20
0.0
 30
0.0
 70
   128
 71
   -19
 72
     1
 73
    -2
  0
VERTEX
  5
6C9B
  8
0
 10
0.0
 20
0.0
 30
0.0
 70
   128
 71
    18
 72
   -19
 73
    -2
  0
VERTEX
  5
6C9C
  8
0
 10
0.0
 20
0.0
 30
0.0
 70
   128
 71
   -20
 72
    12
 73
    -1
  0
VERTEX
  5
6C9D
  8
0
 10
0.0
 20
0.0
 30
0.0
 70
   128
 71
    19
 72
   -20
 73
    -1
  0
VERTEX
  5
6C9E
  8
0
 10
0.0
 20
0.0
 30
0.0
 70
   128
 71
   -21
 72
    11
 73
   -12
  0
VERTEX
  5
6C9F
  8
0
 10
0.0
 20
0.0
 30
0.0
 70
   128
 71
    20
 72
   -21
 73
   -12
  0
VERTEX
  5
6CA0
  8
0
 10
0.0
 20
0.0
 30
0.0
 70
   128
 71
   -22
 72
    10
 73
   -11
  0
VERTEX
  5
6CA1
  8
0
 10
0.0
 20
0.0
 30
0.0
 70
   128
 71
    21
 72
   -22
 73
   -11
  0
VERTEX
  5
6CA2
  8
0
 10
0.0
 20
0.0
 30
0.0
 70
   128
 71
   -23
 72
     9
 73
   -10
  0
VERTEX
  5
6CA3
  8
0
 10
0.0
 20
0.0
 30
0.0
 70
   128
 71
    22
 72
   -23
 73
   -10
  0
VERTEX
  5
6CA4
  8
0
 10
0.0
 20
0.0
 30
0.0
 70
   128
 71
   -24
 72
     8
 73
    -9
  0
VERTEX
  5
6CA5
  8
0
 10
0.0
 20
0.0
 30
0.0
 70
   128
 71
    23
 72
   -24
 73
    -9
  0
VERTEX
  5
6CA6
  8
0
 10
0.0
 20
0.0
 30
0.0
 70
   128
 71
   -13
 72
     7
 73
    -8
  0
VERTEX
  5
6CA7
  8
0
 10
0.0
 20
0.0
 30
0.0
 70
   128
 71
    24
 72
   -13
 73
    -8
  0
SEQEND
  5
6F29
  8
0
  0
POLYLINE
  5
6CA8
  8
0
 66
     1
 10
0.0
 20
0.0
 30
0.0
 70
    64
 71
    14
 72
    12
  0
VERTEX
  5
6CA9
  8
0
 10
264.9999999999999
 20
0.0
 30
-0.5
 70
   192
  0
VERTEX
  5
6CAA
  8
0
 10
264.9999999999999
 20
0.0
 30
0.0
 70
   192
  0
VERTEX
  5
6CAB
  8
0
 10
229.4967320028762
 20
132.4999999999999
 30
0.0
 70
   192
  0
VERTEX
  5
6CAC
  8
0
 10
229.4967320028762
 20
132.4999999999999
 30
-0.5
 70
   192
  0
VERTEX
  5
6CAD
  8
0
 10
0.0000000000000736
 20
264.9999999999999
 30
0.0
 70
   192
  0
VERTEX
  5
6CAE
  8
0
 10
0.0000000000000736
 20
264.9999999999999
 30
-0.5
 70
   192
  0
VERTEX
  5
6CAF
  8
0
 10
132.5
 20
229.4967320028762
 30
-0.5
 70
   192
  0
VERTEX
  5
6CB0
  8
0
 10
132.5
 20
229.4967320028762
 30
0.0
 70
   192
  0
VERTEX
  5
6CB1
  8
0
 10
-132.4999999999999
 20
229.4967320028762
 30
0.0
 70
   192
  0
VERTEX
  5
6CB2
  8
0
 10
-132.4999999999999
 20
229.4967320028762
 30
-0.5
 70
   192
  0
VERTEX
  5
6CB3
  8
0
 10
-264.9999999999999
 20
0.0000000000000325
 30
0.0
 70
   192
  0
VERTEX
  5
6CB4
  8
0
 10
-264.9999999999999
 20
0.0000000000000325
 30
-0.5
 70
   192
  0
VERTEX
  5
6CB5
  8
0
 10
-229.4967320028761
 20
132.5000000000001
 30
-0.5
 70
   192
  0
VERTEX
  5
6CB6
  8
0
 10
-229.4967320028761
 20
132.5000000000001
 30
0.0
 70
   192
  0
VERTEX
  5
6CB7
  8
0
 10
0.0
 20
0.0
 30
0.0
 70
   128
 71
     1
 72
     2
 73
    -3
  0
VERTEX
  5
6CB8
  8
0
 10
0.0
 20
0.0
 30
0.0
 70
   128
 71
     4
 72
    -1
 73
     3
  0
VERTEX
  5
6CB9
  8
0
 10
0.0
 20
0.0
 30
0.0
 70
   128
 71
     5
 72
     6
 73
    -7
  0
VERTEX
  5
6CBA
  8
0
 10
0.0
 20
0.0
 30
0.0
 70
   128
 71
     8
 72
    -5
 73
     7
  0
VERTEX
  5
6CBB
  8
0
 10
0.0
 20
0.0
 30
0.0
 70
   128
 71
     6
 72
     5
 73
    -9
  0
VERTEX
  5
6CBC
  8
0
 10
0.0
 20
0.0
 30
0.0
 70
   128
 71
    10
 72
    -6
 73
     9
  0
VERTEX
  5
6CBD
  8
0
 10
0.0
 20
0.0
 30
0.0
 70
   128
 71
    11
 72
    12
 73
   -13
  0
VERTEX
  5
6CBE
  8
0
 10
0.0
 20
0.0
 30
0.0
 70
   128
 71
    14
 72
   -11
 73
    13
  0
VERTEX
  5
6CBF
  8
0
 10
0.0
 20
0.0
 30
0.0
 70
   128
 71
     7
 72
     4
 73
    -3
  0
VERTEX
  5
6CC0
  8
0
 10
0.0
 20
0.0
 30
0.0
 70
   128
 71
     8
 72
    -7
 73
     3
  0
VERTEX
  5
6CC1
  8
0
 10
0.0
 20
0.0
 30
0.0
 70
   128
 71
    13
 72
    10
 73
    -9
  0
VERTEX
  5
6CC2
  8
0
 10
0.0
 20
0.0
 30
0.0
 70
   128
 71
    14
 72
   -13
 73
     9
  0
SEQEND
  5
6F2A
  8
0
  0
POLYLINE
  5
6CC3
  8
0
 66
     1
 10
0.0
 20
0.0
 30
0.0
 70
    64
 71
    12
 72
    10
  0
VERTEX
  5
6CC4
  8
0
 10
264.9999999999999
 20
0.0
 30
-0.5
 70
   192
  0
VERTEX
  5
6CC5
  8
0
 10
229.4967320028762
 20
132.4999999999999
 30
-0.5
 70
   192
  0
VERTEX
  5
6CC6
  8
0
 10
132.5
 20
229.4967320028762
 30
-0.5
 70
   192
  0
VERTEX
  5
6CC7
  8
0
 10
0.0000000000000736
 20
264.9999999999999
 30
-0.5
 70
   192
  0
VERTEX
  5
6CC8
  8
0
 10
-132.4999999999999
 20
229.4967320028762
 30
-0.5
 70
   192
  0
VERTEX
  5
6CC9
  8
0
 10
-229.4967320028761
 20
132.5000000000001
 30
-0.5
 70
   192
  0
VERTEX
  5
6CCA
  8
0
 10
-264.9999999999999
 20
0.0000000000001471
 30
-0.5
 70
   192
  0
VERTEX
  5
6CCB
  8
0
 10
-229.4967320028762
 20
-132.4999999999999
 30
-0.5
 70
   192
  0
VERTEX
  5
6CCC
  8
0
 10
-132.5000000000001
 20
-229.4967320028762
 30
-0.5
 70
   192
  0
VERTEX
  5
6CCD
  8
0
 10
-0.000000000000103
 20
-264.9999999999999
 30
-0.5
 70
   192
  0
VERTEX
  5
6CCE
  8
0
 10
132.4999999999999
 20
-229.4967320028763
 30
-0.5
 70
   192
  0
VERTEX
  5
6CCF
  8
0
 10
229.4967320028761
 20
-132.5000000000001
 30
-0.5
 70
   192
  0
VERTEX
  5
6CD0
  8
0
 10
0.0
 20
0.0
 30
0.0
 70
   128
 71
    11
 72
    12
 73
    -1
  0
VERTEX
  5
6CD1
  8
0
 10
0.0
 20
0.0
 30
0.0
 70
   128
 71
    10
 72
   -11
 73
    -1
  0
VERTEX
  5
6CD2
  8
0
 10
0.0
 20
0.0
 30
0.0
 70
   128
 71
     9
 72
   -10
 73
    -1
  0
VERTEX
  5
6CD3
  8
0
 10
0.0
 20
0.0
 30
0.0
 70
   128
 71
     8
 72
    -9
 73
    -1
  0
VERTEX
  5
6CD4
  8
0
 10
0.0
 20
0.0
 30
0.0
 70
   128
 71
     7
 72
    -8
 73
    -1
  0
VERTEX
  5
6CD5
  8
0
 10
0.0
 20
0.0
 30
0.0
 70
   128
 71
     6
 72
    -7
 73
    -1
  0
VERTEX
  5
6CD6
  8
0
 10
0.0
 20
0.0
 30
0.0
 70
   128
 71
     5
 72
    -6
 73
    -1
  0
VERTEX
  5
6CD7
  8
0
 10
0.0
 20
0.0
 30
0.0
 70
   128
 71
     4
 72
    -5
 73
    -1
  0
VERTEX
  5
6CD8
  8
0
 10
0.0
 20
0.0
 30
0.0
 70
   128
 71
     3
 72
    -4
 73
    -1
  0
VERTEX
  5
6CD9
  8
0
 10
0.0
 20
0.0
 30
0.0
 70
   128
 71
     2
 72
    -3
 73
     1
  0
SEQEND
  5
6F2B
  8
0
  0
POLYLINE
  5
6CDA
  8
0
 66
     1
 10
0.0
 20
0.0
 30
0.0
 70
    64
 71
    14
 72
    12
  0
VERTEX
  5
6CDB
  8
0
 10
145.0000000000001
 20
251.1473670974872
 30
-35.0
 70
   192
  0
VERTEX
  5
6CDC
  8
0
 10
251.1473670974873
 20
145.0
 30
-35.0
 70
   192
  0
VERTEX
  5
6CDD
  8
0
 10
251.1473670974873
 20
145.0
 30
-10.5
 70
   192
  0
VERTEX
  5
6CDE
  8
0
 10
145.0000000000001
 20
251.1473670974872
 30
-10.5
 70
   192
  0
VERTEX
  5
6CDF
  8
0
 10
-251.1473670974872
 20
145.0000000000002
 30
-35.0
 70
   192
  0
VERTEX
  5
6CE0
  8
0
 10
-144.9999999999999
 20
251.1473670974873
 30
-35.0
 70
   192
  0
VERTEX
  5
6CE1
  8
0
 10
-144.9999999999999
 20
251.1473670974873
 30
-10.5
 70
   192
  0
VERTEX
  5
6CE2
  8
0
 10
-251.1473670974872
 20
145.0000000000002
 30
-10.5
 70
   192
  0
VERTEX
  5
6CE3
  8
0
 10
-290.0000000000001
 20
0.0000000000000355
 30
-35.0
 70
   192
  0
VERTEX
  5
6CE4
  8
0
 10
-290.0000000000001
 20
0.0000000000000355
 30
-10.5
 70
   192
  0
VERTEX
  5
6CE5
  8
0
 10
0.0000000000000805
 20
290.0000000000001
 30
-35.0
 70
   192
  0
VERTEX
  5
6CE6
  8
0
 10
0.0000000000000805
 20
290.0000000000001
 30
-10.5
 70
   192
  0
VERTEX
  5
6CE7
  8
0
 10
290.0000000000001
 20
0.0
 30
-35.0
 70
   192
  0
VERTEX
  5
6CE8
  8
0
 10
290.0000000000001
 20
0.0
 30
-10.5
 70
   192
  0
VERTEX
  5
6CE9
  8
0
 10
0.0
 20
0.0
 30
0.0
 70
   128
 71
     1
 72
     2
 73
    -3
  0
VERTEX
  5
6CEA
  8
0
 10
0.0
 20
0.0
 30
0.0
 70
   128
 71
     4
 72
    -1
 73
     3
  0
VERTEX
  5
6CEB
  8
0
 10
0.0
 20
0.0
 30
0.0
 70
   128
 71
     5
 72
     6
 73
    -7
  0
VERTEX
  5
6CEC
  8
0
 10
0.0
 20
0.0
 30
0.0
 70
   128
 71
     8
 72
    -5
 73
     7
  0
VERTEX
  5
6CED
  8
0
 10
0.0
 20
0.0
 30
0.0
 70
   128
 71
     9
 72
     5
 73
    -8
  0
VERTEX
  5
6CEE
  8
0
 10
0.0
 20
0.0
 30
0.0
 70
   128
 71
    10
 72
    -9
 73
     8
  0
VERTEX
  5
6CEF
  8
0
 10
0.0
 20
0.0
 30
0.0
 70
   128
 71
     6
 72
    11
 73
   -12
  0
VERTEX
  5
6CF0
  8
0
 10
0.0
 20
0.0
 30
0.0
 70
   128
 71
     7
 72
    -6
 73
    12
  0
VERTEX
  5
6CF1
  8
0
 10
0.0
 20
0.0
 30
0.0
 70
   128
 71
    11
 72
     1
 73
    -4
  0
VERTEX
  5
6CF2
  8
0
 10
0.0
 20
0.0
 30
0.0
 70
   128
 71
    12
 72
   -11
 73
     4
  0
VERTEX
  5
6CF3
  8
0
 10
0.0
 20
0.0
 30
0.0
 70
   128
 71
     2
 72
    13
 73
   -14
  0
VERTEX
  5
6CF4
  8
0
 10
0.0
 20
0.0
 30
0.0
 70
   128
 71
     3
 72
    -2
 73
    14
  0
SEQEND
  5
6F2C
  8
0
  0
POLYLINE
  5
6CF5
  8
0
 66
     1
 10
0.0
 20
0.0
 30
0.0
 70
    64
 71
    12
 72
    10
  0
VERTEX
  5
6CF6
  8
0
 10
-290.0000000000001
 20
0.0000000000000355
 30
-10.5
 70
   192
  0
VERTEX
  5
6CF7
  8
0
 10
-251.1473670974873
 20
-145.0
 30
-10.5
 70
   192
  0
VERTEX
  5
6CF8
  8
0
 10
-145.0000000000001
 20
-251.1473670974872
 30
-10.5
 70
   192
  0
VERTEX
  5
6CF9
  8
0
 10
-0.0000000000001127
 20
-290.0000000000001
 30
-10.5
 70
   192
  0
VERTEX
  5
6CFA
  8
0
 10
144.9999999999999
 20
-251.1473670974873
 30
-10.5
 70
   192
  0
VERTEX
  5
6CFB
  8
0
 10
251.1473670974872
 20
-145.0000000000002
 30
-10.5
 70
   192
  0
VERTEX
  5
6CFC
  8
0
 10
290.0000000000001
 20
0.0
 30
-10.5
 70
   192
  0
VERTEX
  5
6CFD
  8
0
 10
251.1473670974873
 20
145.0
 30
-10.5
 70
   192
  0
VERTEX
  5
6CFE
  8
0
 10
145.0000000000001
 20
251.1473670974872
 30
-10.5
 70
   192
  0
VERTEX
  5
6CFF
  8
0
 10
0.0000000000000805
 20
290.0000000000001
 30
-10.5
 70
   192
  0
VERTEX
  5
6D00
  8
0
 10
-144.9999999999999
 20
251.1473670974873
 30
-10.5
 70
   192
  0
VERTEX
  5
6D01
  8
0
 10
-251.1473670974872
 20
145.0000000000002
 30
-10.5
 70
   192
  0
VERTEX
  5
6D02
  8
0
 10
0.0
 20
0.0
 30
0.0
 70
   128
 71
     1
 72
    12
 73
   -11
  0
VERTEX
  5
6D03
  8
0
 10
0.0
 20
0.0
 30
0.0
 70
   128
 71
    -1
 72
    11
 73
   -10
  0
VERTEX
  5
6D04
  8
0
 10
0.0
 20
0.0
 30
0.0
 70
   128
 71
    -1
 72
    10
 73
    -9
  0
VERTEX
  5
6D05
  8
0
 10
0.0
 20
0.0
 30
0.0
 70
   128
 71
    -1
 72
     9
 73
    -8
  0
VERTEX
  5
6D06
  8
0
 10
0.0
 20
0.0
 30
0.0
 70
   128
 71
    -1
 72
     8
 73
    -7
  0
VERTEX
  5
6D07
  8
0
 10
0.0
 20
0.0
 30
0.0
 70
   128
 71
    -1
 72
     7
 73
    -6
  0
VERTEX
  5
6D08
  8
0
 10
0.0
 20
0.0
 30
0.0
 70
   128
 71
    -1
 72
     6
 73
    -5
  0
VERTEX
  5
6D09
  8
0
 10
0.0
 20
0.0
 30
0.0
 70
   128
 71
    -1
 72
     5
 73
    -4
  0
VERTEX
  5
6D0A
  8
0
 10
0.0
 20
0.0
 30
0.0
 70
   128
 71
    -1
 72
     4
 73
    -3
  0
VERTEX
  5
6D0B
  8
0
 10
0.0
 20
0.0
 30
0.0
 70
   128
 71
    -1
 72
     3
 73
     2
  0
SEQEND
  5
6F2D
  8
0
  0
ENDBLK
  5
6F1D
  8
0
  0
BLOCK
  8
0
  2
*X2
 70
     1
 10
0.0
 20
0.0
 30
0.0
  3
*X2
  1

  0
POLYLINE
  5
6D0D
  8
0
 66
     1
 10
0.0
 20
0.0
 30
0.0
 70
    64
 71
     6
 72
     4
  0
VERTEX
  5
6D0E
  8
0
 10
-103.0
 20
140.0000000000001
 30
-20.5
 70
   192
  0
VERTEX
  5
6D0F
  8
0
 10
-137.0
 20
140.0000000000001
 30
-20.5
 70
   192
  0
VERTEX
  5
6D10
  8
0
 10
-137.0
 20
140.0000000000001
 30
-13.5
 70
   192
  0
VERTEX
  5
6D11
  8
0
 10
-140.0
 20
140.0000000000001
 30
-13.5
 70
   192
  0
VERTEX
  5
6D12
  8
0
 10
-140.0
 20
140.0000000000001
 30
-23.5
 70
   192
  0
VERTEX
  5
6D13
  8
0
 10
-103.0
 20
140.0000000000001
 30
-23.5
 70
   192
  0
VERTEX
  5
6D14
  8
0
 10
0.0
 20
0.0
 30
0.0
 70
   128
 71
     6
 72
     1
 73
    -2
  0
VERTEX
  5
6D15
  8
0
 10
0.0
 20
0.0
 30
0.0
 70
   128
 71
     5
 72
    -6
 73
    -2
  0
VERTEX
  5
6D16
  8
0
 10
0.0
 20
0.0
 30
0.0
 70
   128
 71
     3
 72
     4
 73
    -5
  0
VERTEX
  5
6D17
  8
0
 10
0.0
 20
0.0
 30
0.0
 70
   128
 71
     2
 72
    -3
 73
    -5
  0
SEQEND
  5
6F30
  8
0
  0
POLYLINE
  5
6D18
  8
0
 66
     1
 10
0.0
 20
0.0
 30
0.0
 70
    64
 71
     6
 72
     4
  0
VERTEX
  5
6D19
  8
0
 10
-140.0
 20
105.0000000000001
 30
-10.5
 70
   192
  0
VERTEX
  5
6D1A
  8
0
 10
-140.0
 20
165.0000000000001
 30
-10.5
 70
   192
  0
VERTEX
  5
6D1B
  8
0
 10
-140.0
 20
165.0000000000001
 30
-23.5
 70
   192
  0
VERTEX
  5
6D1C
  8
0
 10
-140.0
 20
140.0000000000001
 30
-23.5
 70
   192
  0
VERTEX
  5
6D1D
  8
0
 10
-140.0
 20
140.0000000000001
 30
-13.5
 70
   192
  0
VERTEX
  5
6D1E
  8
0
 10
-140.0
 20
105.0000000000001
 30
-13.5
 70
   192
  0
VERTEX
  5
6D1F
  8
0
 10
0.0
 20
0.0
 30
0.0
 70
   128
 71
     3
 72
     4
 73
    -5
  0
VERTEX
  5
6D20
  8
0
 10
0.0
 20
0.0
 30
0.0
 70
   128
 71
     2
 72
    -3
 73
    -5
  0
VERTEX
  5
6D21
  8
0
 10
0.0
 20
0.0
 30
0.0
 70
   128
 71
     6
 72
     1
 73
    -2
  0
VERTEX
  5
6D22
  8
0
 10
0.0
 20
0.0
 30
0.0
 70
   128
 71
     5
 72
    -6
 73
    -2
  0
SEQEND
  5
6F31
  8
0
  0
POLYLINE
  5
6D23
  8
0
 66
     1
 10
0.0
 20
0.0
 30
0.0
 70
    64
 71
     4
 72
     2
  0
VERTEX
  5
6D24
  8
0
 10
-140.0
 20
165.0000000000001
 30
-10.5
 70
   192
  0
VERTEX
  5
6D25
  8
0
 10
-140.0
 20
165.0000000000001
 30
-23.5
 70
   192
  0
VERTEX
  5
6D26
  8
0
 10
-60.0
 20
165.0000000000001
 30
-23.5
 70
   192
  0
VERTEX
  5
6D27
  8
0
 10
-60.0
 20
165.0000000000001
 30
-10.5
 70
   192
  0
VERTEX
  5
6D28
  8
0
 10
0.0
 20
0.0
 30
0.0
 70
   128
 71
     1
 72
     4
 73
    -3
  0
VERTEX
  5
6D29
  8
0
 10
0.0
 20
0.0
 30
0.0
 70
   128
 71
    -1
 72
     3
 73
     2
  0
SEQEND
  5
6F32
  8
0
  0
POLYLINE
  5
6D2A
  8
0
 66
     1
 10
0.0
 20
0.0
 30
0.0
 70
    64
 71
     6
 72
     4
  0
VERTEX
  5
6D2B
  8
0
 10
-60.0
 20
165.0000000000001
 30
-10.5
 70
   192
  0
VERTEX
  5
6D2C
  8
0
 10
-60.0
 20
165.0000000000001
 30
-23.5
 70
   192
  0
VERTEX
  5
6D2D
  8
0
 10
-60.0
 20
140.0000000000001
 30
-23.5
 70
   192
  0
VERTEX
  5
6D2E
  8
0
 10
-60.0
 20
140.0000000000001
 30
-13.5
 70
   192
  0
VERTEX
  5
6D2F
  8
0
 10
-60.0
 20
105.0000000000001
 30
-13.5
 70
   192
  0
VERTEX
  5
6D30
  8
0
 10
-60.0
 20
105.0000000000001
 30
-10.5
 70
   192
  0
VERTEX
  5
6D31
  8
0
 10
0.0
 20
0.0
 30
0.0
 70
   128
 71
     4
 72
     3
 73
    -2
  0
VERTEX
  5
6D32
  8
0
 10
0.0
 20
0.0
 30
0.0
 70
   128
 71
    -4
 72
     2
 73
    -1
  0
VERTEX
  5
6D33
  8
0
 10
0.0
 20
0.0
 30
0.0
 70
   128
 71
     1
 72
     6
 73
    -5
  0
VERTEX
  5
6D34
  8
0
 10
0.0
 20
0.0
 30
0.0
 70
   128
 71
    -1
 72
     5
 73
    -4
  0
SEQEND
  5
6F33
  8
0
  0
POLYLINE
  5
6D35
  8
0
 66
     1
 10
0.0
 20
0.0
 30
0.0
 70
    64
 71
     4
 72
     2
  0
VERTEX
  5
6D36
  8
0
 10
-60.0
 20
105.0000000000001
 30
-10.5
 70
   192
  0
VERTEX
  5
6D37
  8
0
 10
-140.0
 20
105.0000000000001
 30
-10.5
 70
   192
  0
VERTEX
  5
6D38
  8
0
 10
-140.0
 20
105.0000000000001
 30
-13.5
 70
   192
  0
VERTEX
  5
6D39
  8
0
 10
-60.0
 20
105.0000000000001
 30
-13.5
 70
   192
  0
VERTEX
  5
6D3A
  8
0
 10
0.0
 20
0.0
 30
0.0
 70
   128
 71
     3
 72
     4
 73
    -1
  0
VERTEX
  5
6D3B
  8
0
 10
0.0
 20
0.0
 30
0.0
 70
   128
 71
     2
 72
    -3
 73
     1
  0
SEQEND
  5
6F34
  8
0
  0
POLYLINE
  5
6D3C
  8
0
 66
     1
 10
0.0
 20
0.0
 30
0.0
 70
    64
 71
     8
 72
     6
  0
VERTEX
  5
6D3D
  8
0
 10
-63.0
 20
162.0000000000001
 30
-13.5
 70
   192
  0
VERTEX
  5
6D3E
  8
0
 10
-137.0
 20
162.0000000000001
 30
-13.5
 70
   192
  0
VERTEX
  5
6D3F
  8
0
 10
-137.0
 20
140.0000000000001
 30
-13.5
 70
   192
  0
VERTEX
  5
6D40
  8
0
 10
-140.0
 20
140.0000000000001
 30
-13.5
 70
   192
  0
VERTEX
  5
6D41
  8
0
 10
-140.0
 20
105.0000000000001
 30
-13.5
 70
   192
  0
VERTEX
  5
6D42
  8
0
 10
-60.0
 20
105.0000000000001
 30
-13.5
 70
   192
  0
VERTEX
  5
6D43
  8
0
 10
-60.0
 20
140.0000000000001
 30
-13.5
 70
   192
  0
VERTEX
  5
6D44
  8
0
 10
-63.0
 20
140.0000000000001
 30
-13.5
 70
   192
  0
VERTEX
  5
6D45
  8
0
 10
0.0
 20
0.0
 30
0.0
 70
   128
 71
     8
 72
     7
 73
    -6
  0
VERTEX
  5
6D46
  8
0
 10
0.0
 20
0.0
 30
0.0
 70
   128
 71
     3
 72
     2
 73
    -1
  0
VERTEX
  5
6D47
  8
0
 10
0.0
 20
0.0
 30
0.0
 70
   128
 71
    -3
 72
     1
 73
    -8
  0
VERTEX
  5
6D48
  8
0
 10
0.0
 20
0.0
 30
0.0
 70
   128
 71
    -8
 72
     6
 73
    -5
  0
VERTEX
  5
6D49
  8
0
 10
0.0
 20
0.0
 30
0.0
 70
   128
 71
    -8
 72
    -5
 73
    -3
  0
VERTEX
  5
6D4A
  8
0
 10
0.0
 20
0.0
 30
0.0
 70
   128
 71
     5
 72
     4
 73
    -3
  0
SEQEND
  5
6F35
  8
0
  0
POLYLINE
  5
6D4B
  8
0
 66
     1
 10
0.0
 20
0.0
 30
0.0
 70
    64
 71
     4
 72
     2
  0
VERTEX
  5
6D4C
  8
0
 10
-140.0
 20
165.0000000000001
 30
-10.5
 70
   192
  0
VERTEX
  5
6D4D
  8
0
 10
-140.0
 20
105.0000000000001
 30
-10.5
 70
   192
  0
VERTEX
  5
6D4E
  8
0
 10
-60.0
 20
105.0000000000001
 30
-10.5
 70
   192
  0
VERTEX
  5
6D4F
  8
0
 10
-60.0
 20
165.0000000000001
 30
-10.5
 70
   192
  0
VERTEX
  5
6D50
  8
0
 10
0.0
 20
0.0
 30
0.0
 70
   128
 71
     3
 72
     4
 73
    -1
  0
VERTEX
  5
6D51
  8
0
 10
0.0
 20
0.0
 30
0.0
 70
   128
 71
     2
 72
    -3
 73
     1
  0
SEQEND
  5
6F36
  8
0
  0
POLYLINE
  5
6D52
  8
0
 66
     1
 10
0.0
 20
0.0
 30
0.0
 70
    64
 71
     4
 72
     2
  0
VERTEX
  5
6D53
  8
0
 10
-97.0
 20
160.0
 30
-20.5
 70
   192
  0
VERTEX
  5
6D54
  8
0
 10
-103.0
 20
160.0
 30
-20.5
 70
   192
  0
VERTEX
  5
6D55
  8
0
 10
-103.0
 20
160.0
 30
-23.5
 70
   192
  0
VERTEX
  5
6D56
  8
0
 10
-97.0
 20
160.0
 30
-23.5
 70
   192
  0
VERTEX
  5
6D57
  8
0
 10
0.0
 20
0.0
 30
0.0
 70
   128
 71
     3
 72
     4
 73
    -1
  0
VERTEX
  5
6D58
  8
0
 10
0.0
 20
0.0
 30
0.0
 70
   128
 71
     2
 72
    -3
 73
     1
  0
SEQEND
  5
6F37
  8
0
  0
POLYLINE
  5
6D59
  8
0
 66
     1
 10
0.0
 20
0.0
 30
0.0
 70
    64
 71
     4
 72
     2
  0
VERTEX
  5
6D5A
  8
0
 10
-103.0
 20
160.0
 30
-20.5
 70
   192
  0
VERTEX
  5
6D5B
  8
0
 10
-103.0
 20
140.0000000000001
 30
-20.5
 70
   192
  0
VERTEX
  5
6D5C
  8
0
 10
-103.0
 20
140.0000000000001
 30
-23.5
 70
   192
  0
VERTEX
  5
6D5D
  8
0
 10
-103.0
 20
160.0
 30
-23.5
 70
   192
  0
VERTEX
  5
6D5E
  8
0
 10
0.0
 20
0.0
 30
0.0
 70
   128
 71
     3
 72
     4
 73
    -1
  0
VERTEX
  5
6D5F
  8
0
 10
0.0
 20
0.0
 30
0.0
 70
   128
 71
     2
 72
    -3
 73
     1
  0
SEQEND
  5
6F38
  8
0
  0
POLYLINE
  5
6D60
  8
0
 66
     1
 10
0.0
 20
0.0
 30
0.0
 70
    64
 71
     6
 72
     4
  0
VERTEX
  5
6D61
  8
0
 10
-63.0
 20
140.0000000000001
 30
-13.5
 70
   192
  0
VERTEX
  5
6D62
  8
0
 10
-63.0
 20
140.0000000000001
 30
-20.5
 70
   192
  0
VERTEX
  5
6D63
  8
0
 10
-97.0
 20
140.0000000000001
 30
-20.5
 70
   192
  0
VERTEX
  5
6D64
  8
0
 10
-97.0
 20
140.0000000000001
 30
-23.5
 70
   192
  0
VERTEX
  5
6D65
  8
0
 10
-60.0
 20
140.0000000000001
 30
-23.5
 70
   192
  0
VERTEX
  5
6D66
  8
0
 10
-60.0
 20
140.0000000000001
 30
-13.5
 70
   192
  0
VERTEX
  5
6D67
  8
0
 10
0.0
 20
0.0
 30
0.0
 70
   128
 71
     6
 72
     1
 73
    -2
  0
VERTEX
  5
6D68
  8
0
 10
0.0
 20
0.0
 30
0.0
 70
   128
 71
     5
 72
    -6
 73
    -2
  0
VERTEX
  5
6D69
  8
0
 10
0.0
 20
0.0
 30
0.0
 70
   128
 71
     3
 72
     4
 73
    -5
  0
VERTEX
  5
6D6A
  8
0
 10
0.0
 20
0.0
 30
0.0
 70
   128
 71
     2
 72
    -3
 73
    -5
  0
SEQEND
  5
6F39
  8
0
  0
POLYLINE
  5
6D6B
  8
0
 66
     1
 10
0.0
 20
0.0
 30
0.0
 70
    64
 71
     4
 72
     2
  0
VERTEX
  5
6D6C
  8
0
 10
-97.0
 20
140.0000000000001
 30
-20.5
 70
   192
  0
VERTEX
  5
6D6D
  8
0
 10
-97.0
 20
160.0
 30
-20.5
 70
   192
  0
VERTEX
  5
6D6E
  8
0
 10
-97.0
 20
160.0
 30
-23.5
 70
   192
  0
VERTEX
  5
6D6F
  8
0
 10
-97.0
 20
140.0000000000001
 30
-23.5
 70
   192
  0
VERTEX
  5
6D70
  8
0
 10
0.0
 20
0.0
 30
0.0
 70
   128
 71
     3
 72
     4
 73
    -1
  0
VERTEX
  5
6D71
  8
0
 10
0.0
 20
0.0
 30
0.0
 70
   128
 71
     2
 72
    -3
 73
     1
  0
SEQEND
  5
6F3A
  8
0
  0
POLYLINE
  5
6D72
  8
0
 66
     1
 10
0.0
 20
0.0
 30
0.0
 70
    64
 71
     8
 72
     6
  0
VERTEX
  5
6D73
  8
0
 10
-97.0
 20
160.0
 30
-23.5
 70
   192
  0
VERTEX
  5
6D74
  8
0
 10
-103.0
 20
160.0
 30
-23.5
 70
   192
  0
VERTEX
  5
6D75
  8
0
 10
-103.0
 20
140.0000000000001
 30
-23.5
 70
   192
  0
VERTEX
  5
6D76
  8
0
 10
-140.0
 20
140.0000000000001
 30
-23.5
 70
   192
  0
VERTEX
  5
6D77
  8
0
 10
-140.0
 20
165.0000000000001
 30
-23.5
 70
   192
  0
VERTEX
  5
6D78
  8
0
 10
-60.0
 20
165.0000000000001
 30
-23.5
 70
   192
  0
VERTEX
  5
6D79
  8
0
 10
-60.0
 20
140.0000000000001
 30
-23.5
 70
   192
  0
VERTEX
  5
6D7A
  8
0
 10
-97.0
 20
140.0000000000001
 30
-23.5
 70
   192
  0
VERTEX
  5
6D7B
  8
0
 10
0.0
 20
0.0
 30
0.0
 70
   128
 71
     7
 72
     8
 73
    -1
  0
VERTEX
  5
6D7C
  8
0
 10
0.0
 20
0.0
 30
0.0
 70
   128
 71
     6
 72
    -7
 73
    -1
  0
VERTEX
  5
6D7D
  8
0
 10
0.0
 20
0.0
 30
0.0
 70
   128
 71
    -6
 72
     1
 73
    -2
  0
VERTEX
  5
6D7E
  8
0
 10
0.0
 20
0.0
 30
0.0
 70
   128
 71
     5
 72
    -6
 73
    -2
  0
VERTEX
  5
6D7F
  8
0
 10
0.0
 20
0.0
 30
0.0
 70
   128
 71
     3
 72
     4
 73
    -5
  0
VERTEX
  5
6D80
  8
0
 10
0.0
 20
0.0
 30
0.0
 70
   128
 71
     2
 72
    -3
 73
    -5
  0
SEQEND
  5
6F3B
  8
0
  0
POLYLINE
  5
6D81
  8
0
 66
     1
 10
0.0
 20
0.0
 30
0.0
 70
    64
 71
     4
 72
     2
  0
VERTEX
  5
6D82
  8
0
 10
-137.0
 20
140.0000000000001
 30
-13.5
 70
   192
  0
VERTEX
  5
6D83
  8
0
 10
-137.0
 20
162.0000000000001
 30
-13.5
 70
   192
  0
VERTEX
  5
6D84
  8
0
 10
-137.0
 20
162.0000000000001
 30
-20.5
 70
   192
  0
VERTEX
  5
6D85
  8
0
 10
-137.0
 20
140.0000000000001
 30
-20.5
 70
   192
  0
VERTEX
  5
6D86
  8
0
 10
0.0
 20
0.0
 30
0.0
 70
   128
 71
     1
 72
     4
 73
    -3
  0
VERTEX
  5
6D87
  8
0
 10
0.0
 20
0.0
 30
0.0
 70
   128
 71
    -1
 72
     3
 73
     2
  0
SEQEND
  5
6F3C
  8
0
  0
POLYLINE
  5
6D88
  8
0
 66
     1
 10
0.0
 20
0.0
 30
0.0
 70
    64
 71
     4
 72
     2
  0
VERTEX
  5
6D89
  8
0
 10
-63.0
 20
162.0000000000001
 30
-13.5
 70
   192
  0
VERTEX
  5
6D8A
  8
0
 10
-137.0
 20
162.0000000000001
 30
-13.5
 70
   192
  0
VERTEX
  5
6D8B
  8
0
 10
-137.0
 20
162.0000000000001
 30
-20.5
 70
   192
  0
VERTEX
  5
6D8C
  8
0
 10
-63.0
 20
162.0000000000001
 30
-20.5
 70
   192
  0
VERTEX
  5
6D8D
  8
0
 10
0.0
 20
0.0
 30
0.0
 70
   128
 71
     3
 72
     4
 73
    -1
  0
VERTEX
  5
6D8E
  8
0
 10
0.0
 20
0.0
 30
0.0
 70
   128
 71
     2
 72
    -3
 73
     1
  0
SEQEND
  5
6F3D
  8
0
  0
POLYLINE
  5
6D8F
  8
0
 66
     1
 10
0.0
 20
0.0
 30
0.0
 70
    64
 71
     4
 72
     2
  0
VERTEX
  5
6D90
  8
0
 10
-63.0
 20
140.0000000000001
 30
-13.5
 70
   192
  0
VERTEX
  5
6D91
  8
0
 10
-63.0
 20
162.0000000000001
 30
-13.5
 70
   192
  0
VERTEX
  5
6D92
  8
0
 10
-63.0
 20
162.0000000000001
 30
-20.5
 70
   192
  0
VERTEX
  5
6D93
  8
0
 10
-63.0
 20
140.0000000000001
 30
-20.5
 70
   192
  0
VERTEX
  5
6D94
  8
0
 10
0.0
 20
0.0
 30
0.0
 70
   128
 71
     3
 72
     4
 73
    -1
  0
VERTEX
  5
6D95
  8
0
 10
0.0
 20
0.0
 30
0.0
 70
   128
 71
     2
 72
    -3
 73
     1
  0
SEQEND
  5
6F3E
  8
0
  0
POLYLINE
  5
6D96
  8
0
 66
     1
 10
0.0
 20
0.0
 30
0.0
 70
    64
 71
     8
 72
     6
  0
VERTEX
  5
6D97
  8
0
 10
-103.0
 20
160.0
 30
-20.5
 70
   192
  0
VERTEX
  5
6D98
  8
0
 10
-103.0
 20
140.0000000000001
 30
-20.5
 70
   192
  0
VERTEX
  5
6D99
  8
0
 10
-137.0
 20
140.0000000000001
 30
-20.5
 70
   192
  0
VERTEX
  5
6D9A
  8
0
 10
-137.0
 20
162.0000000000001
 30
-20.5
 70
   192
  0
VERTEX
  5
6D9B
  8
0
 10
-63.0
 20
162.0000000000001
 30
-20.5
 70
   192
  0
VERTEX
  5
6D9C
  8
0
 10
-63.0
 20
140.0000000000001
 30
-20.5
 70
   192
  0
VERTEX
  5
6D9D
  8
0
 10
-97.0
 20
140.0000000000001
 30
-20.5
 70
   192
  0
VERTEX
  5
6D9E
  8
0
 10
-97.0
 20
160.0
 30
-20.5
 70
   192
  0
VERTEX
  5
6D9F
  8
0
 10
0.0
 20
0.0
 30
0.0
 70
   128
 71
     8
 72
     7
 73
    -6
  0
VERTEX
  5
6DA0
  8
0
 10
0.0
 20
0.0
 30
0.0
 70
   128
 71
    -8
 72
     6
 73
    -5
  0
VERTEX
  5
6DA1
  8
0
 10
0.0
 20
0.0
 30
0.0
 70
   128
 71
    -5
 72
     1
 73
    -8
  0
VERTEX
  5
6DA2
  8
0
 10
0.0
 20
0.0
 30
0.0
 70
   128
 71
     5
 72
    -4
 73
    -1
  0
VERTEX
  5
6DA3
  8
0
 10
0.0
 20
0.0
 30
0.0
 70
   128
 71
     4
 72
     3
 73
    -2
  0
VERTEX
  5
6DA4
  8
0
 10
0.0
 20
0.0
 30
0.0
 70
   128
 71
    -4
 72
     2
 73
    -1
  0
SEQEND
  5
6F3F
  8
0
  0
ENDBLK
  5
6F2F
  8
0
  0
BLOCK
  8
0
  2
*X3
 70
     1
 10
0.0
 20
0.0
 30
0.0
  3
*X3
  1

  0
POLYLINE
  5
6DA6
  8
0
 66
     1
 10
0.0
 20
0.0
 30
0.0
 70
    64
 71
     8
 72
     6
  0
VERTEX
  5
6DA7
  8
0
 10
60.00000000000002
 20
140.0000000000001
 30
-13.5
 70
   192
  0
VERTEX
  5
6DA8
  8
0
 10
60.00000000000002
 20
105.0000000000001
 30
-13.5
 70
   192
  0
VERTEX
  5
6DA9
  8
0
 10
140.0
 20
105.0000000000001
 30
-13.5
 70
   192
  0
VERTEX
  5
6DAA
  8
0
 10
140.0
 20
140.0000000000001
 30
-13.5
 70
   192
  0
VERTEX
  5
6DAB
  8
0
 10
137.0
 20
140.0000000000001
 30
-13.5
 70
   192
  0
VERTEX
  5
6DAC
  8
0
 10
137.0
 20
162.0000000000001
 30
-13.5
 70
   192
  0
VERTEX
  5
6DAD
  8
0
 10
63.00000000000001
 20
162.0000000000001
 30
-13.5
 70
   192
  0
VERTEX
  5
6DAE
  8
0
 10
63.00000000000002
 20
140.0000000000001
 30
-13.5
 70
   192
  0
VERTEX
  5
6DAF
  8
0
 10
0.0
 20
0.0
 30
0.0
 70
   128
 71
     5
 72
     4
 73
    -3
  0
VERTEX
  5
6DB0
  8
0
 10
0.0
 20
0.0
 30
0.0
 70
   128
 71
    -5
 72
    -3
 73
    -8
  0
VERTEX
  5
6DB1
  8
0
 10
0.0
 20
0.0
 30
0.0
 70
   128
 71
     8
 72
     7
 73
    -6
  0
VERTEX
  5
6DB2
  8
0
 10
0.0
 20
0.0
 30
0.0
 70
   128
 71
    -8
 72
     6
 73
    -5
  0
VERTEX
  5
6DB3
  8
0
 10
0.0
 20
0.0
 30
0.0
 70
   128
 71
     3
 72
    -2
 73
    -8
  0
VERTEX
  5
6DB4
  8
0
 10
0.0
 20
0.0
 30
0.0
 70
   128
 71
     2
 72
     1
 73
    -8
  0
SEQEND
  5
6F42
  8
0
  0
POLYLINE
  5
6DB5
  8
0
 66
     1
 10
0.0
 20
0.0
 30
0.0
 70
    64
 71
     6
 72
     4
  0
VERTEX
  5
6DB6
  8
0
 10
60.00000000000002
 20
105.0000000000001
 30
-10.5
 70
   192
  0
VERTEX
  5
6DB7
  8
0
 10
60.00000000000002
 20
165.0000000000001
 30
-10.5
 70
   192
  0
VERTEX
  5
6DB8
  8
0
 10
60.00000000000002
 20
165.0000000000001
 30
-23.5
 70
   192
  0
VERTEX
  5
6DB9
  8
0
 10
60.00000000000002
 20
140.0000000000001
 30
-23.5
 70
   192
  0
VERTEX
  5
6DBA
  8
0
 10
60.00000000000002
 20
140.0000000000001
 30
-13.5
 70
   192
  0
VERTEX
  5
6DBB
  8
0
 10
60.00000000000002
 20
105.0000000000001
 30
-13.5
 70
   192
  0
VERTEX
  5
6DBC
  8
0
 10
0.0
 20
0.0
 30
0.0
 70
   128
 71
     3
 72
     4
 73
    -5
  0
VERTEX
  5
6DBD
  8
0
 10
0.0
 20
0.0
 30
0.0
 70
   128
 71
     2
 72
    -3
 73
    -5
  0
VERTEX
  5
6DBE
  8
0
 10
0.0
 20
0.0
 30
0.0
 70
   128
 71
     6
 72
     1
 73
    -2
  0
VERTEX
  5
6DBF
  8
0
 10
0.0
 20
0.0
 30
0.0
 70
   128
 71
     5
 72
    -6
 73
    -2
  0
SEQEND
  5
6F43
  8
0
  0
POLYLINE
  5
6DC0
  8
0
 66
     1
 10
0.0
 20
0.0
 30
0.0
 70
    64
 71
     4
 72
     2
  0
VERTEX
  5
6DC1
  8
0
 10
60.00000000000002
 20
165.0000000000001
 30
-10.5
 70
   192
  0
VERTEX
  5
6DC2
  8
0
 10
60.00000000000002
 20
165.0000000000001
 30
-23.5
 70
   192
  0
VERTEX
  5
6DC3
  8
0
 10
140.0
 20
165.0000000000001
 30
-23.5
 70
   192
  0
VERTEX
  5
6DC4
  8
0
 10
140.0
 20
165.0000000000001
 30
-10.5
 70
   192
  0
VERTEX
  5
6DC5
  8
0
 10
0.0
 20
0.0
 30
0.0
 70
   128
 71
     1
 72
     4
 73
    -3
  0
VERTEX
  5
6DC6
  8
0
 10
0.0
 20
0.0
 30
0.0
 70
   128
 71
    -1
 72
     3
 73
     2
  0
SEQEND
  5
6F44
  8
0
  0
POLYLINE
  5
6DC7
  8
0
 66
     1
 10
0.0
 20
0.0
 30
0.0
 70
    64
 71
     6
 72
     4
  0
VERTEX
  5
6DC8
  8
0
 10
140.0
 20
165.0000000000001
 30
-10.5
 70
   192
  0
VERTEX
  5
6DC9
  8
0
 10
140.0
 20
165.0000000000001
 30
-23.5
 70
   192
  0
VERTEX
  5
6DCA
  8
0
 10
140.0
 20
140.0000000000001
 30
-23.5
 70
   192
  0
VERTEX
  5
6DCB
  8
0
 10
140.0
 20
140.0000000000001
 30
-13.5
 70
   192
  0
VERTEX
  5
6DCC
  8
0
 10
140.0
 20
105.0000000000001
 30
-13.5
 70
   192
  0
VERTEX
  5
6DCD
  8
0
 10
140.0
 20
105.0000000000001
 30
-10.5
 70
   192
  0
VERTEX
  5
6DCE
  8
0
 10
0.0
 20
0.0
 30
0.0
 70
   128
 71
     4
 72
     3
 73
    -2
  0
VERTEX
  5
6DCF
  8
0
 10
0.0
 20
0.0
 30
0.0
 70
   128
 71
    -4
 72
     2
 73
    -1
  0
VERTEX
  5
6DD0
  8
0
 10
0.0
 20
0.0
 30
0.0
 70
   128
 71
     1
 72
     6
 73
    -5
  0
VERTEX
  5
6DD1
  8
0
 10
0.0
 20
0.0
 30
0.0
 70
   128
 71
    -1
 72
     5
 73
    -4
  0
SEQEND
  5
6F45
  8
0
  0
POLYLINE
  5
6DD2
  8
0
 66
     1
 10
0.0
 20
0.0
 30
0.0
 70
    64
 71
     4
 72
     2
  0
VERTEX
  5
6DD3
  8
0
 10
140.0
 20
105.0000000000001
 30
-10.5
 70
   192
  0
VERTEX
  5
6DD4
  8
0
 10
60.00000000000002
 20
105.0000000000001
 30
-10.5
 70
   192
  0
VERTEX
  5
6DD5
  8
0
 10
60.00000000000002
 20
105.0000000000001
 30
-13.5
 70
   192
  0
VERTEX
  5
6DD6
  8
0
 10
140.0
 20
105.0000000000001
 30
-13.5
 70
   192
  0
VERTEX
  5
6DD7
  8
0
 10
0.0
 20
0.0
 30
0.0
 70
   128
 71
     3
 72
     4
 73
    -1
  0
VERTEX
  5
6DD8
  8
0
 10
0.0
 20
0.0
 30
0.0
 70
   128
 71
     2
 72
    -3
 73
     1
  0
SEQEND
  5
6F46
  8
0
  0
POLYLINE
  5
6DD9
  8
0
 66
     1
 10
0.0
 20
0.0
 30
0.0
 70
    64
 71
     4
 72
     2
  0
VERTEX
  5
6DDA
  8
0
 10
60.00000000000002
 20
165.0000000000001
 30
-10.5
 70
   192
  0
VERTEX
  5
6DDB
  8
0
 10
60.00000000000002
 20
105.0000000000001
 30
-10.5
 70
   192
  0
VERTEX
  5
6DDC
  8
0
 10
140.0
 20
105.0000000000001
 30
-10.5
 70
   192
  0
VERTEX
  5
6DDD
  8
0
 10
140.0
 20
165.0000000000001
 30
-10.5
 70
   192
  0
VERTEX
  5
6DDE
  8
0
 10
0.0
 20
0.0
 30
0.0
 70
   128
 71
     3
 72
     4
 73
    -1
  0
VERTEX
  5
6DDF
  8
0
 10
0.0
 20
0.0
 30
0.0
 70
   128
 71
     2
 72
    -3
 73
     1
  0
SEQEND
  5
6F47
  8
0
  0
POLYLINE
  5
6DE0
  8
0
 66
     1
 10
0.0
 20
0.0
 30
0.0
 70
    64
 71
     4
 72
     2
  0
VERTEX
  5
6DE1
  8
0
 10
97.0
 20
160.0000000000001
 30
-23.5
 70
   192
  0
VERTEX
  5
6DE2
  8
0
 10
97.0
 20
140.0000000000001
 30
-23.5
 70
   192
  0
VERTEX
  5
6DE3
  8
0
 10
97.0
 20
140.0000000000001
 30
-20.5
 70
   192
  0
VERTEX
  5
6DE4
  8
0
 10
97.0
 20
160.0000000000001
 30
-20.5
 70
   192
  0
VERTEX
  5
6DE5
  8
0
 10
0.0
 20
0.0
 30
0.0
 70
   128
 71
     1
 72
     4
 73
    -3
  0
VERTEX
  5
6DE6
  8
0
 10
0.0
 20
0.0
 30
0.0
 70
   128
 71
    -1
 72
     3
 73
     2
  0
SEQEND
  5
6F48
  8
0
  0
POLYLINE
  5
6DE7
  8
0
 66
     1
 10
0.0
 20
0.0
 30
0.0
 70
    64
 71
     6
 72
     4
  0
VERTEX
  5
6DE8
  8
0
 10
97.0
 20
140.0000000000001
 30
-20.5
 70
   192
  0
VERTEX
  5
6DE9
  8
0
 10
97.0
 20
140.0000000000001
 30
-23.5
 70
   192
  0
VERTEX
  5
6DEA
  8
0
 10
60.00000000000002
 20
140.0000000000001
 30
-23.5
 70
   192
  0
VERTEX
  5
6DEB
  8
0
 10
60.00000000000002
 20
140.0000000000001
 30
-13.5
 70
   192
  0
VERTEX
  5
6DEC
  8
0
 10
63.00000000000001
 20
140.0000000000001
 30
-13.5
 70
   192
  0
VERTEX
  5
6DED
  8
0
 10
63.00000000000002
 20
140.0000000000001
 30
-20.5
 70
   192
  0
VERTEX
  5
6DEE
  8
0
 10
0.0
 20
0.0
 30
0.0
 70
   128
 71
     6
 72
     5
 73
    -4
  0
VERTEX
  5
6DEF
  8
0
 10
0.0
 20
0.0
 30
0.0
 70
   128
 71
    -6
 72
     4
 73
    -3
  0
VERTEX
  5
6DF0
  8
0
 10
0.0
 20
0.0
 30
0.0
 70
   128
 71
     3
 72
     2
 73
    -1
  0
VERTEX
  5
6DF1
  8
0
 10
0.0
 20
0.0
 30
0.0
 70
   128
 71
    -3
 72
     1
 73
    -6
  0
SEQEND
  5
6F49
  8
0
  0
POLYLINE
  5
6DF2
  8
0
 66
     1
 10
0.0
 20
0.0
 30
0.0
 70
    64
 71
     6
 72
     4
  0
VERTEX
  5
6DF3
  8
0
 10
137.0
 20
140.0000000000001
 30
-13.5
 70
   192
  0
VERTEX
  5
6DF4
  8
0
 10
140.0
 20
140.0000000000001
 30
-13.5
 70
   192
  0
VERTEX
  5
6DF5
  8
0
 10
140.0
 20
140.0000000000001
 30
-23.5
 70
   192
  0
VERTEX
  5
6DF6
  8
0
 10
103.0
 20
140.0000000000001
 30
-23.5
 70
   192
  0
VERTEX
  5
6DF7
  8
0
 10
103.0
 20
140.0000000000001
 30
-20.5
 70
   192
  0
VERTEX
  5
6DF8
  8
0
 10
137.0
 20
140.0000000000001
 30
-20.5
 70
   192
  0
VERTEX
  5
6DF9
  8
0
 10
0.0
 20
0.0
 30
0.0
 70
   128
 71
     6
 72
     5
 73
    -4
  0
VERTEX
  5
6DFA
  8
0
 10
0.0
 20
0.0
 30
0.0
 70
   128
 71
    -6
 72
     4
 73
    -3
  0
VERTEX
  5
6DFB
  8
0
 10
0.0
 20
0.0
 30
0.0
 70
   128
 71
     3
 72
     2
 73
    -1
  0
VERTEX
  5
6DFC
  8
0
 10
0.0
 20
0.0
 30
0.0
 70
   128
 71
    -3
 72
     1
 73
    -6
  0
SEQEND
  5
6F4A
  8
0
  0
POLYLINE
  5
6DFD
  8
0
 66
     1
 10
0.0
 20
0.0
 30
0.0
 70
    64
 71
     4
 72
     2
  0
VERTEX
  5
6DFE
  8
0
 10
103.0
 20
140.0000000000001
 30
-23.5
 70
   192
  0
VERTEX
  5
6DFF
  8
0
 10
103.0
 20
160.0000000000001
 30
-23.5
 70
   192
  0
VERTEX
  5
6E00
  8
0
 10
103.0
 20
160.0000000000001
 30
-20.5
 70
   192
  0
VERTEX
  5
6E01
  8
0
 10
103.0
 20
140.0000000000001
 30
-20.5
 70
   192
  0
VERTEX
  5
6E02
  8
0
 10
0.0
 20
0.0
 30
0.0
 70
   128
 71
     1
 72
     4
 73
    -3
  0
VERTEX
  5
6E03
  8
0
 10
0.0
 20
0.0
 30
0.0
 70
   128
 71
    -1
 72
     3
 73
     2
  0
SEQEND
  5
6F4B
  8
0
  0
POLYLINE
  5
6E04
  8
0
 66
     1
 10
0.0
 20
0.0
 30
0.0
 70
    64
 71
     4
 72
     2
  0
VERTEX
  5
6E05
  8
0
 10
103.0
 20
160.0000000000001
 30
-23.5
 70
   192
  0
VERTEX
  5
6E06
  8
0
 10
97.0
 20
160.0000000000001
 30
-23.5
 70
   192
  0
VERTEX
  5
6E07
  8
0
 10
97.0
 20
160.0000000000001
 30
-20.5
 70
   192
  0
VERTEX
  5
6E08
  8
0
 10
103.0
 20
160.0000000000001
 30
-20.5
 70
   192
  0
VERTEX
  5
6E09
  8
0
 10
0.0
 20
0.0
 30
0.0
 70
   128
 71
     1
 72
     4
 73
    -3
  0
VERTEX
  5
6E0A
  8
0
 10
0.0
 20
0.0
 30
0.0
 70
   128
 71
    -1
 72
     3
 73
     2
  0
SEQEND
  5
6F4C
  8
0
  0
POLYLINE
  5
6E0B
  8
0
 66
     1
 10
0.0
 20
0.0
 30
0.0
 70
    64
 71
     8
 72
     6
  0
VERTEX
  5
6E0C
  8
0
 10
97.0
 20
160.0000000000001
 30
-23.5
 70
   192
  0
VERTEX
  5
6E0D
  8
0
 10
97.0
 20
140.0000000000001
 30
-23.5
 70
   192
  0
VERTEX
  5
6E0E
  8
0
 10
60.00000000000002
 20
140.0000000000001
 30
-23.5
 70
   192
  0
VERTEX
  5
6E0F
  8
0
 10
60.00000000000002
 20
165.0000000000001
 30
-23.5
 70
   192
  0
VERTEX
  5
6E10
  8
0
 10
140.0
 20
165.0000000000001
 30
-23.5
 70
   192
  0
VERTEX
  5
6E11
  8
0
 10
140.0
 20
140.0000000000001
 30
-23.5
 70
   192
  0
VERTEX
  5
6E12
  8
0
 10
103.0
 20
140.0000000000001
 30
-23.5
 70
   192
  0
VERTEX
  5
6E13
  8
0
 10
103.0
 20
160.0000000000001
 30
-23.5
 70
   192
  0
VERTEX
  5
6E14
  8
0
 10
0.0
 20
0.0
 30
0.0
 70
   128
 71
     6
 72
     7
 73
    -8
  0
VERTEX
  5
6E15
  8
0
 10
0.0
 20
0.0
 30
0.0
 70
   128
 71
     5
 72
    -6
 73
    -8
  0
VERTEX
  5
6E16
  8
0
 10
0.0
 20
0.0
 30
0.0
 70
   128
 71
    -1
 72
     4
 73
    -5
  0
VERTEX
  5
6E17
  8
0
 10
0.0
 20
0.0
 30
0.0
 70
   128
 71
     8
 72
    -1
 73
    -5
  0
VERTEX
  5
6E18
  8
0
 10
0.0
 20
0.0
 30
0.0
 70
   128
 71
     2
 72
     3
 73
    -4
  0
VERTEX
  5
6E19
  8
0
 10
0.0
 20
0.0
 30
0.0
 70
   128
 71
     1
 72
    -2
 73
    -4
  0
SEQEND
  5
6F4D
  8
0
  0
POLYLINE
  5
6E1A
  8
0
 66
     1
 10
0.0
 20
0.0
 30
0.0
 70
    64
 71
     4
 72
     2
  0
VERTEX
  5
6E1B
  8
0
 10
63.00000000000001
 20
140.0000000000001
 30
-13.5
 70
   192
  0
VERTEX
  5
6E1C
  8
0
 10
63.00000000000001
 20
162.0000000000001
 30
-13.5
 70
   192
  0
VERTEX
  5
6E1D
  8
0
 10
63.00000000000001
 20
162.0000000000001
 30
-20.5
 70
   192
  0
VERTEX
  5
6E1E
  8
0
 10
63.00000000000001
 20
140.0000000000001
 30
-20.5
 70
   192
  0
VERTEX
  5
6E1F
  8
0
 10
0.0
 20
0.0
 30
0.0
 70
   128
 71
     1
 72
     4
 73
    -3
  0
VERTEX
  5
6E20
  8
0
 10
0.0
 20
0.0
 30
0.0
 70
   128
 71
    -1
 72
     3
 73
     2
  0
SEQEND
  5
6F4E
  8
0
  0
POLYLINE
  5
6E21
  8
0
 66
     1
 10
0.0
 20
0.0
 30
0.0
 70
    64
 71
     4
 72
     2
  0
VERTEX
  5
6E22
  8
0
 10
137.0
 20
162.0000000000001
 30
-13.5
 70
   192
  0
VERTEX
  5
6E23
  8
0
 10
63.00000000000001
 20
162.0000000000001
 30
-13.5
 70
   192
  0
VERTEX
  5
6E24
  8
0
 10
63.00000000000001
 20
162.0000000000001
 30
-20.5
 70
   192
  0
VERTEX
  5
6E25
  8
0
 10
137.0
 20
162.0000000000001
 30
-20.5
 70
   192
  0
VERTEX
  5
6E26
  8
0
 10
0.0
 20
0.0
 30
0.0
 70
   128
 71
     3
 72
     4
 73
    -1
  0
VERTEX
  5
6E27
  8
0
 10
0.0
 20
0.0
 30
0.0
 70
   128
 71
     2
 72
    -3
 73
     1
  0
SEQEND
  5
6F4F
  8
0
  0
POLYLINE
  5
6E28
  8
0
 66
     1
 10
0.0
 20
0.0
 30
0.0
 70
    64
 71
     4
 72
     2
  0
VERTEX
  5
6E29
  8
0
 10
137.0
 20
140.0000000000001
 30
-13.5
 70
   192
  0
VERTEX
  5
6E2A
  8
0
 10
137.0
 20
162.0000000000001
 30
-13.5
 70
   192
  0
VERTEX
  5
6E2B
  8
0
 10
137.0
 20
162.0000000000001
 30
-20.5
 70
   192
  0
VERTEX
  5
6E2C
  8
0
 10
137.0
 20
140.0000000000001
 30
-20.5
 70
   192
  0
VERTEX
  5
6E2D
  8
0
 10
0.0
 20
0.0
 30
0.0
 70
   128
 71
     3
 72
     4
 73
    -1
  0
VERTEX
  5
6E2E
  8
0
 10
0.0
 20
0.0
 30
0.0
 70
   128
 71
     2
 72
    -3
 73
     1
  0
SEQEND
  5
6F50
  8
0
  0
POLYLINE
  5
6E2F
  8
0
 66
     1
 10
0.0
 20
0.0
 30
0.0
 70
    64
 71
     8
 72
     6
  0
VERTEX
  5
6E30
  8
0
 10
97.0
 20
140.0000000000001
 30
-20.5
 70
   192
  0
VERTEX
  5
6E31
  8
0
 10
63.00000000000001
 20
140.0000000000001
 30
-20.5
 70
   192
  0
VERTEX
  5
6E32
  8
0
 10
63.00000000000001
 20
162.0000000000001
 30
-20.5
 70
   192
  0
VERTEX
  5
6E33
  8
0
 10
137.0
 20
162.0000000000001
 30
-20.5
 70
   192
  0
VERTEX
  5
6E34
  8
0
 10
137.0
 20
140.0000000000001
 30
-20.5
 70
   192
  0
VERTEX
  5
6E35
  8
0
 10
103.0
 20
140.0000000000001
 30
-20.5
 70
   192
  0
VERTEX
  5
6E36
  8
0
 10
103.0
 20
160.0000000000001
 30
-20.5
 70
   192
  0
VERTEX
  5
6E37
  8
0
 10
97.0
 20
160.0000000000001
 30
-20.5
 70
   192
  0
VERTEX
  5
6E38
  8
0
 10
0.0
 20
0.0
 30
0.0
 70
   128
 71
     7
 72
     6
 73
    -5
  0
VERTEX
  5
6E39
  8
0
 10
0.0
 20
0.0
 30
0.0
 70
   128
 71
    -7
 72
     5
 73
    -4
  0
VERTEX
  5
6E3A
  8
0
 10
0.0
 20
0.0
 30
0.0
 70
   128
 71
    -4
 72
     8
 73
    -7
  0
VERTEX
  5
6E3B
  8
0
 10
0.0
 20
0.0
 30
0.0
 70
   128
 71
     4
 72
    -3
 73
    -8
  0
VERTEX
  5
6E3C
  8
0
 10
0.0
 20
0.0
 30
0.0
 70
   128
 71
     3
 72
     2
 73
    -1
  0
VERTEX
  5
6E3D
  8
0
 10
0.0
 20
0.0
 30
0.0
 70
   128
 71
    -3
 72
     1
 73
    -8
  0
SEQEND
  5
6F51
  8
0
  0
ENDBLK
  5
6F41
  8
0
  0
BLOCK
  8
0
  2
*X4
 70
     1
 10
0.0
 20
0.0
 30
0.0
  3
*X4
  1

  0
POLYLINE
  5
6E3F
  8
0
 66
     1
 10
0.0
 20
0.0
 30
0.0
 70
    64
 71
    10
 72
     8
  0
VERTEX
  5
6E40
  8
0
 10
109.9999999999999
 20
-190.0
 30
-12.00000000000001
 70
   192
  0
VERTEX
  5
6E41
  8
0
 10
109.9999999999999
 20
-190.0
 30
-18.99999999999999
 70
   192
  0
VERTEX
  5
6E42
  8
0
 10
109.9999999999999
 20
-185.0
 30
-18.99999999999999
 70
   192
  0
VERTEX
  5
6E43
  8
0
 10
109.9999999999999
 20
-185.0
 30
-12.00000000000001
 70
   192
  0
VERTEX
  5
6E44
  8
0
 10
113.4999999999999
 20
-185.0
 30
-15.5
 70
   192
  0
VERTEX
  5
6E45
  8
0
 10
113.4999999999999
 20
-190.0
 30
-15.5
 70
   192
  0
VERTEX
  5
6E46
  8
0
 10
112.4748737341528
 20
-185.0
 30
-13.02512626584709
 70
   192
  0
VERTEX
  5
6E47
  8
0
 10
112.4748737341528
 20
-190.0
 30
-13.02512626584709
 70
   192
  0
VERTEX
  5
6E48
  8
0
 10
112.4748737341528
 20
-185.0
 30
-17.97487373415291
 70
   192
  0
VERTEX
  5
6E49
  8
0
 10
112.4748737341528
 20
-190.0
 30
-17.97487373415291
 70
   192
  0
VERTEX
  5
6E4A
  8
0
 10
0.0
 20
0.0
 30
0.0
 70
   128
 71
     7
 72
     4
 73
    -1
  0
VERTEX
  5
6E4B
  8
0
 10
0.0
 20
0.0
 30
0.0
 70
   128
 71
    -7
 72
     1
 73
     8
  0
VERTEX
  5
6E4C
  8
0
 10
0.0
 20
0.0
 30
0.0
 70
   128
 71
     6
 72
     5
 73
    -7
  0
VERTEX
  5
6E4D
  8
0
 10
0.0
 20
0.0
 30
0.0
 70
   128
 71
    -6
 72
     7
 73
     8
  0
VERTEX
  5
6E4E
  8
0
 10
0.0
 20
0.0
 30
0.0
 70
   128
 71
    10
 72
     9
 73
    -5
  0
VERTEX
  5
6E4F
  8
0
 10
0.0
 20
0.0
 30
0.0
 70
   128
 71
   -10
 72
     5
 73
     6
  0
VERTEX
  5
6E50
  8
0
 10
0.0
 20
0.0
 30
0.0
 70
   128
 71
     2
 72
     3
 73
    -9
  0
VERTEX
  5
6E51
  8
0
 10
0.0
 20
0.0
 30
0.0
 70
   128
 71
    -2
 72
     9
 73
    10
  0
SEQEND
  5
6F54
  8
0
  0
POLYLINE
  5
6E52
  8
0
 66
     1
 10
0.0
 20
0.0
 30
0.0
 70
    64
 71
     8
 72
     6
  0
VERTEX
  5
6E53
  8
0
 10
155.0
 20
-183.6602540378444
 30
-10.5
 70
   192
  0
VERTEX
  5
6E54
  8
0
 10
155.0
 20
-183.6602540378444
 30
-20.5
 70
   192
  0
VERTEX
  5
6E55
  8
0
 10
158.6602540378444
 20
-179.9999999999999
 30
-20.5
 70
   192
  0
VERTEX
  5
6E56
  8
0
 10
158.6602540378444
 20
-179.9999999999999
 30
-10.5
 70
   192
  0
VERTEX
  5
6E57
  8
0
 10
149.9999999999999
 20
-185.0
 30
-10.5
 70
   192
  0
VERTEX
  5
6E58
  8
0
 10
149.9999999999999
 20
-185.0
 30
-20.5
 70
   192
  0
VERTEX
  5
6E59
  8
0
 10
160.0
 20
-174.9999999999999
 30
-20.5
 70
   192
  0
VERTEX
  5
6E5A
  8
0
 10
160.0
 20
-174.9999999999999
 30
-10.5
 70
   192
  0
VERTEX
  5
6E5B
  8
0
 10
0.0
 20
0.0
 30
0.0
 70
   128
 71
     1
 72
     2
 73
    -3
  0
VERTEX
  5
6E5C
  8
0
 10
0.0
 20
0.0
 30
0.0
 70
   128
 71
    -1
 72
     3
 73
     4
  0
VERTEX
  5
6E5D
  8
0
 10
0.0
 20
0.0
 30
0.0
 70
   128
 71
     5
 72
     6
 73
    -2
  0
VERTEX
  5
6E5E
  8
0
 10
0.0
 20
0.0
 30
0.0
 70
   128
 71
    -5
 72
     2
 73
     1
  0
VERTEX
  5
6E5F
  8
0
 10
0.0
 20
0.0
 30
0.0
 70
   128
 71
     4
 72
     3
 73
    -7
  0
VERTEX
  5
6E60
  8
0
 10
0.0
 20
0.0
 30
0.0
 70
   128
 71
    -4
 72
     7
 73
     8
  0
SEQEND
  5
6F55
  8
0
  0
POLYLINE
  5
6E61
  8
0
 66
     1
 10
0.0
 20
0.0
 30
0.0
 70
    64
 71
    12
 72
    12
  0
VERTEX
  5
6E62
  8
0
 10
149.9999999999999
 20
-185.0
 30
-10.5
 70
   192
  0
VERTEX
  5
6E63
  8
0
 10
149.9999999999999
 20
-185.0
 30
-20.5
 70
   192
  0
VERTEX
  5
6E64
  8
0
 10
-29.99999999999996
 20
-185.0
 30
-20.5
 70
   192
  0
VERTEX
  5
6E65
  8
0
 10
-29.99999999999997
 20
-185.0
 30
-10.5
 70
   192
  0
VERTEX
  5
6E66
  8
0
 10
109.9999999999999
 20
-185.0
 30
-18.99999999999999
 70
   192
  0
VERTEX
  5
6E67
  8
0
 10
112.4748737341528
 20
-185.0
 30
-17.97487373415291
 70
   192
  0
VERTEX
  5
6E68
  8
0
 10
113.4999999999999
 20
-185.0
 30
-15.5
 70
   192
  0
VERTEX
  5
6E69
  8
0
 10
112.4748737341528
 20
-185.0
 30
-13.02512626584709
 70
   192
  0
VERTEX
  5
6E6A
  8
0
 10
109.9999999999999
 20
-185.0
 30
-12.00000000000001
 70
   192
  0
VERTEX
  5
6E6B
  8
0
 10
107.525126265847
 20
-185.0
 30
-13.02512626584709
 70
   192
  0
VERTEX
  5
6E6C
  8
0
 10
106.4999999999999
 20
-185.0
 30
-15.5
 70
   192
  0
VERTEX
  5
6E6D
  8
0
 10
107.525126265847
 20
-185.0
 30
-17.97487373415291
 70
   192
  0
VERTEX
  5
6E6E
  8
0
 10
0.0
 20
0.0
 30
0.0
 70
   128
 71
     6
 72
    -5
 73
    -2
  0
VERTEX
  5
6E6F
  8
0
 10
0.0
 20
0.0
 30
0.0
 70
   128
 71
     2
 72
    -1
 73
    -7
  0
VERTEX
  5
6E70
  8
0
 10
0.0
 20
0.0
 30
0.0
 70
   128
 71
    -2
 72
     7
 73
    -6
  0
VERTEX
  5
6E71
  8
0
 10
0.0
 20
0.0
 30
0.0
 70
   128
 71
    -1
 72
     8
 73
    -7
  0
VERTEX
  5
6E72
  8
0
 10
0.0
 20
0.0
 30
0.0
 70
   128
 71
    -1
 72
     9
 73
    -8
  0
VERTEX
  5
6E73
  8
0
 10
0.0
 20
0.0
 30
0.0
 70
   128
 71
    -9
 72
     1
 73
    -4
  0
VERTEX
  5
6E74
  8
0
 10
0.0
 20
0.0
 30
0.0
 70
   128
 71
    -4
 72
    10
 73
    -9
  0
VERTEX
  5
6E75
  8
0
 10
0.0
 20
0.0
 30
0.0
 70
   128
 71
     4
 72
    -3
 73
   -11
  0
VERTEX
  5
6E76
  8
0
 10
0.0
 20
0.0
 30
0.0
 70
   128
 71
    -4
 72
    11
 73
   -10
  0
VERTEX
  5
6E77
  8
0
 10
0.0
 20
0.0
 30
0.0
 70
   128
 71
    -3
 72
    12
 73
   -11
  0
VERTEX
  5
6E78
  8
0
 10
0.0
 20
0.0
 30
0.0
 70
   128
 71
    -3
 72
     5
 73
   -12
  0
VERTEX
  5
6E79
  8
0
 10
0.0
 20
0.0
 30
0.0
 70
   128
 71
     3
 72
    -2
 73
    -5
  0
SEQEND
  5
6F56
  8
0
  0
POLYLINE
  5
6E7A
  8
0
 66
     1
 10
0.0
 20
0.0
 30
0.0
 70
    64
 71
     8
 72
     6
  0
VERTEX
  5
6E7B
  8
0
 10
-38.66025403784442
 20
-180.0
 30
-10.5
 70
   192
  0
VERTEX
  5
6E7C
  8
0
 10
-38.66025403784442
 20
-180.0
 30
-20.5
 70
   192
  0
VERTEX
  5
6E7D
  8
0
 10
-35.00000000000001
 20
-183.6602540378444
 30
-20.5
 70
   192
  0
VERTEX
  5
6E7E
  8
0
 10
-35.00000000000001
 20
-183.6602540378444
 30
-10.5
 70
   192
  0
VERTEX
  5
6E7F
  8
0
 10
-40.00000000000004
 20
-174.9999999999999
 30
-10.5
 70
   192
  0
VERTEX
  5
6E80
  8
0
 10
-40.00000000000004
 20
-174.9999999999999
 30
-20.5
 70
   192
  0
VERTEX
  5
6E81
  8
0
 10
-29.99999999999996
 20
-185.0
 30
-20.5
 70
   192
  0
VERTEX
  5
6E82
  8
0
 10
-29.99999999999996
 20
-185.0
 30
-10.5
 70
   192
  0
VERTEX
  5
6E83
  8
0
 10
0.0
 20
0.0
 30
0.0
 70
   128
 71
     1
 72
     2
 73
    -3
  0
VERTEX
  5
6E84
  8
0
 10
0.0
 20
0.0
 30
0.0
 70
   128
 71
    -1
 72
     3
 73
     4
  0
VERTEX
  5
6E85
  8
0
 10
0.0
 20
0.0
 30
0.0
 70
   128
 71
     5
 72
     6
 73
    -2
  0
VERTEX
  5
6E86
  8
0
 10
0.0
 20
0.0
 30
0.0
 70
   128
 71
    -5
 72
     2
 73
     1
  0
VERTEX
  5
6E87
  8
0
 10
0.0
 20
0.0
 30
0.0
 70
   128
 71
     4
 72
     3
 73
    -7
  0
VERTEX
  5
6E88
  8
0
 10
0.0
 20
0.0
 30
0.0
 70
   128
 71
    -4
 72
     7
 73
     8
  0
SEQEND
  5
6F57
  8
0
  0
POLYLINE
  5
6E89
  8
0
 66
     1
 10
0.0
 20
0.0
 30
0.0
 70
    64
 71
     4
 72
     2
  0
VERTEX
  5
6E8A
  8
0
 10
-40.00000000000004
 20
-174.9999999999999
 30
-10.5
 70
   192
  0
VERTEX
  5
6E8B
  8
0
 10
-40.00000000000004
 20
-174.9999999999999
 30
-20.5
 70
   192
  0
VERTEX
  5
6E8C
  8
0
 10
-40.00000000000001
 20
-15.00000000000007
 30
-20.5
 70
   192
  0
VERTEX
  5
6E8D
  8
0
 10
-40.00000000000001
 20
-15.00000000000007
 30
-10.5
 70
   192
  0
VERTEX
  5
6E8E
  8
0
 10
0.0
 20
0.0
 30
0.0
 70
   128
 71
     1
 72
     4
 73
    -3
  0
VERTEX
  5
6E8F
  8
0
 10
0.0
 20
0.0
 30
0.0
 70
   128
 71
    -1
 72
     3
 73
     2
  0
SEQEND
  5
6F58
  8
0
  0
POLYLINE
  5
6E90
  8
0
 66
     1
 10
0.0
 20
0.0
 30
0.0
 70
    64
 71
     8
 72
     6
  0
VERTEX
  5
6E91
  8
0
 10
-34.99999999999999
 20
-6.339745962155602
 30
-10.5
 70
   192
  0
VERTEX
  5
6E92
  8
0
 10
-34.99999999999999
 20
-6.339745962155602
 30
-20.5
 70
   192
  0
VERTEX
  5
6E93
  8
0
 10
-38.66025403784441
 20
-10.00000000000002
 30
-20.5
 70
   192
  0
VERTEX
  5
6E94
  8
0
 10
-38.66025403784441
 20
-10.00000000000002
 30
-10.5
 70
   192
  0
VERTEX
  5
6E95
  8
0
 10
-29.99999999999994
 20
-5.000000000000002
 30
-10.5
 70
   192
  0
VERTEX
  5
6E96
  8
0
 10
-29.99999999999994
 20
-5.000000000000001
 30
-20.5
 70
   192
  0
VERTEX
  5
6E97
  8
0
 10
-40.00000000000001
 20
-15.00000000000007
 30
-20.5
 70
   192
  0
VERTEX
  5
6E98
  8
0
 10
-40.00000000000001
 20
-15.00000000000007
 30
-10.5
 70
   192
  0
VERTEX
  5
6E99
  8
0
 10
0.0
 20
0.0
 30
0.0
 70
   128
 71
     1
 72
     2
 73
    -3
  0
VERTEX
  5
6E9A
  8
0
 10
0.0
 20
0.0
 30
0.0
 70
   128
 71
    -1
 72
     3
 73
     4
  0
VERTEX
  5
6E9B
  8
0
 10
0.0
 20
0.0
 30
0.0
 70
   128
 71
     5
 72
     6
 73
    -2
  0
VERTEX
  5
6E9C
  8
0
 10
0.0
 20
0.0
 30
0.0
 70
   128
 71
    -5
 72
     2
 73
     1
  0
VERTEX
  5
6E9D
  8
0
 10
0.0
 20
0.0
 30
0.0
 70
   128
 71
     4
 72
     3
 73
    -7
  0
VERTEX
  5
6E9E
  8
0
 10
0.0
 20
0.0
 30
0.0
 70
   128
 71
    -4
 72
     7
 73
     8
  0
SEQEND
  5
6F59
  8
0
  0
POLYLINE
  5
6E9F
  8
0
 66
     1
 10
0.0
 20
0.0
 30
0.0
 70
    64
 71
     4
 72
     2
  0
VERTEX
  5
6EA0
  8
0
 10
-29.99999999999994
 20
-5.000000000000001
 30
-10.5
 70
   192
  0
VERTEX
  5
6EA1
  8
0
 10
-29.99999999999994
 20
-5.000000000000001
 30
-20.5
 70
   192
  0
VERTEX
  5
6EA2
  8
0
 10
149.9999999999999
 20
-4.999999999999996
 30
-20.5
 70
   192
  0
VERTEX
  5
6EA3
  8
0
 10
149.9999999999999
 20
-5.000000000000001
 30
-10.5
 70
   192
  0
VERTEX
  5
6EA4
  8
0
 10
0.0
 20
0.0
 30
0.0
 70
   128
 71
     1
 72
     4
 73
    -3
  0
VERTEX
  5
6EA5
  8
0
 10
0.0
 20
0.0
 30
0.0
 70
   128
 71
    -1
 72
     3
 73
     2
  0
SEQEND
  5
6F5A
  8
0
  0
POLYLINE
  5
6EA6
  8
0
 66
     1
 10
0.0
 20
0.0
 30
0.0
 70
    64
 71
     8
 72
     6
  0
VERTEX
  5
6EA7
  8
0
 10
158.6602540378444
 20
-10.00000000000002
 30
-10.5
 70
   192
  0
VERTEX
  5
6EA8
  8
0
 10
158.6602540378444
 20
-10.00000000000002
 30
-20.5
 70
   192
  0
VERTEX
  5
6EA9
  8
0
 10
155.0
 20
-6.339745962155597
 30
-20.5
 70
   192
  0
VERTEX
  5
6EAA
  8
0
 10
155.0
 20
-6.339745962155597
 30
-10.5
 70
   192
  0
VERTEX
  5
6EAB
  8
0
 10
160.0
 20
-15.00000000000007
 30
-10.5
 70
   192
  0
VERTEX
  5
6EAC
  8
0
 10
160.0
 20
-15.00000000000007
 30
-20.5
 70
   192
  0
VERTEX
  5
6EAD
  8
0
 10
149.9999999999999
 20
-4.999999999999989
 30
-20.5
 70
   192
  0
VERTEX
  5
6EAE
  8
0
 10
149.9999999999999
 20
-4.999999999999996
 30
-10.5
 70
   192
  0
VERTEX
  5
6EAF
  8
0
 10
0.0
 20
0.0
 30
0.0
 70
   128
 71
     1
 72
     2
 73
    -3
  0
VERTEX
  5
6EB0
  8
0
 10
0.0
 20
0.0
 30
0.0
 70
   128
 71
    -1
 72
     3
 73
     4
  0
VERTEX
  5
6EB1
  8
0
 10
0.0
 20
0.0
 30
0.0
 70
   128
 71
     5
 72
     6
 73
    -2
  0
VERTEX
  5
6EB2
  8
0
 10
0.0
 20
0.0
 30
0.0
 70
   128
 71
    -5
 72
     2
 73
     1
  0
VERTEX
  5
6EB3
  8
0
 10
0.0
 20
0.0
 30
0.0
 70
   128
 71
     4
 72
     3
 73
    -7
  0
VERTEX
  5
6EB4
  8
0
 10
0.0
 20
0.0
 30
0.0
 70
   128
 71
    -4
 72
     7
 73
     8
  0
SEQEND
  5
6F5B
  8
0
  0
POLYLINE
  5
6EB5
  8
0
 66
     1
 10
0.0
 20
0.0
 30
0.0
 70
    64
 71
     4
 72
     2
  0
VERTEX
  5
6EB6
  8
0
 10
160.0
 20
-15.00000000000007
 30
-10.5
 70
   192
  0
VERTEX
  5
6EB7
  8
0
 10
160.0
 20
-15.00000000000007
 30
-20.5
 70
   192
  0
VERTEX
  5
6EB8
  8
0
 10
160.0
 20
-174.9999999999999
 30
-20.5
 70
   192
  0
VERTEX
  5
6EB9
  8
0
 10
160.0
 20
-174.9999999999999
 30
-10.5
 70
   192
  0
VERTEX
  5
6EBA
  8
0
 10
0.0
 20
0.0
 30
0.0
 70
   128
 71
     1
 72
     4
 73
    -3
  0
VERTEX
  5
6EBB
  8
0
 10
0.0
 20
0.0
 30
0.0
 70
   128
 71
    -1
 72
     3
 73
     2
  0
SEQEND
  5
6F5C
  8
0
  0
POLYLINE
  5
6EBC
  8
0
 66
     1
 10
0.0
 20
0.0
 30
0.0
 70
    64
 71
    16
 72
    14
  0
VERTEX
  5
6EBD
  8
0
 10
160.0
 20
-174.9999999999999
 30
-20.5
 70
   192
  0
VERTEX
  5
6EBE
  8
0
 10
158.6602540378444
 20
-179.9999999999999
 30
-20.5
 70
   192
  0
VERTEX
  5
6EBF
  8
0
 10
155.0
 20
-183.6602540378444
 30
-20.5
 70
   192
  0
VERTEX
  5
6EC0
  8
0
 10
149.9999999999999
 20
-185.0
 30
-20.5
 70
   192
  0
VERTEX
  5
6EC1
  8
0
 10
-29.99999999999997
 20
-185.0
 30
-20.5
 70
   192
  0
VERTEX
  5
6EC2
  8
0
 10
-35.00000000000001
 20
-183.6602540378444
 30
-20.5
 70
   192
  0
VERTEX
  5
6EC3
  8
0
 10
-38.66025403784442
 20
-180.0
 30
-20.5
 70
   192
  0
VERTEX
  5
6EC4
  8
0
 10
-40.00000000000004
 20
-174.9999999999999
 30
-20.5
 70
   192
  0
VERTEX
  5
6EC5
  8
0
 10
-40.00000000000001
 20
-15.00000000000007
 30
-20.5
 70
   192
  0
VERTEX
  5
6EC6
  8
0
 10
-38.66025403784441
 20
-10.00000000000002
 30
-20.5
 70
   192
  0
VERTEX
  5
6EC7
  8
0
 10
-34.99999999999999
 20
-6.339745962155602
 30
-20.5
 70
   192
  0
VERTEX
  5
6EC8
  8
0
 10
-29.99999999999994
 20
-5.000000000000002
 30
-20.5
 70
   192
  0
VERTEX
  5
6EC9
  8
0
 10
149.9999999999999
 20
-5.000000000000001
 30
-20.5
 70
   192
  0
VERTEX
  5
6ECA
  8
0
 10
155.0
 20
-6.339745962155597
 30
-20.5
 70
   192
  0
VERTEX
  5
6ECB
  8
0
 10
158.6602540378444
 20
-10.00000000000002
 30
-20.5
 70
   192
  0
VERTEX
  5
6ECC
  8
0
 10
160.0
 20
-15.00000000000007
 30
-20.5
 70
   192
  0
VERTEX
  5
6ECD
  8
0
 10
0.0
 20
0.0
 30
0.0
 70
   128
 71
    15
 72
    16
 73
    -1
  0
VERTEX
  5
6ECE
  8
0
 10
0.0
 20
0.0
 30
0.0
 70
   128
 71
    14
 72
   -15
 73
    -1
  0
VERTEX
  5
6ECF
  8
0
 10
0.0
 20
0.0
 30
0.0
 70
   128
 71
    13
 72
   -14
 73
    -1
  0
VERTEX
  5
6ED0
  8
0
 10
0.0
 20
0.0
 30
0.0
 70
   128
 71
    12
 72
   -13
 73
    -1
  0
VERTEX
  5
6ED1
  8
0
 10
0.0
 20
0.0
 30
0.0
 70
   128
 71
    11
 72
   -12
 73
    -1
  0
VERTEX
  5
6ED2
  8
0
 10
0.0
 20
0.0
 30
0.0
 70
   128
 71
    10
 72
   -11
 73
    -1
  0
VERTEX
  5
6ED3
  8
0
 10
0.0
 20
0.0
 30
0.0
 70
   128
 71
     9
 72
   -10
 73
    -1
  0
VERTEX
  5
6ED4
  8
0
 10
0.0
 20
0.0
 30
0.0
 70
   128
 71
     8
 72
    -9
 73
    -1
  0
VERTEX
  5
6ED5
  8
0
 10
0.0
 20
0.0
 30
0.0
 70
   128
 71
     7
 72
    -8
 73
    -1
  0
VERTEX
  5
6ED6
  8
0
 10
0.0
 20
0.0
 30
0.0
 70
   128
 71
     6
 72
    -7
 73
    -1
  0
VERTEX
  5
6ED7
  8
0
 10
0.0
 20
0.0
 30
0.0
 70
   128
 71
     5
 72
    -6
 73
    -1
  0
VERTEX
  5
6ED8
  8
0
 10
0.0
 20
0.0
 30
0.0
 70
   128
 71
     4
 72
    -5
 73
    -1
  0
VERTEX
  5
6ED9
  8
0
 10
0.0
 20
0.0
 30
0.0
 70
   128
 71
     3
 72
    -4
 73
    -1
  0
VERTEX
  5
6EDA
  8
0
 10
0.0
 20
0.0
 30
0.0
 70
   128
 71
     2
 72
    -3
 73
     1
  0
SEQEND
  5
6F5D
  8
0
  0
POLYLINE
  5
6EDB
  8
0
 66
     1
 10
0.0
 20
0.0
 30
0.0
 70
    64
 71
    16
 72
    14
  0
VERTEX
  5
6EDC
  8
0
 10
149.9999999999999
 20
-185.0
 30
-10.5
 70
   192
  0
VERTEX
  5
6EDD
  8
0
 10
-29.99999999999996
 20
-185.0
 30
-10.5
 70
   192
  0
VERTEX
  5
6EDE
  8
0
 10
-35.00000000000001
 20
-183.6602540378444
 30
-10.5
 70
   192
  0
VERTEX
  5
6EDF
  8
0
 10
-38.66025403784442
 20
-180.0
 30
-10.5
 70
   192
  0
VERTEX
  5
6EE0
  8
0
 10
-40.00000000000004
 20
-174.9999999999999
 30
-10.5
 70
   192
  0
VERTEX
  5
6EE1
  8
0
 10
-40.00000000000001
 20
-15.00000000000007
 30
-10.5
 70
   192
  0
VERTEX
  5
6EE2
  8
0
 10
-38.66025403784441
 20
-10.00000000000002
 30
-10.5
 70
   192
  0
VERTEX
  5
6EE3
  8
0
 10
-34.99999999999999
 20
-6.339745962155602
 30
-10.5
 70
   192
  0
VERTEX
  5
6EE4
  8
0
 10
-29.99999999999994
 20
-5.000000000000001
 30
-10.5
 70
   192
  0
VERTEX
  5
6EE5
  8
0
 10
149.9999999999999
 20
-4.999999999999989
 30
-10.5
 70
   192
  0
VERTEX
  5
6EE6
  8
0
 10
155.0
 20
-6.339745962155597
 30
-10.5
 70
   192
  0
VERTEX
  5
6EE7
  8
0
 10
158.6602540378444
 20
-10.00000000000002
 30
-10.5
 70
   192
  0
VERTEX
  5
6EE8
  8
0
 10
160.0
 20
-15.00000000000007
 30
-10.5
 70
   192
  0
VERTEX
  5
6EE9
  8
0
 10
160.0
 20
-174.9999999999999
 30
-10.5
 70
   192
  0
VERTEX
  5
6EEA
  8
0
 10
158.6602540378444
 20
-179.9999999999999
 30
-10.5
 70
   192
  0
VERTEX
  5
6EEB
  8
0
 10
155.0
 20
-183.6602540378444
 30
-10.5
 70
   192
  0
VERTEX
  5
6EEC
  8
0
 10
0.0
 20
0.0
 30
0.0
 70
   128
 71
     1
 72
    16
 73
   -15
  0
VERTEX
  5
6EED
  8
0
 10
0.0
 20
0.0
 30
0.0
 70
   128
 71
    -1
 72
    15
 73
   -14
  0
VERTEX
  5
6EEE
  8
0
 10
0.0
 20
0.0
 30
0.0
 70
   128
 71
    -1
 72
    14
 73
   -13
  0
VERTEX
  5
6EEF
  8
0
 10
0.0
 20
0.0
 30
0.0
 70
   128
 71
    -1
 72
    13
 73
   -12
  0
VERTEX
  5
6EF0
  8
0
 10
0.0
 20
0.0
 30
0.0
 70
   128
 71
    -1
 72
    12
 73
   -11
  0
VERTEX
  5
6EF1
  8
0
 10
0.0
 20
0.0
 30
0.0
 70
   128
 71
    -1
 72
    11
 73
   -10
  0
VERTEX
  5
6EF2
  8
0
 10
0.0
 20
0.0
 30
0.0
 70
   128
 71
    -1
 72
    10
 73
    -9
  0
VERTEX
  5
6EF3
  8
0
 10
0.0
 20
0.0
 30
0.0
 70
   128
 71
    -1
 72
     9
 73
    -8
  0
VERTEX
  5
6EF4
  8
0
 10
0.0
 20
0.0
 30
0.0
 70
   128
 71
    -1
 72
     8
 73
    -7
  0
VERTEX
  5
6EF5
  8
0
 10
0.0
 20
0.0
 30
0.0
 70
   128
 71
    -1
 72
     7
 73
    -6
  0
VERTEX
  5
6EF6
  8
0
 10
0.0
 20
0.0
 30
0.0
 70
   128
 71
    -1
 72
     6
 73
    -5
  0
VERTEX
  5
6EF7
  8
0
 10
0.0
 20
0.0
 30
0.0
 70
   128
 71
    -1
 72
     5
 73
    -4
  0
VERTEX
  5
6EF8
  8
0
 10
0.0
 20
0.0
 30
0.0
 70
   128
 71
    -1
 72
     4
 73
    -3
  0
VERTEX
  5
6EF9
  8
0
 10
0.0
 20
0.0
 30
0.0
 70
   128
 71
    -1
 72
     3
 73
     2
  0
SEQEND
  5
6F5E
  8
0
  0
POLYLINE
  5
6EFA
  8
0
 66
     1
 10
0.0
 20
0.0
 30
0.0
 70
    64
 71
    10
 72
     8
  0
VERTEX
  5
6EFB
  8
0
 10
109.9999999999999
 20
-190.0
 30
-18.99999999999999
 70
   192
  0
VERTEX
  5
6EFC
  8
0
 10
109.9999999999999
 20
-190.0
 30
-12.00000000000001
 70
   192
  0
VERTEX
  5
6EFD
  8
0
 10
109.9999999999999
 20
-185.0
 30
-12.00000000000001
 70
   192
  0
VERTEX
  5
6EFE
  8
0
 10
109.9999999999999
 20
-185.0
 30
-18.99999999999999
 70
   192
  0
VERTEX
  5
6EFF
  8
0
 10
106.4999999999999
 20
-185.0
 30
-15.5
 70
   192
  0
VERTEX
  5
6F00
  8
0
 10
106.4999999999999
 20
-190.0
 30
-15.5
 70
   192
  0
VERTEX
  5
6F01
  8
0
 10
107.525126265847
 20
-185.0
 30
-17.97487373415291
 70
   192
  0
VERTEX
  5
6F02
  8
0
 10
107.525126265847
 20
-190.0
 30
-17.97487373415291
 70
   192
  0
VERTEX
  5
6F03
  8
0
 10
107.525126265847
 20
-185.0
 30
-13.02512626584709
 70
   192
  0
VERTEX
  5
6F04
  8
0
 10
107.525126265847
 20
-190.0
 30
-13.02512626584709
 70
   192
  0
VERTEX
  5
6F05
  8
0
 10
0.0
 20
0.0
 30
0.0
 70
   128
 71
     8
 72
     7
 73
    -4
  0
VERTEX
  5
6F06
  8
0
 10
0.0
 20
0.0
 30
0.0
 70
   128
 71
    -8
 72
     4
 73
     1
  0
VERTEX
  5
6F07
  8
0
 10
0.0
 20
0.0
 30
0.0
 70
   128
 71
     6
 72
     5
 73
    -7
  0
VERTEX
  5
6F08
  8
0
 10
0.0
 20
0.0
 30
0.0
 70
   128
 71
    -6
 72
     7
 73
     8
  0
VERTEX
  5
6F09
  8
0
 10
0.0
 20
0.0
 30
0.0
 70
   128
 71
    10
 72
     9
 73
    -5
  0
VERTEX
  5
6F0A
  8
0
 10
0.0
 20
0.0
 30
0.0
 70
   128
 71
   -10
 72
     5
 73
     6
  0
VERTEX
  5
6F0B
  8
0
 10
0.0
 20
0.0
 30
0.0
 70
   128
 71
     2
 72
     3
 73
    -9
  0
VERTEX
  5
6F0C
  8
0
 10
0.0
 20
0.0
 30
0.0
 70
   128
 71
    -2
 72
     9
 73
    10
  0
SEQEND
  5
6F5F
  8
0
  0
POLYLINE
  5
6F0D
  8
0
 66
     1
 10
0.0
 20
0.0
 30
0.0
 70
    64
 71
     8
 72
     6
  0
VERTEX
  5
6F0E
  8
0
 10
109.9999999999999
 20
-190.0
 30
-12.00000000000001
 70
   192
  0
VERTEX
  5
6F0F
  8
0
 10
107.525126265847
 20
-190.0
 30
-13.02512626584709
 70
   192
  0
VERTEX
  5
6F10
  8
0
 10
106.4999999999999
 20
-190.0
 30
-15.5
 70
   192
  0
VERTEX
  5
6F11
  8
0
 10
107.525126265847
 20
-190.0
 30
-17.97487373415291
 70
   192
  0
VERTEX
  5
6F12
  8
0
 10
109.9999999999999
 20
-190.0
 30
-18.99999999999999
 70
   192
  0
VERTEX
  5
6F13
  8
0
 10
112.4748737341528
 20
-190.0
 30
-17.97487373415291
 70
   192
  0
VERTEX
  5
6F14
  8
0
 10
113.4999999999999
 20
-190.0
 30
-15.5
 70
   192
  0
VERTEX
  5
6F15
  8
0
 10
112.4748737341528
 20
-190.0
 30
-13.02512626584709
 70
   192
  0
VERTEX
  5
6F16
  8
0
 10
0.0
 20
0.0
 30
0.0
 70
   128
 71
     7
 72
     8
 73
    -1
  0
VERTEX
  5
6F17
  8
0
 10
0.0
 20
0.0
 30
0.0
 70
   128
 71
     6
 72
    -7
 73
    -1
  0
VERTEX
  5
6F18
  8
0
 10
0.0
 20
0.0
 30
0.0
 70
   128
 71
     5
 72
    -6
 73
    -1
  0
VERTEX
  5
6F19
  8
0
 10
0.0
 20
0.0
 30
0.0
 70
   128
 71
     4
 72
    -5
 73
    -1
  0
VERTEX
  5
6F1A
  8
0
 10
0.0
 20
0.0
 30
0.0
 70
   128
 71
     3
 72
    -4
 73
    -1
  0
VERTEX
  5
6F1B
  8
0
 10
0.0
 20
0.0
 30
0.0
 70
   128
 71
     2
 72
    -3
 73
     1
  0
SEQEND
  5
6F60
  8
0
  0
ENDBLK
  5
6F53
  8
0
  0
ENDSEC
  0
SECTION
  2
ENTITIES
  0
INSERT
  5
66AA
  8
0
  2
*X1
 10
0.0
 20
0.0
 30
0.0
  0
INSERT
  5
66AB
  8
0
  2
*X2
 10
0.0
 20
0.0
 30
0.0
  0
INSERT
  5
66AC
  8
0
  2
*X3
 10
0.0
 20
0.0
 30
0.0
  0
INSERT
  5
66AD
  8
0
  2
*X4
 10
0.0
 20
0.0
 30
0.0
  0
ENDSEC
  0
EOF
