  0
SECTION
  2
HEADER
  9
$ACADVER
  1
AC1009
  9
$DWGCODEPAGE
  3
ansi_1250
  9
$INSBASE
 10
0.0
 20
0.0
 30
0.0
  9
$EXTMIN
 10
-300.0
 20
-300.0
 30
-30.00000000000006
  9
$EXTMAX
 10
300.0
 20
300.0
 30
0.0000000000000568
  9
$LIMMIN
 10
0.0
 20
0.0
  9
$LIMMAX
 10
420.0
 20
297.0
  9
$ORTHOMODE
 70
     0
  9
$REGENMODE
 70
     1
  9
$FILLMODE
 70
     1
  9
$QTEXTMODE
 70
     0
  9
$MIRRTEXT
 70
     0
  9
$DRAGMODE
 70
     2
  9
$LTSCALE
 40
1.0
  9
$OSMODE
 70
   511
  9
$ATTMODE
 70
     1
  9
$TEXTSIZE
 40
2.5
  9
$TRACEWID
 40
1.0
  9
$TEXTSTYLE
  7
STANDARD
  9
$CLAYER
  8
0
  9
$CELTYPE
  6
BYLAYER
  9
$CECOLOR
 62
   256
  9
$DIMSCALE
 40
1.0
  9
$DIMASZ
 40
2.5
  9
$DIMEXO
 40
0.625
  9
$DIMDLI
 40
3.75
  9
$DIMRND
 40
0.0
  9
$DIMDLE
 40
0.0
  9
$DIMEXE
 40
1.25
  9
$DIMTP
 40
0.0
  9
$DIMTM
 40
0.0
  9
$DIMTXT
 40
2.5
  9
$DIMCEN
 40
-2.5
  9
$DIMTSZ
 40
0.0
  9
$DIMTOL
 70
     0
  9
$DIMLIM
 70
     0
  9
$DIMTIH
 70
     0
  9
$DIMTOH
 70
     0
  9
$DIMSE1
 70
     0
  9
$DIMSE2
 70
     0
  9
$DIMTAD
 70
     1
  9
$DIMZIN
 70
     8
  9
$DIMBLK
  1

  9
$DIMASO
 70
     1
  9
$DIMSHO
 70
     1
  9
$DIMPOST
  1

  9
$DIMAPOST
  1

  9
$DIMALT
 70
     0
  9
$DIMALTD
 70
     3
  9
$DIMALTF
 40
0.03937007874016
  9
$DIMLFAC
 40
1.0
  9
$DIMTOFL
 70
     1
  9
$DIMTVP
 40
0.0
  9
$DIMTIX
 70
     0
  9
$DIMSOXD
 70
     0
  9
$DIMSAH
 70
     0
  9
$DIMBLK1
  1

  9
$DIMBLK2
  1

  9
$DIMSTYLE
  2
ISO-25
  9
$DIMCLRD
 70
     0
  9
$DIMCLRE
 70
     0
  9
$DIMCLRT
 70
     0
  9
$DIMTFAC
 40
1.0
  9
$DIMGAP
 40
0.625
  9
$LUNITS
 70
     2
  9
$LUPREC
 70
     3
  9
$SKETCHINC
 40
1.0
  9
$FILLETRAD
 40
10.0
  9
$AUNITS
 70
     0
  9
$AUPREC
 70
     0
  9
$MENU
  1
.
  9
$ELEVATION
 40
0.0
  9
$PELEVATION
 40
0.0
  9
$THICKNESS
 40
0.0
  9
$LIMCHECK
 70
     0
  9
$CHAMFERA
 40
10.0
  9
$CHAMFERB
 40
10.0
  9
$SKPOLY
 70
     0
  9
$TDCREATE
 40
2455022.720692848
  9
$TDUPDATE
 40
2460521.496795382
  9
$TDINDWG
 40
0.1674232292
  9
$TDUSRTIMER
 40
0.1675139699
  9
$USRTIMER
 70
     1
  9
$ANGBASE
 50
0.0
  9
$ANGDIR
 70
     0
  9
$PDMODE
 70
     0
  9
$PDSIZE
 40
0.0
  9
$PLINEWID
 40
0.0
  9
$COORDS
 70
     1
  9
$SPLFRAME
 70
     0
  9
$SPLINETYPE
 70
     6
  9
$SPLINESEGS
 70
     8
  9
$ATTDIA
 70
     0
  9
$ATTREQ
 70
     1
  9
$HANDLING
 70
     1
  9
$HANDSEED
  5
AE85
  9
$SURFTAB1
 70
     6
  9
$SURFTAB2
 70
     6
  9
$SURFTYPE
 70
     6
  9
$SURFU
 70
     6
  9
$SURFV
 70
     6
  9
$UCSNAME
  2

  9
$UCSORG
 10
0.0
 20
0.0
 30
0.0
  9
$UCSXDIR
 10
1.0
 20
0.0
 30
0.0
  9
$UCSYDIR
 10
0.0
 20
1.0
 30
0.0
  9
$PUCSNAME
  2

  9
$PUCSORG
 10
0.0
 20
0.0
 30
0.0
  9
$PUCSXDIR
 10
1.0
 20
0.0
 30
0.0
  9
$PUCSYDIR
 10
0.0
 20
1.0
 30
0.0
  9
$USERI1
 70
     0
  9
$USERI2
 70
     0
  9
$USERI3
 70
     0
  9
$USERI4
 70
     0
  9
$USERI5
 70
     0
  9
$USERR1
 40
0.0
  9
$USERR2
 40
0.0
  9
$USERR3
 40
0.0
  9
$USERR4
 40
0.0
  9
$USERR5
 40
0.0
  9
$WORLDVIEW
 70
     1
  9
$SHADEDGE
 70
     3
  9
$SHADEDIF
 70
    70
  9
$TILEMODE
 70
     1
  9
$MAXACTVP
 70
    64
  9
$PLIMCHECK
 70
     0
  9
$PEXTMIN
 10
1.000000000000000E+20
 20
1.000000000000000E+20
 30
1.000000000000000E+20
  9
$PEXTMAX
 10
-1.000000000000000E+20
 20
-1.000000000000000E+20
 30
-1.000000000000000E+20
  9
$PLIMMIN
 10
0.0
 20
0.0
  9
$PLIMMAX
 10
0.0
 20
0.0
  9
$UNITMODE
 70
     0
  9
$VISRETAIN
 70
     1
  9
$PLINEGEN
 70
     0
  9
$PSLTSCALE
 70
     1
  0
ENDSEC
  0
SECTION
  2
TABLES
  0
TABLE
  2
VPORT
 70
     1
  0
VPORT
  2
*ACTIVE
 70
     0
 10
0.0
 20
0.0
 11
1.0
 21
1.0
 12
-116.6110757937285
 22
90.81470093901663
 13
0.0
 23
0.0
 14
10.0
 24
10.0
 15
10.0
 25
10.0
 16
0.5773502691896262
 26
0.5773502691896262
 36
0.5773502691896262
 17
-41.66599977993164
 27
123.2469651304761
 37
-82.93435654674934
 40
770.3645241053097
 41
1.88293897882939
 42
50.0
 43
0.0
 44
0.0
 50
0.0
 51
0.0
 71
    16
 72
  1000
 73
     1
 74
     3
 75
     0
 76
     0
 77
     0
 78
     0
  0
ENDTAB
  0
TABLE
  2
LTYPE
 70
     1
  0
LTYPE
  2
CONTINUOUS
 70
     0
  3
Solid line
 72
    65
 73
     0
 40
0.0
  0
ENDTAB
  0
TABLE
  2
LAYER
 70
     1
  0
LAYER
  2
0
 70
     0
 62
     7
  6
CONTINUOUS
  0
ENDTAB
  0
TABLE
  2
STYLE
 70
     2
  0
STYLE
  2
STANDARD
 70
     0
 40
0.0
 41
1.0
 50
0.0
 71
     0
 42
2.5
  3
arial.ttf
  4

  0
STYLE
  2
ANNOTATIVE
 70
     0
 40
0.0
 41
1.0
 50
0.0
 71
     0
 42
2.5
  3
arial.ttf
  4

  0
ENDTAB
  0
TABLE
  2
VIEW
 70
     0
  0
ENDTAB
  0
TABLE
  2
UCS
 70
     0
  0
ENDTAB
  0
TABLE
  2
APPID
 70
     2
  0
APPID
  2
ACAD
 70
     0
  0
APPID
  2
ACADANNOTATIVE
 70
     0
  0
ENDTAB
  0
TABLE
  2
DIMSTYLE
 70
     2
  0
DIMSTYLE
  2
ISO-25
 70
     0
  3

  4

  5

  6

  7

 40
1.0
 41
2.5
 42
0.625
 43
3.75
 44
1.25
 45
0.0
 46
0.0
 47
0.0
 48
0.0
140
2.5
141
-2.5
142
0.0
143
0.03937007874016
144
1.0
145
0.0
146
1.0
147
0.625
 71
     0
 72
     0
 73
     0
 74
     0
 75
     0
 76
     0
 77
     1
 78
     8
170
     0
171
     3
172
     1
173
     0
174
     0
175
     0
176
     0
177
     0
178
     0
  0
DIMSTYLE
  2
ANNOTATIVE
 70
     0
  3

  4

  5

  6

  7

 40
0.0
 41
2.5
 42
0.625
 43
3.75
 44
1.25
 45
0.0
 46
0.0
 47
0.0
 48
0.0
140
2.5
141
-2.5
142
0.0
143
0.03937007874016
144
1.0
145
0.0
146
1.0
147
0.625
 71
     0
 72
     0
 73
     0
 74
     0
 75
     0
 76
     0
 77
     1
 78
     8
170
     0
171
     3
172
     1
173
     0
174
     0
175
     0
176
     0
177
     0
178
     0
  0
ENDTAB
  0
ENDSEC
  0
SECTION
  2
BLOCKS
  0
BLOCK
  8
0
  2
$MODEL_SPACE
 70
     0
 10
0.0
 20
0.0
 30
0.0
  3
$MODEL_SPACE
  1

  0
ENDBLK
  5
21
  8
0
  0
BLOCK
 67
     1
  8
0
  2
$PAPER_SPACE
 70
     0
 10
0.0
 20
0.0
 30
0.0
  3
$PAPER_SPACE
  1

  0
ENDBLK
  5
1D
 67
     1
  8
0
  0
BLOCK
  8
0
  2
*X1
 70
     1
 10
0.0
 20
0.0
 30
0.0
  3
*X1
  1

  0
POLYLINE
  5
AB6E
  8
0
 66
     1
 10
0.0
 20
0.0
 30
0.0
 70
    64
 71
    14
 72
    12
  0
VERTEX
  5
AB6F
  8
0
 10
-145.0000000000001
 20
-251.1473670974872
 30
-30.0
 70
   192
  0
VERTEX
  5
AB70
  8
0
 10
-251.1473670974873
 20
-145.0
 30
-30.0
 70
   192
  0
VERTEX
  5
AB71
  8
0
 10
-251.1473670974873
 20
-145.0
 30
-10.0
 70
   192
  0
VERTEX
  5
AB72
  8
0
 10
-145.0000000000001
 20
-251.1473670974872
 30
-10.0
 70
   192
  0
VERTEX
  5
AB73
  8
0
 10
251.1473670974872
 20
-145.0000000000002
 30
-30.0
 70
   192
  0
VERTEX
  5
AB74
  8
0
 10
144.9999999999999
 20
-251.1473670974873
 30
-30.0
 70
   192
  0
VERTEX
  5
AB75
  8
0
 10
144.9999999999999
 20
-251.1473670974873
 30
-10.0
 70
   192
  0
VERTEX
  5
AB76
  8
0
 10
251.1473670974872
 20
-145.0000000000002
 30
-10.0
 70
   192
  0
VERTEX
  5
AB77
  8
0
 10
290.0000000000001
 20
-0.0000000000002093
 30
-30.0
 70
   192
  0
VERTEX
  5
AB78
  8
0
 10
290.0000000000001
 20
-0.0000000000002093
 30
-10.0
 70
   192
  0
VERTEX
  5
AB79
  8
0
 10
-0.0000000000001127
 20
-290.0000000000001
 30
-30.0
 70
   192
  0
VERTEX
  5
AB7A
  8
0
 10
-0.0000000000001127
 20
-290.0000000000001
 30
-10.0
 70
   192
  0
VERTEX
  5
AB7B
  8
0
 10
-290.0000000000001
 20
0.0000000000000355
 30
-30.0
 70
   192
  0
VERTEX
  5
AB7C
  8
0
 10
-290.0000000000001
 20
0.0000000000000355
 30
-10.0
 70
   192
  0
VERTEX
  5
AB7D
  8
0
 10
0.0
 20
0.0
 30
0.0
 70
   128
 71
     1
 72
     2
 73
    -3
  0
VERTEX
  5
AB7E
  8
0
 10
0.0
 20
0.0
 30
0.0
 70
   128
 71
     4
 72
    -1
 73
     3
  0
VERTEX
  5
AB7F
  8
0
 10
0.0
 20
0.0
 30
0.0
 70
   128
 71
     5
 72
     6
 73
    -7
  0
VERTEX
  5
AB80
  8
0
 10
0.0
 20
0.0
 30
0.0
 70
   128
 71
     8
 72
    -5
 73
     7
  0
VERTEX
  5
AB81
  8
0
 10
0.0
 20
0.0
 30
0.0
 70
   128
 71
     9
 72
     5
 73
    -8
  0
VERTEX
  5
AB82
  8
0
 10
0.0
 20
0.0
 30
0.0
 70
   128
 71
    10
 72
    -9
 73
     8
  0
VERTEX
  5
AB83
  8
0
 10
0.0
 20
0.0
 30
0.0
 70
   128
 71
     6
 72
    11
 73
   -12
  0
VERTEX
  5
AB84
  8
0
 10
0.0
 20
0.0
 30
0.0
 70
   128
 71
     7
 72
    -6
 73
    12
  0
VERTEX
  5
AB85
  8
0
 10
0.0
 20
0.0
 30
0.0
 70
   128
 71
    11
 72
     1
 73
    -4
  0
VERTEX
  5
AB86
  8
0
 10
0.0
 20
0.0
 30
0.0
 70
   128
 71
    12
 72
   -11
 73
     4
  0
VERTEX
  5
AB87
  8
0
 10
0.0
 20
0.0
 30
0.0
 70
   128
 71
     2
 72
    13
 73
   -14
  0
VERTEX
  5
AB88
  8
0
 10
0.0
 20
0.0
 30
0.0
 70
   128
 71
     3
 72
    -2
 73
    14
  0
SEQEND
  5
AE4B
  8
0
  0
POLYLINE
  5
AB89
  8
0
 66
     1
 10
0.0
 20
0.0
 30
0.0
 70
    64
 71
    14
 72
    12
  0
VERTEX
  5
AB8A
  8
0
 10
259.8076211353317
 20
150.0
 30
0.0
 70
   192
  0
VERTEX
  5
AB8B
  8
0
 10
259.8076211353317
 20
150.0
 30
-30.0
 70
   192
  0
VERTEX
  5
AB8C
  8
0
 10
150.0000000000001
 20
259.8076211353316
 30
-30.0
 70
   192
  0
VERTEX
  5
AB8D
  8
0
 10
150.0000000000001
 20
259.8076211353316
 30
0.0
 70
   192
  0
VERTEX
  5
AB8E
  8
0
 10
-149.9999999999999
 20
259.8076211353317
 30
0.0
 70
   192
  0
VERTEX
  5
AB8F
  8
0
 10
-149.9999999999999
 20
259.8076211353317
 30
-30.0
 70
   192
  0
VERTEX
  5
AB90
  8
0
 10
-259.8076211353316
 20
150.0000000000002
 30
-30.0
 70
   192
  0
VERTEX
  5
AB91
  8
0
 10
-259.8076211353316
 20
150.0000000000002
 30
0.0
 70
   192
  0
VERTEX
  5
AB92
  8
0
 10
-300.0000000000001
 20
0.0000000000001665
 30
-30.0
 70
   192
  0
VERTEX
  5
AB93
  8
0
 10
-300.0000000000001
 20
0.0000000000000367
 30
0.0
 70
   192
  0
VERTEX
  5
AB94
  8
0
 10
0.0000000000000833
 20
300.0000000000001
 30
0.0
 70
   192
  0
VERTEX
  5
AB95
  8
0
 10
0.0000000000000833
 20
300.0000000000001
 30
-30.0
 70
   192
  0
VERTEX
  5
AB96
  8
0
 10
300.0000000000001
 20
0.0
 30
0.0
 70
   192
  0
VERTEX
  5
AB97
  8
0
 10
300.0000000000001
 20
0.0
 30
-30.0
 70
   192
  0
VERTEX
  5
AB98
  8
0
 10
0.0
 20
0.0
 30
0.0
 70
   128
 71
     1
 72
     2
 73
    -3
  0
VERTEX
  5
AB99
  8
0
 10
0.0
 20
0.0
 30
0.0
 70
   128
 71
    -1
 72
     3
 73
     4
  0
VERTEX
  5
AB9A
  8
0
 10
0.0
 20
0.0
 30
0.0
 70
   128
 71
     5
 72
     6
 73
    -7
  0
VERTEX
  5
AB9B
  8
0
 10
0.0
 20
0.0
 30
0.0
 70
   128
 71
    -5
 72
     7
 73
     8
  0
VERTEX
  5
AB9C
  8
0
 10
0.0
 20
0.0
 30
0.0
 70
   128
 71
     8
 72
     7
 73
    -9
  0
VERTEX
  5
AB9D
  8
0
 10
0.0
 20
0.0
 30
0.0
 70
   128
 71
    -8
 72
     9
 73
    10
  0
VERTEX
  5
AB9E
  8
0
 10
0.0
 20
0.0
 30
0.0
 70
   128
 71
    11
 72
    12
 73
    -6
  0
VERTEX
  5
AB9F
  8
0
 10
0.0
 20
0.0
 30
0.0
 70
   128
 71
   -11
 72
     6
 73
     5
  0
VERTEX
  5
ABA0
  8
0
 10
0.0
 20
0.0
 30
0.0
 70
   128
 71
     4
 72
     3
 73
   -12
  0
VERTEX
  5
ABA1
  8
0
 10
0.0
 20
0.0
 30
0.0
 70
   128
 71
    -4
 72
    12
 73
    11
  0
VERTEX
  5
ABA2
  8
0
 10
0.0
 20
0.0
 30
0.0
 70
   128
 71
    13
 72
    14
 73
    -2
  0
VERTEX
  5
ABA3
  8
0
 10
0.0
 20
0.0
 30
0.0
 70
   128
 71
   -13
 72
     2
 73
     1
  0
SEQEND
  5
AE4C
  8
0
  0
POLYLINE
  5
ABA4
  8
0
 66
     1
 10
0.0
 20
0.0
 30
0.0
 70
    64
 71
    14
 72
    12
  0
VERTEX
  5
ABA5
  8
0
 10
-259.8076211353317
 20
-150.0
 30
0.0
 70
   192
  0
VERTEX
  5
ABA6
  8
0
 10
-259.8076211353317
 20
-150.0
 30
-30.0
 70
   192
  0
VERTEX
  5
ABA7
  8
0
 10
-150.0000000000001
 20
-259.8076211353316
 30
-30.0
 70
   192
  0
VERTEX
  5
ABA8
  8
0
 10
-150.0000000000001
 20
-259.8076211353316
 30
0.0
 70
   192
  0
VERTEX
  5
ABA9
  8
0
 10
149.9999999999999
 20
-259.8076211353317
 30
0.0
 70
   192
  0
VERTEX
  5
ABAA
  8
0
 10
149.9999999999999
 20
-259.8076211353317
 30
-30.0
 70
   192
  0
VERTEX
  5
ABAB
  8
0
 10
259.8076211353315
 20
-150.0000000000002
 30
-30.0
 70
   192
  0
VERTEX
  5
ABAC
  8
0
 10
259.8076211353315
 20
-150.0000000000002
 30
0.0
 70
   192
  0
VERTEX
  5
ABAD
  8
0
 10
300.0000000000001
 20
-0.0000000000002165
 30
-30.0
 70
   192
  0
VERTEX
  5
ABAE
  8
0
 10
300.0000000000001
 20
0.0
 30
0.0
 70
   192
  0
VERTEX
  5
ABAF
  8
0
 10
-0.0000000000001166
 20
-300.0000000000001
 30
0.0
 70
   192
  0
VERTEX
  5
ABB0
  8
0
 10
-0.0000000000001166
 20
-300.0000000000001
 30
-30.0
 70
   192
  0
VERTEX
  5
ABB1
  8
0
 10
-300.0000000000001
 20
0.0000000000000367
 30
0.0
 70
   192
  0
VERTEX
  5
ABB2
  8
0
 10
-300.0000000000001
 20
0.0000000000000367
 30
-30.0
 70
   192
  0
VERTEX
  5
ABB3
  8
0
 10
0.0
 20
0.0
 30
0.0
 70
   128
 71
     1
 72
     2
 73
    -3
  0
VERTEX
  5
ABB4
  8
0
 10
0.0
 20
0.0
 30
0.0
 70
   128
 71
    -1
 72
     3
 73
     4
  0
VERTEX
  5
ABB5
  8
0
 10
0.0
 20
0.0
 30
0.0
 70
   128
 71
     5
 72
     6
 73
    -7
  0
VERTEX
  5
ABB6
  8
0
 10
0.0
 20
0.0
 30
0.0
 70
   128
 71
    -5
 72
     7
 73
     8
  0
VERTEX
  5
ABB7
  8
0
 10
0.0
 20
0.0
 30
0.0
 70
   128
 71
     8
 72
     7
 73
    -9
  0
VERTEX
  5
ABB8
  8
0
 10
0.0
 20
0.0
 30
0.0
 70
   128
 71
    -8
 72
     9
 73
    10
  0
VERTEX
  5
ABB9
  8
0
 10
0.0
 20
0.0
 30
0.0
 70
   128
 71
    11
 72
    12
 73
    -6
  0
VERTEX
  5
ABBA
  8
0
 10
0.0
 20
0.0
 30
0.0
 70
   128
 71
   -11
 72
     6
 73
     5
  0
VERTEX
  5
ABBB
  8
0
 10
0.0
 20
0.0
 30
0.0
 70
   128
 71
     4
 72
     3
 73
   -12
  0
VERTEX
  5
ABBC
  8
0
 10
0.0
 20
0.0
 30
0.0
 70
   128
 71
    -4
 72
    12
 73
    11
  0
VERTEX
  5
ABBD
  8
0
 10
0.0
 20
0.0
 30
0.0
 70
   128
 71
    13
 72
    14
 73
    -2
  0
VERTEX
  5
ABBE
  8
0
 10
0.0
 20
0.0
 30
0.0
 70
   128
 71
   -13
 72
     2
 73
     1
  0
SEQEND
  5
AE4D
  8
0
  0
POLYLINE
  5
ABBF
  8
0
 66
     1
 10
0.0
 20
0.0
 30
0.0
 70
    64
 71
    24
 72
    24
  0
VERTEX
  5
ABC0
  8
0
 10
-300.0000000000001
 20
0.0000000000000367
 30
-30.0
 70
   192
  0
VERTEX
  5
ABC1
  8
0
 10
-259.8076211353317
 20
-150.0
 30
-30.0
 70
   192
  0
VERTEX
  5
ABC2
  8
0
 10
-150.0000000000001
 20
-259.8076211353316
 30
-30.0
 70
   192
  0
VERTEX
  5
ABC3
  8
0
 10
-0.0000000000001166
 20
-300.0000000000001
 30
-30.0
 70
   192
  0
VERTEX
  5
ABC4
  8
0
 10
149.9999999999999
 20
-259.8076211353317
 30
-30.0
 70
   192
  0
VERTEX
  5
ABC5
  8
0
 10
259.8076211353315
 20
-150.0000000000002
 30
-30.0
 70
   192
  0
VERTEX
  5
ABC6
  8
0
 10
300.0000000000001
 20
0.0
 30
-30.0
 70
   192
  0
VERTEX
  5
ABC7
  8
0
 10
259.8076211353317
 20
150.0
 30
-30.0
 70
   192
  0
VERTEX
  5
ABC8
  8
0
 10
150.0000000000001
 20
259.8076211353316
 30
-30.0
 70
   192
  0
VERTEX
  5
ABC9
  8
0
 10
0.0000000000000833
 20
300.0000000000001
 30
-30.0
 70
   192
  0
VERTEX
  5
ABCA
  8
0
 10
-149.9999999999999
 20
259.8076211353317
 30
-30.0
 70
   192
  0
VERTEX
  5
ABCB
  8
0
 10
-259.8076211353316
 20
150.0000000000002
 30
-30.0
 70
   192
  0
VERTEX
  5
ABCC
  8
0
 10
290.0000000000001
 20
-0.0000000000002093
 30
-30.0
 70
   192
  0
VERTEX
  5
ABCD
  8
0
 10
251.1473670974872
 20
-145.0000000000002
 30
-30.0
 70
   192
  0
VERTEX
  5
ABCE
  8
0
 10
144.9999999999999
 20
-251.1473670974873
 30
-30.0
 70
   192
  0
VERTEX
  5
ABCF
  8
0
 10
-0.0000000000001127
 20
-290.0000000000001
 30
-30.0
 70
   192
  0
VERTEX
  5
ABD0
  8
0
 10
-145.0000000000001
 20
-251.1473670974872
 30
-30.0
 70
   192
  0
VERTEX
  5
ABD1
  8
0
 10
-251.1473670974873
 20
-145.0
 30
-30.0
 70
   192
  0
VERTEX
  5
ABD2
  8
0
 10
-290.0000000000001
 20
0.000000000000161
 30
-30.0
 70
   192
  0
VERTEX
  5
ABD3
  8
0
 10
-251.1473670974872
 20
145.0000000000002
 30
-30.0
 70
   192
  0
VERTEX
  5
ABD4
  8
0
 10
-144.9999999999999
 20
251.1473670974873
 30
-30.0
 70
   192
  0
VERTEX
  5
ABD5
  8
0
 10
0.0000000000000805
 20
290.0000000000001
 30
-30.0
 70
   192
  0
VERTEX
  5
ABD6
  8
0
 10
145.0000000000001
 20
251.1473670974872
 30
-30.0
 70
   192
  0
VERTEX
  5
ABD7
  8
0
 10
251.1473670974873
 20
145.0
 30
-30.0
 70
   192
  0
VERTEX
  5
ABD8
  8
0
 10
0.0
 20
0.0
 30
0.0
 70
   128
 71
    14
 72
   -13
 73
    -7
  0
VERTEX
  5
ABD9
  8
0
 10
0.0
 20
0.0
 30
0.0
 70
   128
 71
   -14
 72
     7
 73
    -6
  0
VERTEX
  5
ABDA
  8
0
 10
0.0
 20
0.0
 30
0.0
 70
   128
 71
     6
 72
    -5
 73
   -15
  0
VERTEX
  5
ABDB
  8
0
 10
0.0
 20
0.0
 30
0.0
 70
   128
 71
    -6
 72
    15
 73
   -14
  0
VERTEX
  5
ABDC
  8
0
 10
0.0
 20
0.0
 30
0.0
 70
   128
 71
     5
 72
    -4
 73
   -16
  0
VERTEX
  5
ABDD
  8
0
 10
0.0
 20
0.0
 30
0.0
 70
   128
 71
    -5
 72
    16
 73
   -15
  0
VERTEX
  5
ABDE
  8
0
 10
0.0
 20
0.0
 30
0.0
 70
   128
 71
     4
 72
    -3
 73
   -17
  0
VERTEX
  5
ABDF
  8
0
 10
0.0
 20
0.0
 30
0.0
 70
   128
 71
    -4
 72
    17
 73
   -16
  0
VERTEX
  5
ABE0
  8
0
 10
0.0
 20
0.0
 30
0.0
 70
   128
 71
     3
 72
    -2
 73
   -18
  0
VERTEX
  5
ABE1
  8
0
 10
0.0
 20
0.0
 30
0.0
 70
   128
 71
    -3
 72
    18
 73
   -17
  0
VERTEX
  5
ABE2
  8
0
 10
0.0
 20
0.0
 30
0.0
 70
   128
 71
     2
 72
    -1
 73
   -19
  0
VERTEX
  5
ABE3
  8
0
 10
0.0
 20
0.0
 30
0.0
 70
   128
 71
    -2
 72
    19
 73
   -18
  0
VERTEX
  5
ABE4
  8
0
 10
0.0
 20
0.0
 30
0.0
 70
   128
 71
     1
 72
   -12
 73
   -20
  0
VERTEX
  5
ABE5
  8
0
 10
0.0
 20
0.0
 30
0.0
 70
   128
 71
    -1
 72
    20
 73
   -19
  0
VERTEX
  5
ABE6
  8
0
 10
0.0
 20
0.0
 30
0.0
 70
   128
 71
    12
 72
   -11
 73
   -21
  0
VERTEX
  5
ABE7
  8
0
 10
0.0
 20
0.0
 30
0.0
 70
   128
 71
   -12
 72
    21
 73
   -20
  0
VERTEX
  5
ABE8
  8
0
 10
0.0
 20
0.0
 30
0.0
 70
   128
 71
    11
 72
   -10
 73
   -22
  0
VERTEX
  5
ABE9
  8
0
 10
0.0
 20
0.0
 30
0.0
 70
   128
 71
   -11
 72
    22
 73
   -21
  0
VERTEX
  5
ABEA
  8
0
 10
0.0
 20
0.0
 30
0.0
 70
   128
 71
    10
 72
    -9
 73
   -23
  0
VERTEX
  5
ABEB
  8
0
 10
0.0
 20
0.0
 30
0.0
 70
   128
 71
   -10
 72
    23
 73
   -22
  0
VERTEX
  5
ABEC
  8
0
 10
0.0
 20
0.0
 30
0.0
 70
   128
 71
     9
 72
    -8
 73
   -24
  0
VERTEX
  5
ABED
  8
0
 10
0.0
 20
0.0
 30
0.0
 70
   128
 71
    -9
 72
    24
 73
   -23
  0
VERTEX
  5
ABEE
  8
0
 10
0.0
 20
0.0
 30
0.0
 70
   128
 71
     8
 72
    -7
 73
   -13
  0
VERTEX
  5
ABEF
  8
0
 10
0.0
 20
0.0
 30
0.0
 70
   128
 71
    -8
 72
    13
 73
   -24
  0
SEQEND
  5
AE4E
  8
0
  0
POLYLINE
  5
ABF0
  8
0
 66
     1
 10
0.0
 20
0.0
 30
0.0
 70
    64
 71
    12
 72
    10
  0
VERTEX
  5
ABF1
  8
0
 10
300.0000000000001
 20
0.0
 30
0.0
 70
   192
  0
VERTEX
  5
ABF2
  8
0
 10
259.8076211353317
 20
150.0
 30
0.0
 70
   192
  0
VERTEX
  5
ABF3
  8
0
 10
150.0000000000001
 20
259.8076211353316
 30
0.0
 70
   192
  0
VERTEX
  5
ABF4
  8
0
 10
0.0000000000000833
 20
300.0000000000001
 30
0.0
 70
   192
  0
VERTEX
  5
ABF5
  8
0
 10
-149.9999999999999
 20
259.8076211353317
 30
0.0
 70
   192
  0
VERTEX
  5
ABF6
  8
0
 10
-259.8076211353316
 20
150.0000000000002
 30
0.0
 70
   192
  0
VERTEX
  5
ABF7
  8
0
 10
-300.0000000000001
 20
0.0000000000001665
 30
0.0
 70
   192
  0
VERTEX
  5
ABF8
  8
0
 10
-259.8076211353317
 20
-150.0
 30
0.0
 70
   192
  0
VERTEX
  5
ABF9
  8
0
 10
-150.0000000000001
 20
-259.8076211353316
 30
0.0
 70
   192
  0
VERTEX
  5
ABFA
  8
0
 10
-0.0000000000001166
 20
-300.0000000000001
 30
0.0
 70
   192
  0
VERTEX
  5
ABFB
  8
0
 10
149.9999999999999
 20
-259.8076211353317
 30
0.0
 70
   192
  0
VERTEX
  5
ABFC
  8
0
 10
259.8076211353315
 20
-150.0000000000002
 30
0.0
 70
   192
  0
VERTEX
  5
ABFD
  8
0
 10
0.0
 20
0.0
 30
0.0
 70
   128
 71
    11
 72
    12
 73
    -1
  0
VERTEX
  5
ABFE
  8
0
 10
0.0
 20
0.0
 30
0.0
 70
   128
 71
    10
 72
   -11
 73
    -1
  0
VERTEX
  5
ABFF
  8
0
 10
0.0
 20
0.0
 30
0.0
 70
   128
 71
     9
 72
   -10
 73
    -1
  0
VERTEX
  5
AC00
  8
0
 10
0.0
 20
0.0
 30
0.0
 70
   128
 71
     8
 72
    -9
 73
    -1
  0
VERTEX
  5
AC01
  8
0
 10
0.0
 20
0.0
 30
0.0
 70
   128
 71
     7
 72
    -8
 73
    -1
  0
VERTEX
  5
AC02
  8
0
 10
0.0
 20
0.0
 30
0.0
 70
   128
 71
     6
 72
    -7
 73
    -1
  0
VERTEX
  5
AC03
  8
0
 10
0.0
 20
0.0
 30
0.0
 70
   128
 71
     5
 72
    -6
 73
    -1
  0
VERTEX
  5
AC04
  8
0
 10
0.0
 20
0.0
 30
0.0
 70
   128
 71
     4
 72
    -5
 73
    -1
  0
VERTEX
  5
AC05
  8
0
 10
0.0
 20
0.0
 30
0.0
 70
   128
 71
     3
 72
    -4
 73
    -1
  0
VERTEX
  5
AC06
  8
0
 10
0.0
 20
0.0
 30
0.0
 70
   128
 71
     2
 72
    -3
 73
     1
  0
SEQEND
  5
AE4F
  8
0
  0
POLYLINE
  5
AC07
  8
0
 66
     1
 10
0.0
 20
0.0
 30
0.0
 70
    64
 71
    14
 72
    12
  0
VERTEX
  5
AC08
  8
0
 10
145.0000000000001
 20
251.1473670974872
 30
-30.0
 70
   192
  0
VERTEX
  5
AC09
  8
0
 10
251.1473670974873
 20
145.0
 30
-30.0
 70
   192
  0
VERTEX
  5
AC0A
  8
0
 10
251.1473670974873
 20
145.0
 30
-10.0
 70
   192
  0
VERTEX
  5
AC0B
  8
0
 10
145.0000000000001
 20
251.1473670974872
 30
-10.0
 70
   192
  0
VERTEX
  5
AC0C
  8
0
 10
-251.1473670974872
 20
145.0000000000002
 30
-30.0
 70
   192
  0
VERTEX
  5
AC0D
  8
0
 10
-144.9999999999999
 20
251.1473670974873
 30
-30.0
 70
   192
  0
VERTEX
  5
AC0E
  8
0
 10
-144.9999999999999
 20
251.1473670974873
 30
-10.0
 70
   192
  0
VERTEX
  5
AC0F
  8
0
 10
-251.1473670974872
 20
145.0000000000002
 30
-10.0
 70
   192
  0
VERTEX
  5
AC10
  8
0
 10
-290.0000000000001
 20
0.0000000000000355
 30
-30.0
 70
   192
  0
VERTEX
  5
AC11
  8
0
 10
-290.0000000000001
 20
0.0000000000000355
 30
-10.0
 70
   192
  0
VERTEX
  5
AC12
  8
0
 10
0.0000000000000805
 20
290.0000000000001
 30
-30.0
 70
   192
  0
VERTEX
  5
AC13
  8
0
 10
0.0000000000000805
 20
290.0000000000001
 30
-10.0
 70
   192
  0
VERTEX
  5
AC14
  8
0
 10
290.0000000000001
 20
0.0
 30
-30.0
 70
   192
  0
VERTEX
  5
AC15
  8
0
 10
290.0000000000001
 20
0.0
 30
-10.0
 70
   192
  0
VERTEX
  5
AC16
  8
0
 10
0.0
 20
0.0
 30
0.0
 70
   128
 71
     1
 72
     2
 73
    -3
  0
VERTEX
  5
AC17
  8
0
 10
0.0
 20
0.0
 30
0.0
 70
   128
 71
     4
 72
    -1
 73
     3
  0
VERTEX
  5
AC18
  8
0
 10
0.0
 20
0.0
 30
0.0
 70
   128
 71
     5
 72
     6
 73
    -7
  0
VERTEX
  5
AC19
  8
0
 10
0.0
 20
0.0
 30
0.0
 70
   128
 71
     8
 72
    -5
 73
     7
  0
VERTEX
  5
AC1A
  8
0
 10
0.0
 20
0.0
 30
0.0
 70
   128
 71
     9
 72
     5
 73
    -8
  0
VERTEX
  5
AC1B
  8
0
 10
0.0
 20
0.0
 30
0.0
 70
   128
 71
    10
 72
    -9
 73
     8
  0
VERTEX
  5
AC1C
  8
0
 10
0.0
 20
0.0
 30
0.0
 70
   128
 71
     6
 72
    11
 73
   -12
  0
VERTEX
  5
AC1D
  8
0
 10
0.0
 20
0.0
 30
0.0
 70
   128
 71
     7
 72
    -6
 73
    12
  0
VERTEX
  5
AC1E
  8
0
 10
0.0
 20
0.0
 30
0.0
 70
   128
 71
    11
 72
     1
 73
    -4
  0
VERTEX
  5
AC1F
  8
0
 10
0.0
 20
0.0
 30
0.0
 70
   128
 71
    12
 72
   -11
 73
     4
  0
VERTEX
  5
AC20
  8
0
 10
0.0
 20
0.0
 30
0.0
 70
   128
 71
     2
 72
    13
 73
   -14
  0
VERTEX
  5
AC21
  8
0
 10
0.0
 20
0.0
 30
0.0
 70
   128
 71
     3
 72
    -2
 73
    14
  0
SEQEND
  5
AE50
  8
0
  0
POLYLINE
  5
AC22
  8
0
 66
     1
 10
0.0
 20
0.0
 30
0.0
 70
    64
 71
    12
 72
    10
  0
VERTEX
  5
AC23
  8
0
 10
-290.0000000000001
 20
0.0000000000000355
 30
-10.0
 70
   192
  0
VERTEX
  5
AC24
  8
0
 10
-251.1473670974873
 20
-145.0
 30
-10.0
 70
   192
  0
VERTEX
  5
AC25
  8
0
 10
-145.0000000000001
 20
-251.1473670974872
 30
-10.0
 70
   192
  0
VERTEX
  5
AC26
  8
0
 10
-0.0000000000001127
 20
-290.0000000000001
 30
-10.0
 70
   192
  0
VERTEX
  5
AC27
  8
0
 10
144.9999999999999
 20
-251.1473670974873
 30
-10.0
 70
   192
  0
VERTEX
  5
AC28
  8
0
 10
251.1473670974872
 20
-145.0000000000002
 30
-10.0
 70
   192
  0
VERTEX
  5
AC29
  8
0
 10
290.0000000000001
 20
0.0
 30
-10.0
 70
   192
  0
VERTEX
  5
AC2A
  8
0
 10
251.1473670974873
 20
145.0
 30
-10.0
 70
   192
  0
VERTEX
  5
AC2B
  8
0
 10
145.0000000000001
 20
251.1473670974872
 30
-10.0
 70
   192
  0
VERTEX
  5
AC2C
  8
0
 10
0.0000000000000805
 20
290.0000000000001
 30
-10.0
 70
   192
  0
VERTEX
  5
AC2D
  8
0
 10
-144.9999999999999
 20
251.1473670974873
 30
-10.0
 70
   192
  0
VERTEX
  5
AC2E
  8
0
 10
-251.1473670974872
 20
145.0000000000002
 30
-10.0
 70
   192
  0
VERTEX
  5
AC2F
  8
0
 10
0.0
 20
0.0
 30
0.0
 70
   128
 71
     1
 72
    12
 73
   -11
  0
VERTEX
  5
AC30
  8
0
 10
0.0
 20
0.0
 30
0.0
 70
   128
 71
    -1
 72
    11
 73
   -10
  0
VERTEX
  5
AC31
  8
0
 10
0.0
 20
0.0
 30
0.0
 70
   128
 71
    -1
 72
    10
 73
    -9
  0
VERTEX
  5
AC32
  8
0
 10
0.0
 20
0.0
 30
0.0
 70
   128
 71
    -1
 72
     9
 73
    -8
  0
VERTEX
  5
AC33
  8
0
 10
0.0
 20
0.0
 30
0.0
 70
   128
 71
    -1
 72
     8
 73
    -7
  0
VERTEX
  5
AC34
  8
0
 10
0.0
 20
0.0
 30
0.0
 70
   128
 71
    -1
 72
     7
 73
    -6
  0
VERTEX
  5
AC35
  8
0
 10
0.0
 20
0.0
 30
0.0
 70
   128
 71
    -1
 72
     6
 73
    -5
  0
VERTEX
  5
AC36
  8
0
 10
0.0
 20
0.0
 30
0.0
 70
   128
 71
    -1
 72
     5
 73
    -4
  0
VERTEX
  5
AC37
  8
0
 10
0.0
 20
0.0
 30
0.0
 70
   128
 71
    -1
 72
     4
 73
    -3
  0
VERTEX
  5
AC38
  8
0
 10
0.0
 20
0.0
 30
0.0
 70
   128
 71
    -1
 72
     3
 73
     2
  0
SEQEND
  5
AE51
  8
0
  0
ENDBLK
  5
AE4A
  8
0
  0
BLOCK
  8
0
  2
*X2
 70
     1
 10
0.0
 20
0.0
 30
0.0
  3
*X2
  1

  0
POLYLINE
  5
AC3A
  8
0
 66
     1
 10
0.0
 20
0.0
 30
0.0
 70
    64
 71
     6
 72
     4
  0
VERTEX
  5
AC3B
  8
0
 10
-108.0
 20
170.0000000000001
 30
-20.0
 70
   192
  0
VERTEX
  5
AC3C
  8
0
 10
-142.0
 20
170.0
 30
-20.0
 70
   192
  0
VERTEX
  5
AC3D
  8
0
 10
-142.0
 20
170.0
 30
-13.0
 70
   192
  0
VERTEX
  5
AC3E
  8
0
 10
-145.0
 20
170.0
 30
-13.0
 70
   192
  0
VERTEX
  5
AC3F
  8
0
 10
-145.0
 20
170.0
 30
-23.0
 70
   192
  0
VERTEX
  5
AC40
  8
0
 10
-108.0
 20
170.0000000000001
 30
-23.0
 70
   192
  0
VERTEX
  5
AC41
  8
0
 10
0.0
 20
0.0
 30
0.0
 70
   128
 71
     6
 72
     1
 73
    -2
  0
VERTEX
  5
AC42
  8
0
 10
0.0
 20
0.0
 30
0.0
 70
   128
 71
     5
 72
    -6
 73
    -2
  0
VERTEX
  5
AC43
  8
0
 10
0.0
 20
0.0
 30
0.0
 70
   128
 71
     3
 72
     4
 73
    -5
  0
VERTEX
  5
AC44
  8
0
 10
0.0
 20
0.0
 30
0.0
 70
   128
 71
     2
 72
    -3
 73
    -5
  0
SEQEND
  5
AE54
  8
0
  0
POLYLINE
  5
AC45
  8
0
 66
     1
 10
0.0
 20
0.0
 30
0.0
 70
    64
 71
     6
 72
     4
  0
VERTEX
  5
AC46
  8
0
 10
-145.0
 20
135.0
 30
-10.0
 70
   192
  0
VERTEX
  5
AC47
  8
0
 10
-145.0
 20
195.0000000000001
 30
-10.0
 70
   192
  0
VERTEX
  5
AC48
  8
0
 10
-145.0
 20
195.0000000000001
 30
-23.0
 70
   192
  0
VERTEX
  5
AC49
  8
0
 10
-145.0
 20
170.0
 30
-23.0
 70
   192
  0
VERTEX
  5
AC4A
  8
0
 10
-145.0
 20
170.0
 30
-13.0
 70
   192
  0
VERTEX
  5
AC4B
  8
0
 10
-145.0
 20
135.0
 30
-13.0
 70
   192
  0
VERTEX
  5
AC4C
  8
0
 10
0.0
 20
0.0
 30
0.0
 70
   128
 71
     3
 72
     4
 73
    -5
  0
VERTEX
  5
AC4D
  8
0
 10
0.0
 20
0.0
 30
0.0
 70
   128
 71
     2
 72
    -3
 73
    -5
  0
VERTEX
  5
AC4E
  8
0
 10
0.0
 20
0.0
 30
0.0
 70
   128
 71
     6
 72
     1
 73
    -2
  0
VERTEX
  5
AC4F
  8
0
 10
0.0
 20
0.0
 30
0.0
 70
   128
 71
     5
 72
    -6
 73
    -2
  0
SEQEND
  5
AE55
  8
0
  0
POLYLINE
  5
AC50
  8
0
 66
     1
 10
0.0
 20
0.0
 30
0.0
 70
    64
 71
     4
 72
     2
  0
VERTEX
  5
AC51
  8
0
 10
-145.0
 20
195.0000000000001
 30
-10.0
 70
   192
  0
VERTEX
  5
AC52
  8
0
 10
-145.0
 20
195.0000000000001
 30
-23.0
 70
   192
  0
VERTEX
  5
AC53
  8
0
 10
-65.00000000000001
 20
195.0000000000001
 30
-23.0
 70
   192
  0
VERTEX
  5
AC54
  8
0
 10
-65.00000000000001
 20
195.0000000000001
 30
-10.0
 70
   192
  0
VERTEX
  5
AC55
  8
0
 10
0.0
 20
0.0
 30
0.0
 70
   128
 71
     1
 72
     4
 73
    -3
  0
VERTEX
  5
AC56
  8
0
 10
0.0
 20
0.0
 30
0.0
 70
   128
 71
    -1
 72
     3
 73
     2
  0
SEQEND
  5
AE56
  8
0
  0
POLYLINE
  5
AC57
  8
0
 66
     1
 10
0.0
 20
0.0
 30
0.0
 70
    64
 71
     6
 72
     4
  0
VERTEX
  5
AC58
  8
0
 10
-65.00000000000001
 20
195.0000000000001
 30
-10.0
 70
   192
  0
VERTEX
  5
AC59
  8
0
 10
-65.00000000000001
 20
195.0000000000001
 30
-23.0
 70
   192
  0
VERTEX
  5
AC5A
  8
0
 10
-65.00000000000001
 20
170.0
 30
-23.0
 70
   192
  0
VERTEX
  5
AC5B
  8
0
 10
-65.00000000000001
 20
170.0
 30
-13.0
 70
   192
  0
VERTEX
  5
AC5C
  8
0
 10
-65.0
 20
135.0
 30
-13.0
 70
   192
  0
VERTEX
  5
AC5D
  8
0
 10
-65.0
 20
135.0
 30
-10.0
 70
   192
  0
VERTEX
  5
AC5E
  8
0
 10
0.0
 20
0.0
 30
0.0
 70
   128
 71
     4
 72
     3
 73
    -2
  0
VERTEX
  5
AC5F
  8
0
 10
0.0
 20
0.0
 30
0.0
 70
   128
 71
    -4
 72
     2
 73
    -1
  0
VERTEX
  5
AC60
  8
0
 10
0.0
 20
0.0
 30
0.0
 70
   128
 71
     1
 72
     6
 73
    -5
  0
VERTEX
  5
AC61
  8
0
 10
0.0
 20
0.0
 30
0.0
 70
   128
 71
    -1
 72
     5
 73
    -4
  0
SEQEND
  5
AE57
  8
0
  0
POLYLINE
  5
AC62
  8
0
 66
     1
 10
0.0
 20
0.0
 30
0.0
 70
    64
 71
     4
 72
     2
  0
VERTEX
  5
AC63
  8
0
 10
-65.0
 20
135.0
 30
-10.0
 70
   192
  0
VERTEX
  5
AC64
  8
0
 10
-145.0
 20
135.0
 30
-10.0
 70
   192
  0
VERTEX
  5
AC65
  8
0
 10
-145.0
 20
135.0
 30
-13.0
 70
   192
  0
VERTEX
  5
AC66
  8
0
 10
-65.0
 20
135.0
 30
-13.0
 70
   192
  0
VERTEX
  5
AC67
  8
0
 10
0.0
 20
0.0
 30
0.0
 70
   128
 71
     3
 72
     4
 73
    -1
  0
VERTEX
  5
AC68
  8
0
 10
0.0
 20
0.0
 30
0.0
 70
   128
 71
     2
 72
    -3
 73
     1
  0
SEQEND
  5
AE58
  8
0
  0
POLYLINE
  5
AC69
  8
0
 66
     1
 10
0.0
 20
0.0
 30
0.0
 70
    64
 71
     8
 72
     6
  0
VERTEX
  5
AC6A
  8
0
 10
-68.00000000000001
 20
192.0000000000001
 30
-13.0
 70
   192
  0
VERTEX
  5
AC6B
  8
0
 10
-142.0
 20
192.0000000000001
 30
-13.0
 70
   192
  0
VERTEX
  5
AC6C
  8
0
 10
-142.0
 20
170.0
 30
-13.0
 70
   192
  0
VERTEX
  5
AC6D
  8
0
 10
-145.0
 20
170.0
 30
-13.0
 70
   192
  0
VERTEX
  5
AC6E
  8
0
 10
-145.0
 20
135.0
 30
-13.0
 70
   192
  0
VERTEX
  5
AC6F
  8
0
 10
-65.0
 20
135.0
 30
-13.0
 70
   192
  0
VERTEX
  5
AC70
  8
0
 10
-65.00000000000001
 20
170.0
 30
-13.0
 70
   192
  0
VERTEX
  5
AC71
  8
0
 10
-68.00000000000001
 20
170.0
 30
-13.0
 70
   192
  0
VERTEX
  5
AC72
  8
0
 10
0.0
 20
0.0
 30
0.0
 70
   128
 71
     8
 72
     7
 73
    -6
  0
VERTEX
  5
AC73
  8
0
 10
0.0
 20
0.0
 30
0.0
 70
   128
 71
     3
 72
     2
 73
    -1
  0
VERTEX
  5
AC74
  8
0
 10
0.0
 20
0.0
 30
0.0
 70
   128
 71
    -3
 72
     1
 73
    -8
  0
VERTEX
  5
AC75
  8
0
 10
0.0
 20
0.0
 30
0.0
 70
   128
 71
    -8
 72
     6
 73
    -5
  0
VERTEX
  5
AC76
  8
0
 10
0.0
 20
0.0
 30
0.0
 70
   128
 71
    -8
 72
    -5
 73
    -3
  0
VERTEX
  5
AC77
  8
0
 10
0.0
 20
0.0
 30
0.0
 70
   128
 71
     5
 72
     4
 73
    -3
  0
SEQEND
  5
AE59
  8
0
  0
POLYLINE
  5
AC78
  8
0
 66
     1
 10
0.0
 20
0.0
 30
0.0
 70
    64
 71
     4
 72
     2
  0
VERTEX
  5
AC79
  8
0
 10
-145.0
 20
195.0000000000001
 30
-10.0
 70
   192
  0
VERTEX
  5
AC7A
  8
0
 10
-145.0
 20
135.0
 30
-10.0
 70
   192
  0
VERTEX
  5
AC7B
  8
0
 10
-65.0
 20
135.0
 30
-10.0
 70
   192
  0
VERTEX
  5
AC7C
  8
0
 10
-65.00000000000001
 20
195.0000000000001
 30
-10.0
 70
   192
  0
VERTEX
  5
AC7D
  8
0
 10
0.0
 20
0.0
 30
0.0
 70
   128
 71
     3
 72
     4
 73
    -1
  0
VERTEX
  5
AC7E
  8
0
 10
0.0
 20
0.0
 30
0.0
 70
   128
 71
     2
 72
    -3
 73
     1
  0
SEQEND
  5
AE5A
  8
0
  0
POLYLINE
  5
AC7F
  8
0
 66
     1
 10
0.0
 20
0.0
 30
0.0
 70
    64
 71
     4
 72
     2
  0
VERTEX
  5
AC80
  8
0
 10
-102.0
 20
190.0000000000001
 30
-20.0
 70
   192
  0
VERTEX
  5
AC81
  8
0
 10
-108.0
 20
190.0000000000001
 30
-20.0
 70
   192
  0
VERTEX
  5
AC82
  8
0
 10
-108.0
 20
190.0000000000001
 30
-23.0
 70
   192
  0
VERTEX
  5
AC83
  8
0
 10
-102.0
 20
190.0000000000001
 30
-23.0
 70
   192
  0
VERTEX
  5
AC84
  8
0
 10
0.0
 20
0.0
 30
0.0
 70
   128
 71
     3
 72
     4
 73
    -1
  0
VERTEX
  5
AC85
  8
0
 10
0.0
 20
0.0
 30
0.0
 70
   128
 71
     2
 72
    -3
 73
     1
  0
SEQEND
  5
AE5B
  8
0
  0
POLYLINE
  5
AC86
  8
0
 66
     1
 10
0.0
 20
0.0
 30
0.0
 70
    64
 71
     4
 72
     2
  0
VERTEX
  5
AC87
  8
0
 10
-108.0
 20
190.0000000000001
 30
-20.0
 70
   192
  0
VERTEX
  5
AC88
  8
0
 10
-108.0
 20
170.0000000000001
 30
-20.0
 70
   192
  0
VERTEX
  5
AC89
  8
0
 10
-108.0
 20
170.0000000000001
 30
-23.0
 70
   192
  0
VERTEX
  5
AC8A
  8
0
 10
-108.0
 20
190.0000000000001
 30
-23.0
 70
   192
  0
VERTEX
  5
AC8B
  8
0
 10
0.0
 20
0.0
 30
0.0
 70
   128
 71
     3
 72
     4
 73
    -1
  0
VERTEX
  5
AC8C
  8
0
 10
0.0
 20
0.0
 30
0.0
 70
   128
 71
     2
 72
    -3
 73
     1
  0
SEQEND
  5
AE5C
  8
0
  0
POLYLINE
  5
AC8D
  8
0
 66
     1
 10
0.0
 20
0.0
 30
0.0
 70
    64
 71
     6
 72
     4
  0
VERTEX
  5
AC8E
  8
0
 10
-68.00000000000001
 20
170.0
 30
-13.0
 70
   192
  0
VERTEX
  5
AC8F
  8
0
 10
-68.00000000000001
 20
170.0
 30
-20.0
 70
   192
  0
VERTEX
  5
AC90
  8
0
 10
-102.0
 20
170.0000000000001
 30
-20.0
 70
   192
  0
VERTEX
  5
AC91
  8
0
 10
-102.0
 20
170.0000000000001
 30
-23.0
 70
   192
  0
VERTEX
  5
AC92
  8
0
 10
-65.00000000000001
 20
170.0
 30
-23.0
 70
   192
  0
VERTEX
  5
AC93
  8
0
 10
-65.00000000000001
 20
170.0
 30
-13.0
 70
   192
  0
VERTEX
  5
AC94
  8
0
 10
0.0
 20
0.0
 30
0.0
 70
   128
 71
     6
 72
     1
 73
    -2
  0
VERTEX
  5
AC95
  8
0
 10
0.0
 20
0.0
 30
0.0
 70
   128
 71
     5
 72
    -6
 73
    -2
  0
VERTEX
  5
AC96
  8
0
 10
0.0
 20
0.0
 30
0.0
 70
   128
 71
     3
 72
     4
 73
    -5
  0
VERTEX
  5
AC97
  8
0
 10
0.0
 20
0.0
 30
0.0
 70
   128
 71
     2
 72
    -3
 73
    -5
  0
SEQEND
  5
AE5D
  8
0
  0
POLYLINE
  5
AC98
  8
0
 66
     1
 10
0.0
 20
0.0
 30
0.0
 70
    64
 71
     4
 72
     2
  0
VERTEX
  5
AC99
  8
0
 10
-102.0
 20
170.0000000000001
 30
-20.0
 70
   192
  0
VERTEX
  5
AC9A
  8
0
 10
-102.0
 20
190.0000000000001
 30
-20.0
 70
   192
  0
VERTEX
  5
AC9B
  8
0
 10
-102.0
 20
190.0000000000001
 30
-23.0
 70
   192
  0
VERTEX
  5
AC9C
  8
0
 10
-102.0
 20
170.0000000000001
 30
-23.0
 70
   192
  0
VERTEX
  5
AC9D
  8
0
 10
0.0
 20
0.0
 30
0.0
 70
   128
 71
     3
 72
     4
 73
    -1
  0
VERTEX
  5
AC9E
  8
0
 10
0.0
 20
0.0
 30
0.0
 70
   128
 71
     2
 72
    -3
 73
     1
  0
SEQEND
  5
AE5E
  8
0
  0
POLYLINE
  5
AC9F
  8
0
 66
     1
 10
0.0
 20
0.0
 30
0.0
 70
    64
 71
     8
 72
     6
  0
VERTEX
  5
ACA0
  8
0
 10
-102.0
 20
190.0000000000001
 30
-23.0
 70
   192
  0
VERTEX
  5
ACA1
  8
0
 10
-108.0
 20
190.0000000000001
 30
-23.0
 70
   192
  0
VERTEX
  5
ACA2
  8
0
 10
-108.0
 20
170.0000000000001
 30
-23.0
 70
   192
  0
VERTEX
  5
ACA3
  8
0
 10
-145.0
 20
170.0
 30
-23.0
 70
   192
  0
VERTEX
  5
ACA4
  8
0
 10
-145.0
 20
195.0000000000001
 30
-23.0
 70
   192
  0
VERTEX
  5
ACA5
  8
0
 10
-65.00000000000001
 20
195.0000000000001
 30
-23.0
 70
   192
  0
VERTEX
  5
ACA6
  8
0
 10
-65.00000000000001
 20
170.0
 30
-23.0
 70
   192
  0
VERTEX
  5
ACA7
  8
0
 10
-102.0
 20
170.0000000000001
 30
-23.0
 70
   192
  0
VERTEX
  5
ACA8
  8
0
 10
0.0
 20
0.0
 30
0.0
 70
   128
 71
     7
 72
     8
 73
    -1
  0
VERTEX
  5
ACA9
  8
0
 10
0.0
 20
0.0
 30
0.0
 70
   128
 71
     6
 72
    -7
 73
    -1
  0
VERTEX
  5
ACAA
  8
0
 10
0.0
 20
0.0
 30
0.0
 70
   128
 71
    -6
 72
     1
 73
    -2
  0
VERTEX
  5
ACAB
  8
0
 10
0.0
 20
0.0
 30
0.0
 70
   128
 71
     5
 72
    -6
 73
    -2
  0
VERTEX
  5
ACAC
  8
0
 10
0.0
 20
0.0
 30
0.0
 70
   128
 71
     3
 72
     4
 73
    -5
  0
VERTEX
  5
ACAD
  8
0
 10
0.0
 20
0.0
 30
0.0
 70
   128
 71
     2
 72
    -3
 73
    -5
  0
SEQEND
  5
AE5F
  8
0
  0
POLYLINE
  5
ACAE
  8
0
 66
     1
 10
0.0
 20
0.0
 30
0.0
 70
    64
 71
     4
 72
     2
  0
VERTEX
  5
ACAF
  8
0
 10
-142.0
 20
170.0
 30
-13.0
 70
   192
  0
VERTEX
  5
ACB0
  8
0
 10
-142.0
 20
192.0000000000001
 30
-13.0
 70
   192
  0
VERTEX
  5
ACB1
  8
0
 10
-142.0
 20
192.0000000000001
 30
-20.0
 70
   192
  0
VERTEX
  5
ACB2
  8
0
 10
-142.0
 20
170.0
 30
-20.0
 70
   192
  0
VERTEX
  5
ACB3
  8
0
 10
0.0
 20
0.0
 30
0.0
 70
   128
 71
     1
 72
     4
 73
    -3
  0
VERTEX
  5
ACB4
  8
0
 10
0.0
 20
0.0
 30
0.0
 70
   128
 71
    -1
 72
     3
 73
     2
  0
SEQEND
  5
AE60
  8
0
  0
POLYLINE
  5
ACB5
  8
0
 66
     1
 10
0.0
 20
0.0
 30
0.0
 70
    64
 71
     4
 72
     2
  0
VERTEX
  5
ACB6
  8
0
 10
-68.00000000000001
 20
192.0000000000001
 30
-13.0
 70
   192
  0
VERTEX
  5
ACB7
  8
0
 10
-142.0000000000001
 20
192.0000000000001
 30
-13.0
 70
   192
  0
VERTEX
  5
ACB8
  8
0
 10
-142.0
 20
192.0000000000001
 30
-20.0
 70
   192
  0
VERTEX
  5
ACB9
  8
0
 10
-68.00000000000001
 20
192.0000000000001
 30
-20.0
 70
   192
  0
VERTEX
  5
ACBA
  8
0
 10
0.0
 20
0.0
 30
0.0
 70
   128
 71
     3
 72
     4
 73
    -1
  0
VERTEX
  5
ACBB
  8
0
 10
0.0
 20
0.0
 30
0.0
 70
   128
 71
     2
 72
    -3
 73
     1
  0
SEQEND
  5
AE61
  8
0
  0
POLYLINE
  5
ACBC
  8
0
 66
     1
 10
0.0
 20
0.0
 30
0.0
 70
    64
 71
     4
 72
     2
  0
VERTEX
  5
ACBD
  8
0
 10
-68.00000000000001
 20
170.0
 30
-13.0
 70
   192
  0
VERTEX
  5
ACBE
  8
0
 10
-68.00000000000001
 20
192.0000000000001
 30
-13.0
 70
   192
  0
VERTEX
  5
ACBF
  8
0
 10
-68.00000000000001
 20
192.0000000000001
 30
-20.0
 70
   192
  0
VERTEX
  5
ACC0
  8
0
 10
-68.00000000000001
 20
170.0
 30
-20.0
 70
   192
  0
VERTEX
  5
ACC1
  8
0
 10
0.0
 20
0.0
 30
0.0
 70
   128
 71
     3
 72
     4
 73
    -1
  0
VERTEX
  5
ACC2
  8
0
 10
0.0
 20
0.0
 30
0.0
 70
   128
 71
     2
 72
    -3
 73
     1
  0
SEQEND
  5
AE62
  8
0
  0
POLYLINE
  5
ACC3
  8
0
 66
     1
 10
0.0
 20
0.0
 30
0.0
 70
    64
 71
     8
 72
     6
  0
VERTEX
  5
ACC4
  8
0
 10
-108.0
 20
190.0000000000001
 30
-20.0
 70
   192
  0
VERTEX
  5
ACC5
  8
0
 10
-108.0
 20
170.0000000000001
 30
-20.0
 70
   192
  0
VERTEX
  5
ACC6
  8
0
 10
-142.0
 20
170.0
 30
-20.0
 70
   192
  0
VERTEX
  5
ACC7
  8
0
 10
-142.0
 20
192.0000000000001
 30
-20.0
 70
   192
  0
VERTEX
  5
ACC8
  8
0
 10
-68.00000000000001
 20
192.0000000000001
 30
-20.0
 70
   192
  0
VERTEX
  5
ACC9
  8
0
 10
-68.00000000000001
 20
170.0
 30
-20.0
 70
   192
  0
VERTEX
  5
ACCA
  8
0
 10
-102.0
 20
170.0000000000001
 30
-20.0
 70
   192
  0
VERTEX
  5
ACCB
  8
0
 10
-102.0
 20
190.0000000000001
 30
-20.0
 70
   192
  0
VERTEX
  5
ACCC
  8
0
 10
0.0
 20
0.0
 30
0.0
 70
   128
 71
     8
 72
     7
 73
    -6
  0
VERTEX
  5
ACCD
  8
0
 10
0.0
 20
0.0
 30
0.0
 70
   128
 71
    -8
 72
     6
 73
    -5
  0
VERTEX
  5
ACCE
  8
0
 10
0.0
 20
0.0
 30
0.0
 70
   128
 71
    -5
 72
     1
 73
    -8
  0
VERTEX
  5
ACCF
  8
0
 10
0.0
 20
0.0
 30
0.0
 70
   128
 71
     5
 72
    -4
 73
    -1
  0
VERTEX
  5
ACD0
  8
0
 10
0.0
 20
0.0
 30
0.0
 70
   128
 71
     4
 72
     3
 73
    -2
  0
VERTEX
  5
ACD1
  8
0
 10
0.0
 20
0.0
 30
0.0
 70
   128
 71
    -4
 72
     2
 73
    -1
  0
SEQEND
  5
AE63
  8
0
  0
ENDBLK
  5
AE53
  8
0
  0
BLOCK
  8
0
  2
*X3
 70
     1
 10
0.0
 20
0.0
 30
0.0
  3
*X3
  1

  0
POLYLINE
  5
ACD3
  8
0
 66
     1
 10
0.0
 20
0.0
 30
0.0
 70
    64
 71
     8
 72
     6
  0
VERTEX
  5
ACD4
  8
0
 10
64.9999999999999
 20
170.0000000000001
 30
-13.0
 70
   192
  0
VERTEX
  5
ACD5
  8
0
 10
64.9999999999999
 20
135.0
 30
-13.0
 70
   192
  0
VERTEX
  5
ACD6
  8
0
 10
145.0000000000001
 20
135.0
 30
-13.0
 70
   192
  0
VERTEX
  5
ACD7
  8
0
 10
145.0000000000001
 20
170.0000000000001
 30
-13.0
 70
   192
  0
VERTEX
  5
ACD8
  8
0
 10
142.0000000000001
 20
170.0000000000001
 30
-13.0
 70
   192
  0
VERTEX
  5
ACD9
  8
0
 10
142.0000000000001
 20
192.0000000000001
 30
-13.0
 70
   192
  0
VERTEX
  5
ACDA
  8
0
 10
67.99999999999991
 20
192.0000000000001
 30
-13.0
 70
   192
  0
VERTEX
  5
ACDB
  8
0
 10
67.99999999999991
 20
170.0000000000001
 30
-13.0
 70
   192
  0
VERTEX
  5
ACDC
  8
0
 10
0.0
 20
0.0
 30
0.0
 70
   128
 71
     5
 72
     4
 73
    -3
  0
VERTEX
  5
ACDD
  8
0
 10
0.0
 20
0.0
 30
0.0
 70
   128
 71
    -5
 72
    -3
 73
    -8
  0
VERTEX
  5
ACDE
  8
0
 10
0.0
 20
0.0
 30
0.0
 70
   128
 71
     8
 72
     7
 73
    -6
  0
VERTEX
  5
ACDF
  8
0
 10
0.0
 20
0.0
 30
0.0
 70
   128
 71
    -8
 72
     6
 73
    -5
  0
VERTEX
  5
ACE0
  8
0
 10
0.0
 20
0.0
 30
0.0
 70
   128
 71
     3
 72
    -2
 73
    -8
  0
VERTEX
  5
ACE1
  8
0
 10
0.0
 20
0.0
 30
0.0
 70
   128
 71
     2
 72
     1
 73
    -8
  0
SEQEND
  5
AE66
  8
0
  0
POLYLINE
  5
ACE2
  8
0
 66
     1
 10
0.0
 20
0.0
 30
0.0
 70
    64
 71
     6
 72
     4
  0
VERTEX
  5
ACE3
  8
0
 10
64.9999999999999
 20
135.0
 30
-10.0
 70
   192
  0
VERTEX
  5
ACE4
  8
0
 10
64.9999999999999
 20
195.0000000000001
 30
-10.0
 70
   192
  0
VERTEX
  5
ACE5
  8
0
 10
64.9999999999999
 20
195.0000000000001
 30
-23.0
 70
   192
  0
VERTEX
  5
ACE6
  8
0
 10
64.9999999999999
 20
170.0000000000001
 30
-23.0
 70
   192
  0
VERTEX
  5
ACE7
  8
0
 10
64.9999999999999
 20
170.0000000000001
 30
-13.0
 70
   192
  0
VERTEX
  5
ACE8
  8
0
 10
64.9999999999999
 20
135.0
 30
-13.0
 70
   192
  0
VERTEX
  5
ACE9
  8
0
 10
0.0
 20
0.0
 30
0.0
 70
   128
 71
     3
 72
     4
 73
    -5
  0
VERTEX
  5
ACEA
  8
0
 10
0.0
 20
0.0
 30
0.0
 70
   128
 71
     2
 72
    -3
 73
    -5
  0
VERTEX
  5
ACEB
  8
0
 10
0.0
 20
0.0
 30
0.0
 70
   128
 71
     6
 72
     1
 73
    -2
  0
VERTEX
  5
ACEC
  8
0
 10
0.0
 20
0.0
 30
0.0
 70
   128
 71
     5
 72
    -6
 73
    -2
  0
SEQEND
  5
AE67
  8
0
  0
POLYLINE
  5
ACED
  8
0
 66
     1
 10
0.0
 20
0.0
 30
0.0
 70
    64
 71
     4
 72
     2
  0
VERTEX
  5
ACEE
  8
0
 10
64.9999999999999
 20
195.0000000000001
 30
-10.0
 70
   192
  0
VERTEX
  5
ACEF
  8
0
 10
64.99999999999989
 20
195.0000000000001
 30
-23.0
 70
   192
  0
VERTEX
  5
ACF0
  8
0
 10
145.0000000000001
 20
195.0000000000001
 30
-23.0
 70
   192
  0
VERTEX
  5
ACF1
  8
0
 10
145.0000000000001
 20
195.0000000000001
 30
-10.0
 70
   192
  0
VERTEX
  5
ACF2
  8
0
 10
0.0
 20
0.0
 30
0.0
 70
   128
 71
     1
 72
     4
 73
    -3
  0
VERTEX
  5
ACF3
  8
0
 10
0.0
 20
0.0
 30
0.0
 70
   128
 71
    -1
 72
     3
 73
     2
  0
SEQEND
  5
AE68
  8
0
  0
POLYLINE
  5
ACF4
  8
0
 66
     1
 10
0.0
 20
0.0
 30
0.0
 70
    64
 71
     6
 72
     4
  0
VERTEX
  5
ACF5
  8
0
 10
145.0000000000001
 20
195.0000000000001
 30
-10.0
 70
   192
  0
VERTEX
  5
ACF6
  8
0
 10
145.0000000000001
 20
195.0000000000001
 30
-23.0
 70
   192
  0
VERTEX
  5
ACF7
  8
0
 10
145.0000000000001
 20
170.0000000000001
 30
-23.0
 70
   192
  0
VERTEX
  5
ACF8
  8
0
 10
145.0000000000001
 20
170.0000000000001
 30
-13.0
 70
   192
  0
VERTEX
  5
ACF9
  8
0
 10
145.0000000000001
 20
135.0
 30
-13.0
 70
   192
  0
VERTEX
  5
ACFA
  8
0
 10
145.0000000000001
 20
135.0
 30
-10.0
 70
   192
  0
VERTEX
  5
ACFB
  8
0
 10
0.0
 20
0.0
 30
0.0
 70
   128
 71
     4
 72
     3
 73
    -2
  0
VERTEX
  5
ACFC
  8
0
 10
0.0
 20
0.0
 30
0.0
 70
   128
 71
    -4
 72
     2
 73
    -1
  0
VERTEX
  5
ACFD
  8
0
 10
0.0
 20
0.0
 30
0.0
 70
   128
 71
     1
 72
     6
 73
    -5
  0
VERTEX
  5
ACFE
  8
0
 10
0.0
 20
0.0
 30
0.0
 70
   128
 71
    -1
 72
     5
 73
    -4
  0
SEQEND
  5
AE69
  8
0
  0
POLYLINE
  5
ACFF
  8
0
 66
     1
 10
0.0
 20
0.0
 30
0.0
 70
    64
 71
     4
 72
     2
  0
VERTEX
  5
AD00
  8
0
 10
145.0000000000001
 20
135.0
 30
-10.0
 70
   192
  0
VERTEX
  5
AD01
  8
0
 10
64.9999999999999
 20
135.0
 30
-10.0
 70
   192
  0
VERTEX
  5
AD02
  8
0
 10
64.9999999999999
 20
135.0
 30
-13.0
 70
   192
  0
VERTEX
  5
AD03
  8
0
 10
145.0000000000001
 20
135.0
 30
-13.0
 70
   192
  0
VERTEX
  5
AD04
  8
0
 10
0.0
 20
0.0
 30
0.0
 70
   128
 71
     3
 72
     4
 73
    -1
  0
VERTEX
  5
AD05
  8
0
 10
0.0
 20
0.0
 30
0.0
 70
   128
 71
     2
 72
    -3
 73
     1
  0
SEQEND
  5
AE6A
  8
0
  0
POLYLINE
  5
AD06
  8
0
 66
     1
 10
0.0
 20
0.0
 30
0.0
 70
    64
 71
     4
 72
     2
  0
VERTEX
  5
AD07
  8
0
 10
64.9999999999999
 20
195.0000000000001
 30
-10.0
 70
   192
  0
VERTEX
  5
AD08
  8
0
 10
64.9999999999999
 20
135.0
 30
-10.0
 70
   192
  0
VERTEX
  5
AD09
  8
0
 10
145.0000000000001
 20
135.0
 30
-10.0
 70
   192
  0
VERTEX
  5
AD0A
  8
0
 10
145.0000000000001
 20
195.0000000000001
 30
-10.0
 70
   192
  0
VERTEX
  5
AD0B
  8
0
 10
0.0
 20
0.0
 30
0.0
 70
   128
 71
     3
 72
     4
 73
    -1
  0
VERTEX
  5
AD0C
  8
0
 10
0.0
 20
0.0
 30
0.0
 70
   128
 71
     2
 72
    -3
 73
     1
  0
SEQEND
  5
AE6B
  8
0
  0
POLYLINE
  5
AD0D
  8
0
 66
     1
 10
0.0
 20
0.0
 30
0.0
 70
    64
 71
     4
 72
     2
  0
VERTEX
  5
AD0E
  8
0
 10
102.0
 20
190.0000000000001
 30
-23.0
 70
   192
  0
VERTEX
  5
AD0F
  8
0
 10
102.0
 20
170.0000000000001
 30
-23.0
 70
   192
  0
VERTEX
  5
AD10
  8
0
 10
102.0
 20
170.0000000000001
 30
-20.0
 70
   192
  0
VERTEX
  5
AD11
  8
0
 10
102.0
 20
190.0000000000001
 30
-20.0
 70
   192
  0
VERTEX
  5
AD12
  8
0
 10
0.0
 20
0.0
 30
0.0
 70
   128
 71
     1
 72
     4
 73
    -3
  0
VERTEX
  5
AD13
  8
0
 10
0.0
 20
0.0
 30
0.0
 70
   128
 71
    -1
 72
     3
 73
     2
  0
SEQEND
  5
AE6C
  8
0
  0
POLYLINE
  5
AD14
  8
0
 66
     1
 10
0.0
 20
0.0
 30
0.0
 70
    64
 71
     6
 72
     4
  0
VERTEX
  5
AD15
  8
0
 10
102.0
 20
170.0000000000001
 30
-20.0
 70
   192
  0
VERTEX
  5
AD16
  8
0
 10
102.0
 20
170.0000000000001
 30
-23.0
 70
   192
  0
VERTEX
  5
AD17
  8
0
 10
64.9999999999999
 20
170.0000000000001
 30
-23.0
 70
   192
  0
VERTEX
  5
AD18
  8
0
 10
64.9999999999999
 20
170.0000000000001
 30
-13.0
 70
   192
  0
VERTEX
  5
AD19
  8
0
 10
67.99999999999991
 20
170.0000000000001
 30
-13.0
 70
   192
  0
VERTEX
  5
AD1A
  8
0
 10
67.99999999999991
 20
170.0000000000001
 30
-20.0
 70
   192
  0
VERTEX
  5
AD1B
  8
0
 10
0.0
 20
0.0
 30
0.0
 70
   128
 71
     6
 72
     5
 73
    -4
  0
VERTEX
  5
AD1C
  8
0
 10
0.0
 20
0.0
 30
0.0
 70
   128
 71
    -6
 72
     4
 73
    -3
  0
VERTEX
  5
AD1D
  8
0
 10
0.0
 20
0.0
 30
0.0
 70
   128
 71
     3
 72
     2
 73
    -1
  0
VERTEX
  5
AD1E
  8
0
 10
0.0
 20
0.0
 30
0.0
 70
   128
 71
    -3
 72
     1
 73
    -6
  0
SEQEND
  5
AE6D
  8
0
  0
POLYLINE
  5
AD1F
  8
0
 66
     1
 10
0.0
 20
0.0
 30
0.0
 70
    64
 71
     6
 72
     4
  0
VERTEX
  5
AD20
  8
0
 10
142.0000000000001
 20
170.0000000000001
 30
-13.0
 70
   192
  0
VERTEX
  5
AD21
  8
0
 10
145.0000000000001
 20
170.0000000000001
 30
-13.0
 70
   192
  0
VERTEX
  5
AD22
  8
0
 10
145.0000000000001
 20
170.0000000000001
 30
-23.0
 70
   192
  0
VERTEX
  5
AD23
  8
0
 10
108.0
 20
170.0000000000001
 30
-23.0
 70
   192
  0
VERTEX
  5
AD24
  8
0
 10
108.0
 20
170.0000000000001
 30
-20.0
 70
   192
  0
VERTEX
  5
AD25
  8
0
 10
142.0000000000001
 20
170.0000000000001
 30
-20.0
 70
   192
  0
VERTEX
  5
AD26
  8
0
 10
0.0
 20
0.0
 30
0.0
 70
   128
 71
     6
 72
     5
 73
    -4
  0
VERTEX
  5
AD27
  8
0
 10
0.0
 20
0.0
 30
0.0
 70
   128
 71
    -6
 72
     4
 73
    -3
  0
VERTEX
  5
AD28
  8
0
 10
0.0
 20
0.0
 30
0.0
 70
   128
 71
     3
 72
     2
 73
    -1
  0
VERTEX
  5
AD29
  8
0
 10
0.0
 20
0.0
 30
0.0
 70
   128
 71
    -3
 72
     1
 73
    -6
  0
SEQEND
  5
AE6E
  8
0
  0
POLYLINE
  5
AD2A
  8
0
 66
     1
 10
0.0
 20
0.0
 30
0.0
 70
    64
 71
     4
 72
     2
  0
VERTEX
  5
AD2B
  8
0
 10
108.0
 20
170.0000000000001
 30
-23.0
 70
   192
  0
VERTEX
  5
AD2C
  8
0
 10
108.0
 20
190.0000000000001
 30
-23.0
 70
   192
  0
VERTEX
  5
AD2D
  8
0
 10
108.0
 20
190.0000000000001
 30
-20.0
 70
   192
  0
VERTEX
  5
AD2E
  8
0
 10
108.0
 20
170.0000000000001
 30
-20.0
 70
   192
  0
VERTEX
  5
AD2F
  8
0
 10
0.0
 20
0.0
 30
0.0
 70
   128
 71
     1
 72
     4
 73
    -3
  0
VERTEX
  5
AD30
  8
0
 10
0.0
 20
0.0
 30
0.0
 70
   128
 71
    -1
 72
     3
 73
     2
  0
SEQEND
  5
AE6F
  8
0
  0
POLYLINE
  5
AD31
  8
0
 66
     1
 10
0.0
 20
0.0
 30
0.0
 70
    64
 71
     4
 72
     2
  0
VERTEX
  5
AD32
  8
0
 10
108.0
 20
190.0000000000001
 30
-23.0
 70
   192
  0
VERTEX
  5
AD33
  8
0
 10
102.0
 20
190.0000000000001
 30
-23.0
 70
   192
  0
VERTEX
  5
AD34
  8
0
 10
102.0
 20
190.0000000000001
 30
-20.0
 70
   192
  0
VERTEX
  5
AD35
  8
0
 10
108.0
 20
190.0000000000001
 30
-20.0
 70
   192
  0
VERTEX
  5
AD36
  8
0
 10
0.0
 20
0.0
 30
0.0
 70
   128
 71
     1
 72
     4
 73
    -3
  0
VERTEX
  5
AD37
  8
0
 10
0.0
 20
0.0
 30
0.0
 70
   128
 71
    -1
 72
     3
 73
     2
  0
SEQEND
  5
AE70
  8
0
  0
POLYLINE
  5
AD38
  8
0
 66
     1
 10
0.0
 20
0.0
 30
0.0
 70
    64
 71
     8
 72
     6
  0
VERTEX
  5
AD39
  8
0
 10
102.0
 20
190.0000000000001
 30
-23.0
 70
   192
  0
VERTEX
  5
AD3A
  8
0
 10
102.0
 20
170.0000000000001
 30
-23.0
 70
   192
  0
VERTEX
  5
AD3B
  8
0
 10
64.9999999999999
 20
170.0000000000001
 30
-23.0
 70
   192
  0
VERTEX
  5
AD3C
  8
0
 10
64.9999999999999
 20
195.0000000000001
 30
-23.0
 70
   192
  0
VERTEX
  5
AD3D
  8
0
 10
145.0000000000001
 20
195.0000000000001
 30
-23.0
 70
   192
  0
VERTEX
  5
AD3E
  8
0
 10
145.0000000000001
 20
170.0000000000001
 30
-23.0
 70
   192
  0
VERTEX
  5
AD3F
  8
0
 10
108.0
 20
170.0000000000001
 30
-23.0
 70
   192
  0
VERTEX
  5
AD40
  8
0
 10
108.0
 20
190.0000000000001
 30
-23.0
 70
   192
  0
VERTEX
  5
AD41
  8
0
 10
0.0
 20
0.0
 30
0.0
 70
   128
 71
     6
 72
     7
 73
    -8
  0
VERTEX
  5
AD42
  8
0
 10
0.0
 20
0.0
 30
0.0
 70
   128
 71
     5
 72
    -6
 73
    -8
  0
VERTEX
  5
AD43
  8
0
 10
0.0
 20
0.0
 30
0.0
 70
   128
 71
    -1
 72
     4
 73
    -5
  0
VERTEX
  5
AD44
  8
0
 10
0.0
 20
0.0
 30
0.0
 70
   128
 71
     8
 72
    -1
 73
    -5
  0
VERTEX
  5
AD45
  8
0
 10
0.0
 20
0.0
 30
0.0
 70
   128
 71
     2
 72
     3
 73
    -4
  0
VERTEX
  5
AD46
  8
0
 10
0.0
 20
0.0
 30
0.0
 70
   128
 71
     1
 72
    -2
 73
    -4
  0
SEQEND
  5
AE71
  8
0
  0
POLYLINE
  5
AD47
  8
0
 66
     1
 10
0.0
 20
0.0
 30
0.0
 70
    64
 71
     4
 72
     2
  0
VERTEX
  5
AD48
  8
0
 10
67.99999999999991
 20
170.0000000000001
 30
-13.0
 70
   192
  0
VERTEX
  5
AD49
  8
0
 10
67.99999999999991
 20
192.0000000000001
 30
-13.0
 70
   192
  0
VERTEX
  5
AD4A
  8
0
 10
67.99999999999991
 20
192.0000000000001
 30
-20.0
 70
   192
  0
VERTEX
  5
AD4B
  8
0
 10
67.99999999999991
 20
170.0000000000001
 30
-20.0
 70
   192
  0
VERTEX
  5
AD4C
  8
0
 10
0.0
 20
0.0
 30
0.0
 70
   128
 71
     1
 72
     4
 73
    -3
  0
VERTEX
  5
AD4D
  8
0
 10
0.0
 20
0.0
 30
0.0
 70
   128
 71
    -1
 72
     3
 73
     2
  0
SEQEND
  5
AE72
  8
0
  0
POLYLINE
  5
AD4E
  8
0
 66
     1
 10
0.0
 20
0.0
 30
0.0
 70
    64
 71
     4
 72
     2
  0
VERTEX
  5
AD4F
  8
0
 10
142.0000000000001
 20
192.0000000000001
 30
-13.0
 70
   192
  0
VERTEX
  5
AD50
  8
0
 10
67.99999999999991
 20
192.0000000000001
 30
-13.0
 70
   192
  0
VERTEX
  5
AD51
  8
0
 10
67.99999999999991
 20
192.0000000000001
 30
-20.0
 70
   192
  0
VERTEX
  5
AD52
  8
0
 10
142.0000000000001
 20
192.0000000000001
 30
-20.0
 70
   192
  0
VERTEX
  5
AD53
  8
0
 10
0.0
 20
0.0
 30
0.0
 70
   128
 71
     3
 72
     4
 73
    -1
  0
VERTEX
  5
AD54
  8
0
 10
0.0
 20
0.0
 30
0.0
 70
   128
 71
     2
 72
    -3
 73
     1
  0
SEQEND
  5
AE73
  8
0
  0
POLYLINE
  5
AD55
  8
0
 66
     1
 10
0.0
 20
0.0
 30
0.0
 70
    64
 71
     4
 72
     2
  0
VERTEX
  5
AD56
  8
0
 10
142.0000000000001
 20
170.0000000000001
 30
-13.0
 70
   192
  0
VERTEX
  5
AD57
  8
0
 10
142.0000000000001
 20
192.0000000000001
 30
-13.0
 70
   192
  0
VERTEX
  5
AD58
  8
0
 10
142.0000000000001
 20
192.0000000000001
 30
-20.0
 70
   192
  0
VERTEX
  5
AD59
  8
0
 10
142.0000000000001
 20
170.0000000000001
 30
-20.0
 70
   192
  0
VERTEX
  5
AD5A
  8
0
 10
0.0
 20
0.0
 30
0.0
 70
   128
 71
     3
 72
     4
 73
    -1
  0
VERTEX
  5
AD5B
  8
0
 10
0.0
 20
0.0
 30
0.0
 70
   128
 71
     2
 72
    -3
 73
     1
  0
SEQEND
  5
AE74
  8
0
  0
POLYLINE
  5
AD5C
  8
0
 66
     1
 10
0.0
 20
0.0
 30
0.0
 70
    64
 71
     8
 72
     6
  0
VERTEX
  5
AD5D
  8
0
 10
102.0
 20
170.0000000000001
 30
-20.0
 70
   192
  0
VERTEX
  5
AD5E
  8
0
 10
67.99999999999991
 20
170.0000000000001
 30
-20.0
 70
   192
  0
VERTEX
  5
AD5F
  8
0
 10
67.99999999999991
 20
192.0000000000001
 30
-20.0
 70
   192
  0
VERTEX
  5
AD60
  8
0
 10
142.0000000000001
 20
192.0000000000001
 30
-20.0
 70
   192
  0
VERTEX
  5
AD61
  8
0
 10
142.0000000000001
 20
170.0000000000001
 30
-20.0
 70
   192
  0
VERTEX
  5
AD62
  8
0
 10
108.0
 20
170.0000000000001
 30
-20.0
 70
   192
  0
VERTEX
  5
AD63
  8
0
 10
108.0
 20
190.0000000000001
 30
-20.0
 70
   192
  0
VERTEX
  5
AD64
  8
0
 10
102.0
 20
190.0000000000001
 30
-20.0
 70
   192
  0
VERTEX
  5
AD65
  8
0
 10
0.0
 20
0.0
 30
0.0
 70
   128
 71
     7
 72
     6
 73
    -5
  0
VERTEX
  5
AD66
  8
0
 10
0.0
 20
0.0
 30
0.0
 70
   128
 71
    -7
 72
     5
 73
    -4
  0
VERTEX
  5
AD67
  8
0
 10
0.0
 20
0.0
 30
0.0
 70
   128
 71
    -4
 72
     8
 73
    -7
  0
VERTEX
  5
AD68
  8
0
 10
0.0
 20
0.0
 30
0.0
 70
   128
 71
     4
 72
    -3
 73
    -8
  0
VERTEX
  5
AD69
  8
0
 10
0.0
 20
0.0
 30
0.0
 70
   128
 71
     3
 72
     2
 73
    -1
  0
VERTEX
  5
AD6A
  8
0
 10
0.0
 20
0.0
 30
0.0
 70
   128
 71
    -3
 72
     1
 73
    -8
  0
SEQEND
  5
AE75
  8
0
  0
ENDBLK
  5
AE65
  8
0
  0
BLOCK
  8
0
  2
*X4
 70
     1
 10
0.0
 20
0.0
 30
0.0
  3
*X4
  1

  0
POLYLINE
  5
AD6C
  8
0
 66
     1
 10
0.0
 20
0.0
 30
0.0
 70
    64
 71
    10
 72
     8
  0
VERTEX
  5
AD6D
  8
0
 10
109.9999999999999
 20
-190.0
 30
-11.50000000000001
 70
   192
  0
VERTEX
  5
AD6E
  8
0
 10
109.9999999999999
 20
-190.0
 30
-18.49999999999999
 70
   192
  0
VERTEX
  5
AD6F
  8
0
 10
109.9999999999999
 20
-185.0
 30
-18.49999999999999
 70
   192
  0
VERTEX
  5
AD70
  8
0
 10
109.9999999999999
 20
-185.0
 30
-11.50000000000001
 70
   192
  0
VERTEX
  5
AD71
  8
0
 10
113.4999999999999
 20
-185.0
 30
-15.0
 70
   192
  0
VERTEX
  5
AD72
  8
0
 10
113.4999999999999
 20
-190.0
 30
-15.0
 70
   192
  0
VERTEX
  5
AD73
  8
0
 10
112.4748737341528
 20
-185.0
 30
-12.52512626584709
 70
   192
  0
VERTEX
  5
AD74
  8
0
 10
112.4748737341528
 20
-190.0
 30
-12.52512626584709
 70
   192
  0
VERTEX
  5
AD75
  8
0
 10
112.4748737341528
 20
-185.0
 30
-17.47487373415291
 70
   192
  0
VERTEX
  5
AD76
  8
0
 10
112.4748737341528
 20
-190.0
 30
-17.47487373415291
 70
   192
  0
VERTEX
  5
AD77
  8
0
 10
0.0
 20
0.0
 30
0.0
 70
   128
 71
     7
 72
     4
 73
    -1
  0
VERTEX
  5
AD78
  8
0
 10
0.0
 20
0.0
 30
0.0
 70
   128
 71
    -7
 72
     1
 73
     8
  0
VERTEX
  5
AD79
  8
0
 10
0.0
 20
0.0
 30
0.0
 70
   128
 71
     6
 72
     5
 73
    -7
  0
VERTEX
  5
AD7A
  8
0
 10
0.0
 20
0.0
 30
0.0
 70
   128
 71
    -6
 72
     7
 73
     8
  0
VERTEX
  5
AD7B
  8
0
 10
0.0
 20
0.0
 30
0.0
 70
   128
 71
    10
 72
     9
 73
    -5
  0
VERTEX
  5
AD7C
  8
0
 10
0.0
 20
0.0
 30
0.0
 70
   128
 71
   -10
 72
     5
 73
     6
  0
VERTEX
  5
AD7D
  8
0
 10
0.0
 20
0.0
 30
0.0
 70
   128
 71
     2
 72
     3
 73
    -9
  0
VERTEX
  5
AD7E
  8
0
 10
0.0
 20
0.0
 30
0.0
 70
   128
 71
    -2
 72
     9
 73
    10
  0
SEQEND
  5
AE78
  8
0
  0
POLYLINE
  5
AD7F
  8
0
 66
     1
 10
0.0
 20
0.0
 30
0.0
 70
    64
 71
     8
 72
     6
  0
VERTEX
  5
AD80
  8
0
 10
155.0
 20
-183.6602540378444
 30
-10.0
 70
   192
  0
VERTEX
  5
AD81
  8
0
 10
155.0
 20
-183.6602540378444
 30
-20.0
 70
   192
  0
VERTEX
  5
AD82
  8
0
 10
158.6602540378444
 20
-179.9999999999999
 30
-20.0
 70
   192
  0
VERTEX
  5
AD83
  8
0
 10
158.6602540378444
 20
-179.9999999999999
 30
-10.0
 70
   192
  0
VERTEX
  5
AD84
  8
0
 10
149.9999999999999
 20
-185.0
 30
-10.0
 70
   192
  0
VERTEX
  5
AD85
  8
0
 10
149.9999999999999
 20
-185.0
 30
-20.0
 70
   192
  0
VERTEX
  5
AD86
  8
0
 10
160.0
 20
-174.9999999999999
 30
-20.0
 70
   192
  0
VERTEX
  5
AD87
  8
0
 10
160.0
 20
-174.9999999999999
 30
-10.0
 70
   192
  0
VERTEX
  5
AD88
  8
0
 10
0.0
 20
0.0
 30
0.0
 70
   128
 71
     1
 72
     2
 73
    -3
  0
VERTEX
  5
AD89
  8
0
 10
0.0
 20
0.0
 30
0.0
 70
   128
 71
    -1
 72
     3
 73
     4
  0
VERTEX
  5
AD8A
  8
0
 10
0.0
 20
0.0
 30
0.0
 70
   128
 71
     5
 72
     6
 73
    -2
  0
VERTEX
  5
AD8B
  8
0
 10
0.0
 20
0.0
 30
0.0
 70
   128
 71
    -5
 72
     2
 73
     1
  0
VERTEX
  5
AD8C
  8
0
 10
0.0
 20
0.0
 30
0.0
 70
   128
 71
     4
 72
     3
 73
    -7
  0
VERTEX
  5
AD8D
  8
0
 10
0.0
 20
0.0
 30
0.0
 70
   128
 71
    -4
 72
     7
 73
     8
  0
SEQEND
  5
AE79
  8
0
  0
POLYLINE
  5
AD8E
  8
0
 66
     1
 10
0.0
 20
0.0
 30
0.0
 70
    64
 71
    12
 72
    12
  0
VERTEX
  5
AD8F
  8
0
 10
149.9999999999999
 20
-185.0
 30
-10.0
 70
   192
  0
VERTEX
  5
AD90
  8
0
 10
149.9999999999999
 20
-185.0
 30
-20.0
 70
   192
  0
VERTEX
  5
AD91
  8
0
 10
-29.99999999999996
 20
-185.0
 30
-20.0
 70
   192
  0
VERTEX
  5
AD92
  8
0
 10
-29.99999999999997
 20
-185.0
 30
-10.0
 70
   192
  0
VERTEX
  5
AD93
  8
0
 10
109.9999999999999
 20
-185.0
 30
-18.49999999999999
 70
   192
  0
VERTEX
  5
AD94
  8
0
 10
112.4748737341528
 20
-185.0
 30
-17.47487373415291
 70
   192
  0
VERTEX
  5
AD95
  8
0
 10
113.4999999999999
 20
-185.0
 30
-15.0
 70
   192
  0
VERTEX
  5
AD96
  8
0
 10
112.4748737341528
 20
-185.0
 30
-12.52512626584709
 70
   192
  0
VERTEX
  5
AD97
  8
0
 10
109.9999999999999
 20
-185.0
 30
-11.50000000000001
 70
   192
  0
VERTEX
  5
AD98
  8
0
 10
107.525126265847
 20
-185.0
 30
-12.52512626584709
 70
   192
  0
VERTEX
  5
AD99
  8
0
 10
106.4999999999999
 20
-185.0
 30
-15.0
 70
   192
  0
VERTEX
  5
AD9A
  8
0
 10
107.525126265847
 20
-185.0
 30
-17.47487373415291
 70
   192
  0
VERTEX
  5
AD9B
  8
0
 10
0.0
 20
0.0
 30
0.0
 70
   128
 71
     6
 72
    -5
 73
    -2
  0
VERTEX
  5
AD9C
  8
0
 10
0.0
 20
0.0
 30
0.0
 70
   128
 71
     2
 72
    -1
 73
    -7
  0
VERTEX
  5
AD9D
  8
0
 10
0.0
 20
0.0
 30
0.0
 70
   128
 71
    -2
 72
     7
 73
    -6
  0
VERTEX
  5
AD9E
  8
0
 10
0.0
 20
0.0
 30
0.0
 70
   128
 71
    -1
 72
     8
 73
    -7
  0
VERTEX
  5
AD9F
  8
0
 10
0.0
 20
0.0
 30
0.0
 70
   128
 71
    -1
 72
     9
 73
    -8
  0
VERTEX
  5
ADA0
  8
0
 10
0.0
 20
0.0
 30
0.0
 70
   128
 71
    -9
 72
     1
 73
    -4
  0
VERTEX
  5
ADA1
  8
0
 10
0.0
 20
0.0
 30
0.0
 70
   128
 71
    -4
 72
    10
 73
    -9
  0
VERTEX
  5
ADA2
  8
0
 10
0.0
 20
0.0
 30
0.0
 70
   128
 71
     4
 72
    -3
 73
   -11
  0
VERTEX
  5
ADA3
  8
0
 10
0.0
 20
0.0
 30
0.0
 70
   128
 71
    -4
 72
    11
 73
   -10
  0
VERTEX
  5
ADA4
  8
0
 10
0.0
 20
0.0
 30
0.0
 70
   128
 71
    -3
 72
    12
 73
   -11
  0
VERTEX
  5
ADA5
  8
0
 10
0.0
 20
0.0
 30
0.0
 70
   128
 71
    -3
 72
     5
 73
   -12
  0
VERTEX
  5
ADA6
  8
0
 10
0.0
 20
0.0
 30
0.0
 70
   128
 71
     3
 72
    -2
 73
    -5
  0
SEQEND
  5
AE7A
  8
0
  0
POLYLINE
  5
ADA7
  8
0
 66
     1
 10
0.0
 20
0.0
 30
0.0
 70
    64
 71
     8
 72
     6
  0
VERTEX
  5
ADA8
  8
0
 10
-38.66025403784442
 20
-180.0
 30
-10.0
 70
   192
  0
VERTEX
  5
ADA9
  8
0
 10
-38.66025403784442
 20
-180.0
 30
-20.0
 70
   192
  0
VERTEX
  5
ADAA
  8
0
 10
-35.00000000000001
 20
-183.6602540378444
 30
-20.0
 70
   192
  0
VERTEX
  5
ADAB
  8
0
 10
-35.00000000000001
 20
-183.6602540378444
 30
-10.0
 70
   192
  0
VERTEX
  5
ADAC
  8
0
 10
-40.00000000000004
 20
-174.9999999999999
 30
-10.0
 70
   192
  0
VERTEX
  5
ADAD
  8
0
 10
-40.00000000000004
 20
-174.9999999999999
 30
-20.0
 70
   192
  0
VERTEX
  5
ADAE
  8
0
 10
-29.99999999999996
 20
-185.0
 30
-20.0
 70
   192
  0
VERTEX
  5
ADAF
  8
0
 10
-29.99999999999996
 20
-185.0
 30
-10.0
 70
   192
  0
VERTEX
  5
ADB0
  8
0
 10
0.0
 20
0.0
 30
0.0
 70
   128
 71
     1
 72
     2
 73
    -3
  0
VERTEX
  5
ADB1
  8
0
 10
0.0
 20
0.0
 30
0.0
 70
   128
 71
    -1
 72
     3
 73
     4
  0
VERTEX
  5
ADB2
  8
0
 10
0.0
 20
0.0
 30
0.0
 70
   128
 71
     5
 72
     6
 73
    -2
  0
VERTEX
  5
ADB3
  8
0
 10
0.0
 20
0.0
 30
0.0
 70
   128
 71
    -5
 72
     2
 73
     1
  0
VERTEX
  5
ADB4
  8
0
 10
0.0
 20
0.0
 30
0.0
 70
   128
 71
     4
 72
     3
 73
    -7
  0
VERTEX
  5
ADB5
  8
0
 10
0.0
 20
0.0
 30
0.0
 70
   128
 71
    -4
 72
     7
 73
     8
  0
SEQEND
  5
AE7B
  8
0
  0
POLYLINE
  5
ADB6
  8
0
 66
     1
 10
0.0
 20
0.0
 30
0.0
 70
    64
 71
     4
 72
     2
  0
VERTEX
  5
ADB7
  8
0
 10
-40.00000000000004
 20
-174.9999999999999
 30
-10.0
 70
   192
  0
VERTEX
  5
ADB8
  8
0
 10
-40.00000000000004
 20
-174.9999999999999
 30
-20.0
 70
   192
  0
VERTEX
  5
ADB9
  8
0
 10
-40.00000000000001
 20
-15.00000000000007
 30
-20.0
 70
   192
  0
VERTEX
  5
ADBA
  8
0
 10
-40.00000000000001
 20
-15.00000000000007
 30
-10.0
 70
   192
  0
VERTEX
  5
ADBB
  8
0
 10
0.0
 20
0.0
 30
0.0
 70
   128
 71
     1
 72
     4
 73
    -3
  0
VERTEX
  5
ADBC
  8
0
 10
0.0
 20
0.0
 30
0.0
 70
   128
 71
    -1
 72
     3
 73
     2
  0
SEQEND
  5
AE7C
  8
0
  0
POLYLINE
  5
ADBD
  8
0
 66
     1
 10
0.0
 20
0.0
 30
0.0
 70
    64
 71
     8
 72
     6
  0
VERTEX
  5
ADBE
  8
0
 10
-34.99999999999999
 20
-6.339745962155602
 30
-10.0
 70
   192
  0
VERTEX
  5
ADBF
  8
0
 10
-34.99999999999999
 20
-6.339745962155602
 30
-20.0
 70
   192
  0
VERTEX
  5
ADC0
  8
0
 10
-38.66025403784441
 20
-10.00000000000002
 30
-20.0
 70
   192
  0
VERTEX
  5
ADC1
  8
0
 10
-38.66025403784441
 20
-10.00000000000002
 30
-10.0
 70
   192
  0
VERTEX
  5
ADC2
  8
0
 10
-29.99999999999994
 20
-5.000000000000002
 30
-10.0
 70
   192
  0
VERTEX
  5
ADC3
  8
0
 10
-29.99999999999994
 20
-5.000000000000001
 30
-20.0
 70
   192
  0
VERTEX
  5
ADC4
  8
0
 10
-40.00000000000001
 20
-15.00000000000007
 30
-20.0
 70
   192
  0
VERTEX
  5
ADC5
  8
0
 10
-40.00000000000001
 20
-15.00000000000007
 30
-10.0
 70
   192
  0
VERTEX
  5
ADC6
  8
0
 10
0.0
 20
0.0
 30
0.0
 70
   128
 71
     1
 72
     2
 73
    -3
  0
VERTEX
  5
ADC7
  8
0
 10
0.0
 20
0.0
 30
0.0
 70
   128
 71
    -1
 72
     3
 73
     4
  0
VERTEX
  5
ADC8
  8
0
 10
0.0
 20
0.0
 30
0.0
 70
   128
 71
     5
 72
     6
 73
    -2
  0
VERTEX
  5
ADC9
  8
0
 10
0.0
 20
0.0
 30
0.0
 70
   128
 71
    -5
 72
     2
 73
     1
  0
VERTEX
  5
ADCA
  8
0
 10
0.0
 20
0.0
 30
0.0
 70
   128
 71
     4
 72
     3
 73
    -7
  0
VERTEX
  5
ADCB
  8
0
 10
0.0
 20
0.0
 30
0.0
 70
   128
 71
    -4
 72
     7
 73
     8
  0
SEQEND
  5
AE7D
  8
0
  0
POLYLINE
  5
ADCC
  8
0
 66
     1
 10
0.0
 20
0.0
 30
0.0
 70
    64
 71
     4
 72
     2
  0
VERTEX
  5
ADCD
  8
0
 10
-29.99999999999994
 20
-5.000000000000001
 30
-10.0
 70
   192
  0
VERTEX
  5
ADCE
  8
0
 10
-29.99999999999994
 20
-5.000000000000001
 30
-20.0
 70
   192
  0
VERTEX
  5
ADCF
  8
0
 10
149.9999999999999
 20
-4.999999999999996
 30
-20.0
 70
   192
  0
VERTEX
  5
ADD0
  8
0
 10
149.9999999999999
 20
-5.000000000000001
 30
-10.0
 70
   192
  0
VERTEX
  5
ADD1
  8
0
 10
0.0
 20
0.0
 30
0.0
 70
   128
 71
     1
 72
     4
 73
    -3
  0
VERTEX
  5
ADD2
  8
0
 10
0.0
 20
0.0
 30
0.0
 70
   128
 71
    -1
 72
     3
 73
     2
  0
SEQEND
  5
AE7E
  8
0
  0
POLYLINE
  5
ADD3
  8
0
 66
     1
 10
0.0
 20
0.0
 30
0.0
 70
    64
 71
     8
 72
     6
  0
VERTEX
  5
ADD4
  8
0
 10
158.6602540378444
 20
-10.00000000000002
 30
-10.0
 70
   192
  0
VERTEX
  5
ADD5
  8
0
 10
158.6602540378444
 20
-10.00000000000002
 30
-20.0
 70
   192
  0
VERTEX
  5
ADD6
  8
0
 10
155.0
 20
-6.339745962155597
 30
-20.0
 70
   192
  0
VERTEX
  5
ADD7
  8
0
 10
155.0
 20
-6.339745962155597
 30
-10.0
 70
   192
  0
VERTEX
  5
ADD8
  8
0
 10
160.0
 20
-15.00000000000007
 30
-10.0
 70
   192
  0
VERTEX
  5
ADD9
  8
0
 10
160.0
 20
-15.00000000000007
 30
-20.0
 70
   192
  0
VERTEX
  5
ADDA
  8
0
 10
149.9999999999999
 20
-4.999999999999989
 30
-20.0
 70
   192
  0
VERTEX
  5
ADDB
  8
0
 10
149.9999999999999
 20
-4.999999999999996
 30
-10.0
 70
   192
  0
VERTEX
  5
ADDC
  8
0
 10
0.0
 20
0.0
 30
0.0
 70
   128
 71
     1
 72
     2
 73
    -3
  0
VERTEX
  5
ADDD
  8
0
 10
0.0
 20
0.0
 30
0.0
 70
   128
 71
    -1
 72
     3
 73
     4
  0
VERTEX
  5
ADDE
  8
0
 10
0.0
 20
0.0
 30
0.0
 70
   128
 71
     5
 72
     6
 73
    -2
  0
VERTEX
  5
ADDF
  8
0
 10
0.0
 20
0.0
 30
0.0
 70
   128
 71
    -5
 72
     2
 73
     1
  0
VERTEX
  5
ADE0
  8
0
 10
0.0
 20
0.0
 30
0.0
 70
   128
 71
     4
 72
     3
 73
    -7
  0
VERTEX
  5
ADE1
  8
0
 10
0.0
 20
0.0
 30
0.0
 70
   128
 71
    -4
 72
     7
 73
     8
  0
SEQEND
  5
AE7F
  8
0
  0
POLYLINE
  5
ADE2
  8
0
 66
     1
 10
0.0
 20
0.0
 30
0.0
 70
    64
 71
     4
 72
     2
  0
VERTEX
  5
ADE3
  8
0
 10
160.0
 20
-15.00000000000007
 30
-10.0
 70
   192
  0
VERTEX
  5
ADE4
  8
0
 10
160.0
 20
-15.00000000000007
 30
-20.0
 70
   192
  0
VERTEX
  5
ADE5
  8
0
 10
160.0
 20
-174.9999999999999
 30
-20.0
 70
   192
  0
VERTEX
  5
ADE6
  8
0
 10
160.0
 20
-174.9999999999999
 30
-10.0
 70
   192
  0
VERTEX
  5
ADE7
  8
0
 10
0.0
 20
0.0
 30
0.0
 70
   128
 71
     1
 72
     4
 73
    -3
  0
VERTEX
  5
ADE8
  8
0
 10
0.0
 20
0.0
 30
0.0
 70
   128
 71
    -1
 72
     3
 73
     2
  0
SEQEND
  5
AE80
  8
0
  0
POLYLINE
  5
ADE9
  8
0
 66
     1
 10
0.0
 20
0.0
 30
0.0
 70
    64
 71
    16
 72
    14
  0
VERTEX
  5
ADEA
  8
0
 10
160.0
 20
-174.9999999999999
 30
-20.0
 70
   192
  0
VERTEX
  5
ADEB
  8
0
 10
158.6602540378444
 20
-179.9999999999999
 30
-20.0
 70
   192
  0
VERTEX
  5
ADEC
  8
0
 10
155.0
 20
-183.6602540378444
 30
-20.0
 70
   192
  0
VERTEX
  5
ADED
  8
0
 10
149.9999999999999
 20
-185.0
 30
-20.0
 70
   192
  0
VERTEX
  5
ADEE
  8
0
 10
-29.99999999999997
 20
-185.0
 30
-20.0
 70
   192
  0
VERTEX
  5
ADEF
  8
0
 10
-35.00000000000001
 20
-183.6602540378444
 30
-20.0
 70
   192
  0
VERTEX
  5
ADF0
  8
0
 10
-38.66025403784442
 20
-180.0
 30
-20.0
 70
   192
  0
VERTEX
  5
ADF1
  8
0
 10
-40.00000000000004
 20
-174.9999999999999
 30
-20.0
 70
   192
  0
VERTEX
  5
ADF2
  8
0
 10
-40.00000000000001
 20
-15.00000000000007
 30
-20.0
 70
   192
  0
VERTEX
  5
ADF3
  8
0
 10
-38.66025403784441
 20
-10.00000000000002
 30
-20.0
 70
   192
  0
VERTEX
  5
ADF4
  8
0
 10
-34.99999999999999
 20
-6.339745962155602
 30
-20.0
 70
   192
  0
VERTEX
  5
ADF5
  8
0
 10
-29.99999999999994
 20
-5.000000000000002
 30
-20.0
 70
   192
  0
VERTEX
  5
ADF6
  8
0
 10
149.9999999999999
 20
-5.000000000000001
 30
-20.0
 70
   192
  0
VERTEX
  5
ADF7
  8
0
 10
155.0
 20
-6.339745962155597
 30
-20.0
 70
   192
  0
VERTEX
  5
ADF8
  8
0
 10
158.6602540378444
 20
-10.00000000000002
 30
-20.0
 70
   192
  0
VERTEX
  5
ADF9
  8
0
 10
160.0
 20
-15.00000000000007
 30
-20.0
 70
   192
  0
VERTEX
  5
ADFA
  8
0
 10
0.0
 20
0.0
 30
0.0
 70
   128
 71
    15
 72
    16
 73
    -1
  0
VERTEX
  5
ADFB
  8
0
 10
0.0
 20
0.0
 30
0.0
 70
   128
 71
    14
 72
   -15
 73
    -1
  0
VERTEX
  5
ADFC
  8
0
 10
0.0
 20
0.0
 30
0.0
 70
   128
 71
    13
 72
   -14
 73
    -1
  0
VERTEX
  5
ADFD
  8
0
 10
0.0
 20
0.0
 30
0.0
 70
   128
 71
    12
 72
   -13
 73
    -1
  0
VERTEX
  5
ADFE
  8
0
 10
0.0
 20
0.0
 30
0.0
 70
   128
 71
    11
 72
   -12
 73
    -1
  0
VERTEX
  5
ADFF
  8
0
 10
0.0
 20
0.0
 30
0.0
 70
   128
 71
    10
 72
   -11
 73
    -1
  0
VERTEX
  5
AE00
  8
0
 10
0.0
 20
0.0
 30
0.0
 70
   128
 71
     9
 72
   -10
 73
    -1
  0
VERTEX
  5
AE01
  8
0
 10
0.0
 20
0.0
 30
0.0
 70
   128
 71
     8
 72
    -9
 73
    -1
  0
VERTEX
  5
AE02
  8
0
 10
0.0
 20
0.0
 30
0.0
 70
   128
 71
     7
 72
    -8
 73
    -1
  0
VERTEX
  5
AE03
  8
0
 10
0.0
 20
0.0
 30
0.0
 70
   128
 71
     6
 72
    -7
 73
    -1
  0
VERTEX
  5
AE04
  8
0
 10
0.0
 20
0.0
 30
0.0
 70
   128
 71
     5
 72
    -6
 73
    -1
  0
VERTEX
  5
AE05
  8
0
 10
0.0
 20
0.0
 30
0.0
 70
   128
 71
     4
 72
    -5
 73
    -1
  0
VERTEX
  5
AE06
  8
0
 10
0.0
 20
0.0
 30
0.0
 70
   128
 71
     3
 72
    -4
 73
    -1
  0
VERTEX
  5
AE07
  8
0
 10
0.0
 20
0.0
 30
0.0
 70
   128
 71
     2
 72
    -3
 73
     1
  0
SEQEND
  5
AE81
  8
0
  0
POLYLINE
  5
AE08
  8
0
 66
     1
 10
0.0
 20
0.0
 30
0.0
 70
    64
 71
    16
 72
    14
  0
VERTEX
  5
AE09
  8
0
 10
149.9999999999999
 20
-185.0
 30
-10.0
 70
   192
  0
VERTEX
  5
AE0A
  8
0
 10
-29.99999999999996
 20
-185.0
 30
-10.0
 70
   192
  0
VERTEX
  5
AE0B
  8
0
 10
-35.00000000000001
 20
-183.6602540378444
 30
-10.0
 70
   192
  0
VERTEX
  5
AE0C
  8
0
 10
-38.66025403784442
 20
-180.0
 30
-10.0
 70
   192
  0
VERTEX
  5
AE0D
  8
0
 10
-40.00000000000004
 20
-174.9999999999999
 30
-10.0
 70
   192
  0
VERTEX
  5
AE0E
  8
0
 10
-40.00000000000001
 20
-15.00000000000007
 30
-10.0
 70
   192
  0
VERTEX
  5
AE0F
  8
0
 10
-38.66025403784441
 20
-10.00000000000002
 30
-10.0
 70
   192
  0
VERTEX
  5
AE10
  8
0
 10
-34.99999999999999
 20
-6.339745962155602
 30
-10.0
 70
   192
  0
VERTEX
  5
AE11
  8
0
 10
-29.99999999999994
 20
-5.000000000000001
 30
-10.0
 70
   192
  0
VERTEX
  5
AE12
  8
0
 10
149.9999999999999
 20
-4.999999999999989
 30
-10.0
 70
   192
  0
VERTEX
  5
AE13
  8
0
 10
155.0
 20
-6.339745962155597
 30
-10.0
 70
   192
  0
VERTEX
  5
AE14
  8
0
 10
158.6602540378444
 20
-10.00000000000002
 30
-10.0
 70
   192
  0
VERTEX
  5
AE15
  8
0
 10
160.0
 20
-15.00000000000007
 30
-10.0
 70
   192
  0
VERTEX
  5
AE16
  8
0
 10
160.0
 20
-174.9999999999999
 30
-10.0
 70
   192
  0
VERTEX
  5
AE17
  8
0
 10
158.6602540378444
 20
-179.9999999999999
 30
-10.0
 70
   192
  0
VERTEX
  5
AE18
  8
0
 10
155.0
 20
-183.6602540378444
 30
-10.0
 70
   192
  0
VERTEX
  5
AE19
  8
0
 10
0.0
 20
0.0
 30
0.0
 70
   128
 71
     1
 72
    16
 73
   -15
  0
VERTEX
  5
AE1A
  8
0
 10
0.0
 20
0.0
 30
0.0
 70
   128
 71
    -1
 72
    15
 73
   -14
  0
VERTEX
  5
AE1B
  8
0
 10
0.0
 20
0.0
 30
0.0
 70
   128
 71
    -1
 72
    14
 73
   -13
  0
VERTEX
  5
AE1C
  8
0
 10
0.0
 20
0.0
 30
0.0
 70
   128
 71
    -1
 72
    13
 73
   -12
  0
VERTEX
  5
AE1D
  8
0
 10
0.0
 20
0.0
 30
0.0
 70
   128
 71
    -1
 72
    12
 73
   -11
  0
VERTEX
  5
AE1E
  8
0
 10
0.0
 20
0.0
 30
0.0
 70
   128
 71
    -1
 72
    11
 73
   -10
  0
VERTEX
  5
AE1F
  8
0
 10
0.0
 20
0.0
 30
0.0
 70
   128
 71
    -1
 72
    10
 73
    -9
  0
VERTEX
  5
AE20
  8
0
 10
0.0
 20
0.0
 30
0.0
 70
   128
 71
    -1
 72
     9
 73
    -8
  0
VERTEX
  5
AE21
  8
0
 10
0.0
 20
0.0
 30
0.0
 70
   128
 71
    -1
 72
     8
 73
    -7
  0
VERTEX
  5
AE22
  8
0
 10
0.0
 20
0.0
 30
0.0
 70
   128
 71
    -1
 72
     7
 73
    -6
  0
VERTEX
  5
AE23
  8
0
 10
0.0
 20
0.0
 30
0.0
 70
   128
 71
    -1
 72
     6
 73
    -5
  0
VERTEX
  5
AE24
  8
0
 10
0.0
 20
0.0
 30
0.0
 70
   128
 71
    -1
 72
     5
 73
    -4
  0
VERTEX
  5
AE25
  8
0
 10
0.0
 20
0.0
 30
0.0
 70
   128
 71
    -1
 72
     4
 73
    -3
  0
VERTEX
  5
AE26
  8
0
 10
0.0
 20
0.0
 30
0.0
 70
   128
 71
    -1
 72
     3
 73
     2
  0
SEQEND
  5
AE82
  8
0
  0
POLYLINE
  5
AE27
  8
0
 66
     1
 10
0.0
 20
0.0
 30
0.0
 70
    64
 71
    10
 72
     8
  0
VERTEX
  5
AE28
  8
0
 10
109.9999999999999
 20
-190.0
 30
-18.49999999999999
 70
   192
  0
VERTEX
  5
AE29
  8
0
 10
109.9999999999999
 20
-190.0
 30
-11.50000000000001
 70
   192
  0
VERTEX
  5
AE2A
  8
0
 10
109.9999999999999
 20
-185.0
 30
-11.50000000000001
 70
   192
  0
VERTEX
  5
AE2B
  8
0
 10
109.9999999999999
 20
-185.0
 30
-18.49999999999999
 70
   192
  0
VERTEX
  5
AE2C
  8
0
 10
106.4999999999999
 20
-185.0
 30
-15.0
 70
   192
  0
VERTEX
  5
AE2D
  8
0
 10
106.4999999999999
 20
-190.0
 30
-15.0
 70
   192
  0
VERTEX
  5
AE2E
  8
0
 10
107.525126265847
 20
-185.0
 30
-17.47487373415291
 70
   192
  0
VERTEX
  5
AE2F
  8
0
 10
107.525126265847
 20
-190.0
 30
-17.47487373415291
 70
   192
  0
VERTEX
  5
AE30
  8
0
 10
107.525126265847
 20
-185.0
 30
-12.52512626584709
 70
   192
  0
VERTEX
  5
AE31
  8
0
 10
107.525126265847
 20
-190.0
 30
-12.52512626584709
 70
   192
  0
VERTEX
  5
AE32
  8
0
 10
0.0
 20
0.0
 30
0.0
 70
   128
 71
     8
 72
     7
 73
    -4
  0
VERTEX
  5
AE33
  8
0
 10
0.0
 20
0.0
 30
0.0
 70
   128
 71
    -8
 72
     4
 73
     1
  0
VERTEX
  5
AE34
  8
0
 10
0.0
 20
0.0
 30
0.0
 70
   128
 71
     6
 72
     5
 73
    -7
  0
VERTEX
  5
AE35
  8
0
 10
0.0
 20
0.0
 30
0.0
 70
   128
 71
    -6
 72
     7
 73
     8
  0
VERTEX
  5
AE36
  8
0
 10
0.0
 20
0.0
 30
0.0
 70
   128
 71
    10
 72
     9
 73
    -5
  0
VERTEX
  5
AE37
  8
0
 10
0.0
 20
0.0
 30
0.0
 70
   128
 71
   -10
 72
     5
 73
     6
  0
VERTEX
  5
AE38
  8
0
 10
0.0
 20
0.0
 30
0.0
 70
   128
 71
     2
 72
     3
 73
    -9
  0
VERTEX
  5
AE39
  8
0
 10
0.0
 20
0.0
 30
0.0
 70
   128
 71
    -2
 72
     9
 73
    10
  0
SEQEND
  5
AE83
  8
0
  0
POLYLINE
  5
AE3A
  8
0
 66
     1
 10
0.0
 20
0.0
 30
0.0
 70
    64
 71
     8
 72
     6
  0
VERTEX
  5
AE3B
  8
0
 10
109.9999999999999
 20
-190.0
 30
-11.50000000000001
 70
   192
  0
VERTEX
  5
AE3C
  8
0
 10
107.525126265847
 20
-190.0
 30
-12.52512626584709
 70
   192
  0
VERTEX
  5
AE3D
  8
0
 10
106.4999999999999
 20
-190.0
 30
-15.0
 70
   192
  0
VERTEX
  5
AE3E
  8
0
 10
107.525126265847
 20
-190.0
 30
-17.47487373415291
 70
   192
  0
VERTEX
  5
AE3F
  8
0
 10
109.9999999999999
 20
-190.0
 30
-18.49999999999999
 70
   192
  0
VERTEX
  5
AE40
  8
0
 10
112.4748737341528
 20
-190.0
 30
-17.47487373415291
 70
   192
  0
VERTEX
  5
AE41
  8
0
 10
113.4999999999999
 20
-190.0
 30
-15.0
 70
   192
  0
VERTEX
  5
AE42
  8
0
 10
112.4748737341528
 20
-190.0
 30
-12.52512626584709
 70
   192
  0
VERTEX
  5
AE43
  8
0
 10
0.0
 20
0.0
 30
0.0
 70
   128
 71
     7
 72
     8
 73
    -1
  0
VERTEX
  5
AE44
  8
0
 10
0.0
 20
0.0
 30
0.0
 70
   128
 71
     6
 72
    -7
 73
    -1
  0
VERTEX
  5
AE45
  8
0
 10
0.0
 20
0.0
 30
0.0
 70
   128
 71
     5
 72
    -6
 73
    -1
  0
VERTEX
  5
AE46
  8
0
 10
0.0
 20
0.0
 30
0.0
 70
   128
 71
     4
 72
    -5
 73
    -1
  0
VERTEX
  5
AE47
  8
0
 10
0.0
 20
0.0
 30
0.0
 70
   128
 71
     3
 72
    -4
 73
    -1
  0
VERTEX
  5
AE48
  8
0
 10
0.0
 20
0.0
 30
0.0
 70
   128
 71
     2
 72
    -3
 73
     1
  0
SEQEND
  5
AE84
  8
0
  0
ENDBLK
  5
AE77
  8
0
  0
ENDSEC
  0
SECTION
  2
ENTITIES
  0
INSERT
  5
A84A
  8
0
  2
*X1
 10
0.0
 20
0.0
 30
0.0
  0
INSERT
  5
A84B
  8
0
  2
*X2
 10
0.0
 20
0.0
 30
0.0
  0
INSERT
  5
A84C
  8
0
  2
*X3
 10
0.0
 20
0.0
 30
0.0
  0
INSERT
  5
A84D
  8
0
  2
*X4
 10
0.0
 20
0.0
 30
0.0
  0
ENDSEC
  0
EOF
