  0
SECTION
  2
HEADER
  9
$ACADVER
  1
AC1009
  9
$DWGCODEPAGE
  3
ansi_1250
  9
$INSBASE
 10
0.0
 20
0.0
 30
0.0
  9
$EXTMIN
 10
-350.0
 20
-350.0
 30
-30.00000000000006
  9
$EXTMAX
 10
350.0
 20
350.0
 30
0.0000000000000568
  9
$LIMMIN
 10
0.0
 20
0.0
  9
$LIMMAX
 10
420.0
 20
297.0
  9
$ORTHOMODE
 70
     0
  9
$REGENMODE
 70
     1
  9
$FILLMODE
 70
     1
  9
$QTEXTMODE
 70
     0
  9
$MIRRTEXT
 70
     0
  9
$DRAGMODE
 70
     2
  9
$LTSCALE
 40
1.0
  9
$OSMODE
 70
   511
  9
$ATTMODE
 70
     1
  9
$TEXTSIZE
 40
2.5
  9
$TRACEWID
 40
1.0
  9
$TEXTSTYLE
  7
STANDARD
  9
$CLAYER
  8
0
  9
$CELTYPE
  6
BYLAYER
  9
$CECOLOR
 62
   256
  9
$DIMSCALE
 40
1.0
  9
$DIMASZ
 40
2.5
  9
$DIMEXO
 40
0.625
  9
$DIMDLI
 40
3.75
  9
$DIMRND
 40
0.0
  9
$DIMDLE
 40
0.0
  9
$DIMEXE
 40
1.25
  9
$DIMTP
 40
0.0
  9
$DIMTM
 40
0.0
  9
$DIMTXT
 40
2.5
  9
$DIMCEN
 40
-2.5
  9
$DIMTSZ
 40
0.0
  9
$DIMTOL
 70
     0
  9
$DIMLIM
 70
     0
  9
$DIMTIH
 70
     0
  9
$DIMTOH
 70
     0
  9
$DIMSE1
 70
     0
  9
$DIMSE2
 70
     0
  9
$DIMTAD
 70
     1
  9
$DIMZIN
 70
     8
  9
$DIMBLK
  1

  9
$DIMASO
 70
     1
  9
$DIMSHO
 70
     1
  9
$DIMPOST
  1

  9
$DIMAPOST
  1

  9
$DIMALT
 70
     0
  9
$DIMALTD
 70
     3
  9
$DIMALTF
 40
0.03937007874016
  9
$DIMLFAC
 40
1.0
  9
$DIMTOFL
 70
     1
  9
$DIMTVP
 40
0.0
  9
$DIMTIX
 70
     0
  9
$DIMSOXD
 70
     0
  9
$DIMSAH
 70
     0
  9
$DIMBLK1
  1

  9
$DIMBLK2
  1

  9
$DIMSTYLE
  2
ISO-25
  9
$DIMCLRD
 70
     0
  9
$DIMCLRE
 70
     0
  9
$DIMCLRT
 70
     0
  9
$DIMTFAC
 40
1.0
  9
$DIMGAP
 40
0.625
  9
$LUNITS
 70
     2
  9
$LUPREC
 70
     3
  9
$SKETCHINC
 40
1.0
  9
$FILLETRAD
 40
10.0
  9
$AUNITS
 70
     0
  9
$AUPREC
 70
     0
  9
$MENU
  1
.
  9
$ELEVATION
 40
0.0
  9
$PELEVATION
 40
0.0
  9
$THICKNESS
 40
0.0
  9
$LIMCHECK
 70
     0
  9
$CHAMFERA
 40
10.0
  9
$CHAMFERB
 40
10.0
  9
$SKPOLY
 70
     0
  9
$TDCREATE
 40
2455022.720692848
  9
$TDUPDATE
 40
2460521.496963461
  9
$TDINDWG
 40
0.1675913079
  9
$TDUSRTIMER
 40
0.1676820486
  9
$USRTIMER
 70
     1
  9
$ANGBASE
 50
0.0
  9
$ANGDIR
 70
     0
  9
$PDMODE
 70
     0
  9
$PDSIZE
 40
0.0
  9
$PLINEWID
 40
0.0
  9
$COORDS
 70
     1
  9
$SPLFRAME
 70
     0
  9
$SPLINETYPE
 70
     6
  9
$SPLINESEGS
 70
     8
  9
$ATTDIA
 70
     0
  9
$ATTREQ
 70
     1
  9
$HANDLING
 70
     1
  9
$HANDSEED
  5
B4C0
  9
$SURFTAB1
 70
     6
  9
$SURFTAB2
 70
     6
  9
$SURFTYPE
 70
     6
  9
$SURFU
 70
     6
  9
$SURFV
 70
     6
  9
$UCSNAME
  2

  9
$UCSORG
 10
0.0
 20
0.0
 30
0.0
  9
$UCSXDIR
 10
1.0
 20
0.0
 30
0.0
  9
$UCSYDIR
 10
0.0
 20
1.0
 30
0.0
  9
$PUCSNAME
  2

  9
$PUCSORG
 10
0.0
 20
0.0
 30
0.0
  9
$PUCSXDIR
 10
1.0
 20
0.0
 30
0.0
  9
$PUCSYDIR
 10
0.0
 20
1.0
 30
0.0
  9
$USERI1
 70
     0
  9
$USERI2
 70
     0
  9
$USERI3
 70
     0
  9
$USERI4
 70
     0
  9
$USERI5
 70
     0
  9
$USERR1
 40
0.0
  9
$USERR2
 40
0.0
  9
$USERR3
 40
0.0
  9
$USERR4
 40
0.0
  9
$USERR5
 40
0.0
  9
$WORLDVIEW
 70
     1
  9
$SHADEDGE
 70
     3
  9
$SHADEDIF
 70
    70
  9
$TILEMODE
 70
     1
  9
$MAXACTVP
 70
    64
  9
$PLIMCHECK
 70
     0
  9
$PEXTMIN
 10
1.000000000000000E+20
 20
1.000000000000000E+20
 30
1.000000000000000E+20
  9
$PEXTMAX
 10
-1.000000000000000E+20
 20
-1.000000000000000E+20
 30
-1.000000000000000E+20
  9
$PLIMMIN
 10
0.0
 20
0.0
  9
$PLIMMAX
 10
0.0
 20
0.0
  9
$UNITMODE
 70
     0
  9
$VISRETAIN
 70
     1
  9
$PLINEGEN
 70
     0
  9
$PSLTSCALE
 70
     1
  0
ENDSEC
  0
SECTION
  2
TABLES
  0
TABLE
  2
VPORT
 70
     1
  0
VPORT
  2
*ACTIVE
 70
     0
 10
0.0
 20
0.0
 11
1.0
 21
1.0
 12
-116.6110757937285
 22
90.81470093901663
 13
0.0
 23
0.0
 14
10.0
 24
10.0
 15
10.0
 25
10.0
 16
0.5773502691896262
 26
0.5773502691896262
 36
0.5773502691896262
 17
-41.66599977993164
 27
123.2469651304761
 37
-82.93435654674934
 40
770.3645241053097
 41
1.88293897882939
 42
50.0
 43
0.0
 44
0.0
 50
0.0
 51
0.0
 71
    16
 72
  1000
 73
     1
 74
     3
 75
     0
 76
     0
 77
     0
 78
     0
  0
ENDTAB
  0
TABLE
  2
LTYPE
 70
     1
  0
LTYPE
  2
CONTINUOUS
 70
     0
  3
Solid line
 72
    65
 73
     0
 40
0.0
  0
ENDTAB
  0
TABLE
  2
LAYER
 70
     1
  0
LAYER
  2
0
 70
     0
 62
     7
  6
CONTINUOUS
  0
ENDTAB
  0
TABLE
  2
STYLE
 70
     2
  0
STYLE
  2
STANDARD
 70
     0
 40
0.0
 41
1.0
 50
0.0
 71
     0
 42
2.5
  3
arial.ttf
  4

  0
STYLE
  2
ANNOTATIVE
 70
     0
 40
0.0
 41
1.0
 50
0.0
 71
     0
 42
2.5
  3
arial.ttf
  4

  0
ENDTAB
  0
TABLE
  2
VIEW
 70
     0
  0
ENDTAB
  0
TABLE
  2
UCS
 70
     0
  0
ENDTAB
  0
TABLE
  2
APPID
 70
     2
  0
APPID
  2
ACAD
 70
     0
  0
APPID
  2
ACADANNOTATIVE
 70
     0
  0
ENDTAB
  0
TABLE
  2
DIMSTYLE
 70
     2
  0
DIMSTYLE
  2
ISO-25
 70
     0
  3

  4

  5

  6

  7

 40
1.0
 41
2.5
 42
0.625
 43
3.75
 44
1.25
 45
0.0
 46
0.0
 47
0.0
 48
0.0
140
2.5
141
-2.5
142
0.0
143
0.03937007874016
144
1.0
145
0.0
146
1.0
147
0.625
 71
     0
 72
     0
 73
     0
 74
     0
 75
     0
 76
     0
 77
     1
 78
     8
170
     0
171
     3
172
     1
173
     0
174
     0
175
     0
176
     0
177
     0
178
     0
  0
DIMSTYLE
  2
ANNOTATIVE
 70
     0
  3

  4

  5

  6

  7

 40
0.0
 41
2.5
 42
0.625
 43
3.75
 44
1.25
 45
0.0
 46
0.0
 47
0.0
 48
0.0
140
2.5
141
-2.5
142
0.0
143
0.03937007874016
144
1.0
145
0.0
146
1.0
147
0.625
 71
     0
 72
     0
 73
     0
 74
     0
 75
     0
 76
     0
 77
     1
 78
     8
170
     0
171
     3
172
     1
173
     0
174
     0
175
     0
176
     0
177
     0
178
     0
  0
ENDTAB
  0
ENDSEC
  0
SECTION
  2
BLOCKS
  0
BLOCK
  8
0
  2
$MODEL_SPACE
 70
     0
 10
0.0
 20
0.0
 30
0.0
  3
$MODEL_SPACE
  1

  0
ENDBLK
  5
21
  8
0
  0
BLOCK
 67
     1
  8
0
  2
$PAPER_SPACE
 70
     0
 10
0.0
 20
0.0
 30
0.0
  3
$PAPER_SPACE
  1

  0
ENDBLK
  5
1D
 67
     1
  8
0
  0
BLOCK
  8
0
  2
*X1
 70
     1
 10
0.0
 20
0.0
 30
0.0
  3
*X1
  1

  0
POLYLINE
  5
B1A9
  8
0
 66
     1
 10
0.0
 20
0.0
 30
0.0
 70
    64
 71
    14
 72
    12
  0
VERTEX
  5
B1AA
  8
0
 10
-170.0000000000001
 20
-294.4486372867091
 30
-30.0
 70
   192
  0
VERTEX
  5
B1AB
  8
0
 10
-294.4486372867091
 20
-169.9999999999999
 30
-30.0
 70
   192
  0
VERTEX
  5
B1AC
  8
0
 10
-294.4486372867091
 20
-169.9999999999999
 30
-10.0
 70
   192
  0
VERTEX
  5
B1AD
  8
0
 10
-170.0000000000001
 20
-294.4486372867091
 30
-10.0
 70
   192
  0
VERTEX
  5
B1AE
  8
0
 10
294.448637286709
 20
-170.0000000000002
 30
-30.0
 70
   192
  0
VERTEX
  5
B1AF
  8
0
 10
169.9999999999998
 20
-294.4486372867092
 30
-30.0
 70
   192
  0
VERTEX
  5
B1B0
  8
0
 10
169.9999999999998
 20
-294.4486372867092
 30
-10.0
 70
   192
  0
VERTEX
  5
B1B1
  8
0
 10
294.448637286709
 20
-170.0000000000002
 30
-10.0
 70
   192
  0
VERTEX
  5
B1B2
  8
0
 10
339.9999999999999
 20
-0.0000000000002454
 30
-30.0
 70
   192
  0
VERTEX
  5
B1B3
  8
0
 10
339.9999999999999
 20
-0.0000000000002454
 30
-10.0
 70
   192
  0
VERTEX
  5
B1B4
  8
0
 10
-0.0000000000001321
 20
-339.9999999999999
 30
-30.0
 70
   192
  0
VERTEX
  5
B1B5
  8
0
 10
-0.0000000000001321
 20
-339.9999999999999
 30
-10.0
 70
   192
  0
VERTEX
  5
B1B6
  8
0
 10
-339.9999999999999
 20
0.0000000000000416
 30
-30.0
 70
   192
  0
VERTEX
  5
B1B7
  8
0
 10
-339.9999999999999
 20
0.0000000000000416
 30
-10.0
 70
   192
  0
VERTEX
  5
B1B8
  8
0
 10
0.0
 20
0.0
 30
0.0
 70
   128
 71
     1
 72
     2
 73
    -3
  0
VERTEX
  5
B1B9
  8
0
 10
0.0
 20
0.0
 30
0.0
 70
   128
 71
     4
 72
    -1
 73
     3
  0
VERTEX
  5
B1BA
  8
0
 10
0.0
 20
0.0
 30
0.0
 70
   128
 71
     5
 72
     6
 73
    -7
  0
VERTEX
  5
B1BB
  8
0
 10
0.0
 20
0.0
 30
0.0
 70
   128
 71
     8
 72
    -5
 73
     7
  0
VERTEX
  5
B1BC
  8
0
 10
0.0
 20
0.0
 30
0.0
 70
   128
 71
     9
 72
     5
 73
    -8
  0
VERTEX
  5
B1BD
  8
0
 10
0.0
 20
0.0
 30
0.0
 70
   128
 71
    10
 72
    -9
 73
     8
  0
VERTEX
  5
B1BE
  8
0
 10
0.0
 20
0.0
 30
0.0
 70
   128
 71
     6
 72
    11
 73
   -12
  0
VERTEX
  5
B1BF
  8
0
 10
0.0
 20
0.0
 30
0.0
 70
   128
 71
     7
 72
    -6
 73
    12
  0
VERTEX
  5
B1C0
  8
0
 10
0.0
 20
0.0
 30
0.0
 70
   128
 71
    11
 72
     1
 73
    -4
  0
VERTEX
  5
B1C1
  8
0
 10
0.0
 20
0.0
 30
0.0
 70
   128
 71
    12
 72
   -11
 73
     4
  0
VERTEX
  5
B1C2
  8
0
 10
0.0
 20
0.0
 30
0.0
 70
   128
 71
     2
 72
    13
 73
   -14
  0
VERTEX
  5
B1C3
  8
0
 10
0.0
 20
0.0
 30
0.0
 70
   128
 71
     3
 72
    -2
 73
    14
  0
SEQEND
  5
B486
  8
0
  0
POLYLINE
  5
B1C4
  8
0
 66
     1
 10
0.0
 20
0.0
 30
0.0
 70
    64
 71
    14
 72
    12
  0
VERTEX
  5
B1C5
  8
0
 10
303.1088913245536
 20
175.0
 30
0.0
 70
   192
  0
VERTEX
  5
B1C6
  8
0
 10
303.1088913245536
 20
175.0
 30
-30.0
 70
   192
  0
VERTEX
  5
B1C7
  8
0
 10
175.0000000000001
 20
303.1088913245535
 30
-30.0
 70
   192
  0
VERTEX
  5
B1C8
  8
0
 10
175.0000000000001
 20
303.1088913245535
 30
0.0
 70
   192
  0
VERTEX
  5
B1C9
  8
0
 10
-174.9999999999999
 20
303.1088913245536
 30
0.0
 70
   192
  0
VERTEX
  5
B1CA
  8
0
 10
-174.9999999999999
 20
303.1088913245536
 30
-30.0
 70
   192
  0
VERTEX
  5
B1CB
  8
0
 10
-303.1088913245535
 20
175.0000000000001
 30
-30.0
 70
   192
  0
VERTEX
  5
B1CC
  8
0
 10
-303.1088913245535
 20
175.0000000000001
 30
0.0
 70
   192
  0
VERTEX
  5
B1CD
  8
0
 10
-350.0
 20
0.0000000000001943
 30
-30.0
 70
   192
  0
VERTEX
  5
B1CE
  8
0
 10
-350.0
 20
0.0000000000000429
 30
0.0
 70
   192
  0
VERTEX
  5
B1CF
  8
0
 10
0.0000000000000971
 20
350.0
 30
0.0
 70
   192
  0
VERTEX
  5
B1D0
  8
0
 10
0.0000000000000971
 20
350.0
 30
-30.0
 70
   192
  0
VERTEX
  5
B1D1
  8
0
 10
350.0
 20
0.0
 30
0.0
 70
   192
  0
VERTEX
  5
B1D2
  8
0
 10
350.0
 20
0.0
 30
-30.0
 70
   192
  0
VERTEX
  5
B1D3
  8
0
 10
0.0
 20
0.0
 30
0.0
 70
   128
 71
     1
 72
     2
 73
    -3
  0
VERTEX
  5
B1D4
  8
0
 10
0.0
 20
0.0
 30
0.0
 70
   128
 71
    -1
 72
     3
 73
     4
  0
VERTEX
  5
B1D5
  8
0
 10
0.0
 20
0.0
 30
0.0
 70
   128
 71
     5
 72
     6
 73
    -7
  0
VERTEX
  5
B1D6
  8
0
 10
0.0
 20
0.0
 30
0.0
 70
   128
 71
    -5
 72
     7
 73
     8
  0
VERTEX
  5
B1D7
  8
0
 10
0.0
 20
0.0
 30
0.0
 70
   128
 71
     8
 72
     7
 73
    -9
  0
VERTEX
  5
B1D8
  8
0
 10
0.0
 20
0.0
 30
0.0
 70
   128
 71
    -8
 72
     9
 73
    10
  0
VERTEX
  5
B1D9
  8
0
 10
0.0
 20
0.0
 30
0.0
 70
   128
 71
    11
 72
    12
 73
    -6
  0
VERTEX
  5
B1DA
  8
0
 10
0.0
 20
0.0
 30
0.0
 70
   128
 71
   -11
 72
     6
 73
     5
  0
VERTEX
  5
B1DB
  8
0
 10
0.0
 20
0.0
 30
0.0
 70
   128
 71
     4
 72
     3
 73
   -12
  0
VERTEX
  5
B1DC
  8
0
 10
0.0
 20
0.0
 30
0.0
 70
   128
 71
    -4
 72
    12
 73
    11
  0
VERTEX
  5
B1DD
  8
0
 10
0.0
 20
0.0
 30
0.0
 70
   128
 71
    13
 72
    14
 73
    -2
  0
VERTEX
  5
B1DE
  8
0
 10
0.0
 20
0.0
 30
0.0
 70
   128
 71
   -13
 72
     2
 73
     1
  0
SEQEND
  5
B487
  8
0
  0
POLYLINE
  5
B1DF
  8
0
 66
     1
 10
0.0
 20
0.0
 30
0.0
 70
    64
 71
    14
 72
    12
  0
VERTEX
  5
B1E0
  8
0
 10
-303.1088913245536
 20
-174.9999999999999
 30
0.0
 70
   192
  0
VERTEX
  5
B1E1
  8
0
 10
-303.1088913245536
 20
-174.9999999999999
 30
-30.0
 70
   192
  0
VERTEX
  5
B1E2
  8
0
 10
-175.0000000000001
 20
-303.1088913245535
 30
-30.0
 70
   192
  0
VERTEX
  5
B1E3
  8
0
 10
-175.0000000000001
 20
-303.1088913245535
 30
0.0
 70
   192
  0
VERTEX
  5
B1E4
  8
0
 10
174.9999999999999
 20
-303.1088913245536
 30
0.0
 70
   192
  0
VERTEX
  5
B1E5
  8
0
 10
174.9999999999999
 20
-303.1088913245536
 30
-30.0
 70
   192
  0
VERTEX
  5
B1E6
  8
0
 10
303.1088913245534
 20
-175.0000000000002
 30
-30.0
 70
   192
  0
VERTEX
  5
B1E7
  8
0
 10
303.1088913245534
 20
-175.0000000000002
 30
0.0
 70
   192
  0
VERTEX
  5
B1E8
  8
0
 10
350.0
 20
-0.0000000000002526
 30
-30.0
 70
   192
  0
VERTEX
  5
B1E9
  8
0
 10
350.0
 20
0.0
 30
0.0
 70
   192
  0
VERTEX
  5
B1EA
  8
0
 10
-0.000000000000136
 20
-350.0
 30
0.0
 70
   192
  0
VERTEX
  5
B1EB
  8
0
 10
-0.000000000000136
 20
-350.0
 30
-30.0
 70
   192
  0
VERTEX
  5
B1EC
  8
0
 10
-350.0
 20
0.0000000000000429
 30
0.0
 70
   192
  0
VERTEX
  5
B1ED
  8
0
 10
-350.0
 20
0.0000000000000429
 30
-30.0
 70
   192
  0
VERTEX
  5
B1EE
  8
0
 10
0.0
 20
0.0
 30
0.0
 70
   128
 71
     1
 72
     2
 73
    -3
  0
VERTEX
  5
B1EF
  8
0
 10
0.0
 20
0.0
 30
0.0
 70
   128
 71
    -1
 72
     3
 73
     4
  0
VERTEX
  5
B1F0
  8
0
 10
0.0
 20
0.0
 30
0.0
 70
   128
 71
     5
 72
     6
 73
    -7
  0
VERTEX
  5
B1F1
  8
0
 10
0.0
 20
0.0
 30
0.0
 70
   128
 71
    -5
 72
     7
 73
     8
  0
VERTEX
  5
B1F2
  8
0
 10
0.0
 20
0.0
 30
0.0
 70
   128
 71
     8
 72
     7
 73
    -9
  0
VERTEX
  5
B1F3
  8
0
 10
0.0
 20
0.0
 30
0.0
 70
   128
 71
    -8
 72
     9
 73
    10
  0
VERTEX
  5
B1F4
  8
0
 10
0.0
 20
0.0
 30
0.0
 70
   128
 71
    11
 72
    12
 73
    -6
  0
VERTEX
  5
B1F5
  8
0
 10
0.0
 20
0.0
 30
0.0
 70
   128
 71
   -11
 72
     6
 73
     5
  0
VERTEX
  5
B1F6
  8
0
 10
0.0
 20
0.0
 30
0.0
 70
   128
 71
     4
 72
     3
 73
   -12
  0
VERTEX
  5
B1F7
  8
0
 10
0.0
 20
0.0
 30
0.0
 70
   128
 71
    -4
 72
    12
 73
    11
  0
VERTEX
  5
B1F8
  8
0
 10
0.0
 20
0.0
 30
0.0
 70
   128
 71
    13
 72
    14
 73
    -2
  0
VERTEX
  5
B1F9
  8
0
 10
0.0
 20
0.0
 30
0.0
 70
   128
 71
   -13
 72
     2
 73
     1
  0
SEQEND
  5
B488
  8
0
  0
POLYLINE
  5
B1FA
  8
0
 66
     1
 10
0.0
 20
0.0
 30
0.0
 70
    64
 71
    24
 72
    24
  0
VERTEX
  5
B1FB
  8
0
 10
-350.0
 20
0.0000000000000429
 30
-30.0
 70
   192
  0
VERTEX
  5
B1FC
  8
0
 10
-303.1088913245536
 20
-174.9999999999999
 30
-30.0
 70
   192
  0
VERTEX
  5
B1FD
  8
0
 10
-175.0000000000001
 20
-303.1088913245535
 30
-30.0
 70
   192
  0
VERTEX
  5
B1FE
  8
0
 10
-0.000000000000136
 20
-350.0
 30
-30.0
 70
   192
  0
VERTEX
  5
B1FF
  8
0
 10
174.9999999999999
 20
-303.1088913245536
 30
-30.0
 70
   192
  0
VERTEX
  5
B200
  8
0
 10
303.1088913245534
 20
-175.0000000000002
 30
-30.0
 70
   192
  0
VERTEX
  5
B201
  8
0
 10
350.0
 20
0.0
 30
-30.0
 70
   192
  0
VERTEX
  5
B202
  8
0
 10
303.1088913245536
 20
175.0
 30
-30.0
 70
   192
  0
VERTEX
  5
B203
  8
0
 10
175.0000000000001
 20
303.1088913245535
 30
-30.0
 70
   192
  0
VERTEX
  5
B204
  8
0
 10
0.0000000000000971
 20
350.0
 30
-30.0
 70
   192
  0
VERTEX
  5
B205
  8
0
 10
-174.9999999999999
 20
303.1088913245536
 30
-30.0
 70
   192
  0
VERTEX
  5
B206
  8
0
 10
-303.1088913245535
 20
175.0000000000001
 30
-30.0
 70
   192
  0
VERTEX
  5
B207
  8
0
 10
339.9999999999999
 20
-0.0000000000002454
 30
-30.0
 70
   192
  0
VERTEX
  5
B208
  8
0
 10
294.448637286709
 20
-170.0000000000002
 30
-30.0
 70
   192
  0
VERTEX
  5
B209
  8
0
 10
169.9999999999998
 20
-294.4486372867092
 30
-30.0
 70
   192
  0
VERTEX
  5
B20A
  8
0
 10
-0.0000000000001321
 20
-339.9999999999999
 30
-30.0
 70
   192
  0
VERTEX
  5
B20B
  8
0
 10
-170.0000000000001
 20
-294.4486372867091
 30
-30.0
 70
   192
  0
VERTEX
  5
B20C
  8
0
 10
-294.4486372867091
 20
-169.9999999999999
 30
-30.0
 70
   192
  0
VERTEX
  5
B20D
  8
0
 10
-339.9999999999999
 20
0.0000000000001887
 30
-30.0
 70
   192
  0
VERTEX
  5
B20E
  8
0
 10
-294.448637286709
 20
170.0000000000001
 30
-30.0
 70
   192
  0
VERTEX
  5
B20F
  8
0
 10
-169.9999999999999
 20
294.4486372867091
 30
-30.0
 70
   192
  0
VERTEX
  5
B210
  8
0
 10
0.0000000000000944
 20
339.9999999999999
 30
-30.0
 70
   192
  0
VERTEX
  5
B211
  8
0
 10
170.0000000000001
 20
294.4486372867091
 30
-30.0
 70
   192
  0
VERTEX
  5
B212
  8
0
 10
294.4486372867091
 20
169.9999999999999
 30
-30.0
 70
   192
  0
VERTEX
  5
B213
  8
0
 10
0.0
 20
0.0
 30
0.0
 70
   128
 71
    14
 72
   -13
 73
    -7
  0
VERTEX
  5
B214
  8
0
 10
0.0
 20
0.0
 30
0.0
 70
   128
 71
   -14
 72
     7
 73
    -6
  0
VERTEX
  5
B215
  8
0
 10
0.0
 20
0.0
 30
0.0
 70
   128
 71
     6
 72
    -5
 73
   -15
  0
VERTEX
  5
B216
  8
0
 10
0.0
 20
0.0
 30
0.0
 70
   128
 71
    -6
 72
    15
 73
   -14
  0
VERTEX
  5
B217
  8
0
 10
0.0
 20
0.0
 30
0.0
 70
   128
 71
     5
 72
    -4
 73
   -16
  0
VERTEX
  5
B218
  8
0
 10
0.0
 20
0.0
 30
0.0
 70
   128
 71
    -5
 72
    16
 73
   -15
  0
VERTEX
  5
B219
  8
0
 10
0.0
 20
0.0
 30
0.0
 70
   128
 71
     4
 72
    -3
 73
   -17
  0
VERTEX
  5
B21A
  8
0
 10
0.0
 20
0.0
 30
0.0
 70
   128
 71
    -4
 72
    17
 73
   -16
  0
VERTEX
  5
B21B
  8
0
 10
0.0
 20
0.0
 30
0.0
 70
   128
 71
     3
 72
    -2
 73
   -18
  0
VERTEX
  5
B21C
  8
0
 10
0.0
 20
0.0
 30
0.0
 70
   128
 71
    -3
 72
    18
 73
   -17
  0
VERTEX
  5
B21D
  8
0
 10
0.0
 20
0.0
 30
0.0
 70
   128
 71
     2
 72
    -1
 73
   -19
  0
VERTEX
  5
B21E
  8
0
 10
0.0
 20
0.0
 30
0.0
 70
   128
 71
    -2
 72
    19
 73
   -18
  0
VERTEX
  5
B21F
  8
0
 10
0.0
 20
0.0
 30
0.0
 70
   128
 71
     1
 72
   -12
 73
   -20
  0
VERTEX
  5
B220
  8
0
 10
0.0
 20
0.0
 30
0.0
 70
   128
 71
    -1
 72
    20
 73
   -19
  0
VERTEX
  5
B221
  8
0
 10
0.0
 20
0.0
 30
0.0
 70
   128
 71
    12
 72
   -11
 73
   -21
  0
VERTEX
  5
B222
  8
0
 10
0.0
 20
0.0
 30
0.0
 70
   128
 71
   -12
 72
    21
 73
   -20
  0
VERTEX
  5
B223
  8
0
 10
0.0
 20
0.0
 30
0.0
 70
   128
 71
    11
 72
   -10
 73
   -22
  0
VERTEX
  5
B224
  8
0
 10
0.0
 20
0.0
 30
0.0
 70
   128
 71
   -11
 72
    22
 73
   -21
  0
VERTEX
  5
B225
  8
0
 10
0.0
 20
0.0
 30
0.0
 70
   128
 71
    10
 72
    -9
 73
   -23
  0
VERTEX
  5
B226
  8
0
 10
0.0
 20
0.0
 30
0.0
 70
   128
 71
   -10
 72
    23
 73
   -22
  0
VERTEX
  5
B227
  8
0
 10
0.0
 20
0.0
 30
0.0
 70
   128
 71
     9
 72
    -8
 73
   -24
  0
VERTEX
  5
B228
  8
0
 10
0.0
 20
0.0
 30
0.0
 70
   128
 71
    -9
 72
    24
 73
   -23
  0
VERTEX
  5
B229
  8
0
 10
0.0
 20
0.0
 30
0.0
 70
   128
 71
     8
 72
    -7
 73
   -13
  0
VERTEX
  5
B22A
  8
0
 10
0.0
 20
0.0
 30
0.0
 70
   128
 71
    -8
 72
    13
 73
   -24
  0
SEQEND
  5
B489
  8
0
  0
POLYLINE
  5
B22B
  8
0
 66
     1
 10
0.0
 20
0.0
 30
0.0
 70
    64
 71
    12
 72
    10
  0
VERTEX
  5
B22C
  8
0
 10
350.0
 20
0.0
 30
0.0
 70
   192
  0
VERTEX
  5
B22D
  8
0
 10
303.1088913245536
 20
175.0
 30
0.0
 70
   192
  0
VERTEX
  5
B22E
  8
0
 10
175.0000000000001
 20
303.1088913245535
 30
0.0
 70
   192
  0
VERTEX
  5
B22F
  8
0
 10
0.0000000000000971
 20
350.0
 30
0.0
 70
   192
  0
VERTEX
  5
B230
  8
0
 10
-174.9999999999999
 20
303.1088913245536
 30
0.0
 70
   192
  0
VERTEX
  5
B231
  8
0
 10
-303.1088913245535
 20
175.0000000000001
 30
0.0
 70
   192
  0
VERTEX
  5
B232
  8
0
 10
-350.0
 20
0.0000000000001943
 30
0.0
 70
   192
  0
VERTEX
  5
B233
  8
0
 10
-303.1088913245536
 20
-174.9999999999999
 30
0.0
 70
   192
  0
VERTEX
  5
B234
  8
0
 10
-175.0000000000001
 20
-303.1088913245535
 30
0.0
 70
   192
  0
VERTEX
  5
B235
  8
0
 10
-0.000000000000136
 20
-350.0
 30
0.0
 70
   192
  0
VERTEX
  5
B236
  8
0
 10
174.9999999999999
 20
-303.1088913245536
 30
0.0
 70
   192
  0
VERTEX
  5
B237
  8
0
 10
303.1088913245534
 20
-175.0000000000002
 30
0.0
 70
   192
  0
VERTEX
  5
B238
  8
0
 10
0.0
 20
0.0
 30
0.0
 70
   128
 71
    11
 72
    12
 73
    -1
  0
VERTEX
  5
B239
  8
0
 10
0.0
 20
0.0
 30
0.0
 70
   128
 71
    10
 72
   -11
 73
    -1
  0
VERTEX
  5
B23A
  8
0
 10
0.0
 20
0.0
 30
0.0
 70
   128
 71
     9
 72
   -10
 73
    -1
  0
VERTEX
  5
B23B
  8
0
 10
0.0
 20
0.0
 30
0.0
 70
   128
 71
     8
 72
    -9
 73
    -1
  0
VERTEX
  5
B23C
  8
0
 10
0.0
 20
0.0
 30
0.0
 70
   128
 71
     7
 72
    -8
 73
    -1
  0
VERTEX
  5
B23D
  8
0
 10
0.0
 20
0.0
 30
0.0
 70
   128
 71
     6
 72
    -7
 73
    -1
  0
VERTEX
  5
B23E
  8
0
 10
0.0
 20
0.0
 30
0.0
 70
   128
 71
     5
 72
    -6
 73
    -1
  0
VERTEX
  5
B23F
  8
0
 10
0.0
 20
0.0
 30
0.0
 70
   128
 71
     4
 72
    -5
 73
    -1
  0
VERTEX
  5
B240
  8
0
 10
0.0
 20
0.0
 30
0.0
 70
   128
 71
     3
 72
    -4
 73
    -1
  0
VERTEX
  5
B241
  8
0
 10
0.0
 20
0.0
 30
0.0
 70
   128
 71
     2
 72
    -3
 73
     1
  0
SEQEND
  5
B48A
  8
0
  0
POLYLINE
  5
B242
  8
0
 66
     1
 10
0.0
 20
0.0
 30
0.0
 70
    64
 71
    14
 72
    12
  0
VERTEX
  5
B243
  8
0
 10
170.0000000000001
 20
294.4486372867091
 30
-30.0
 70
   192
  0
VERTEX
  5
B244
  8
0
 10
294.4486372867091
 20
169.9999999999999
 30
-30.0
 70
   192
  0
VERTEX
  5
B245
  8
0
 10
294.4486372867091
 20
169.9999999999999
 30
-10.0
 70
   192
  0
VERTEX
  5
B246
  8
0
 10
170.0000000000001
 20
294.4486372867091
 30
-10.0
 70
   192
  0
VERTEX
  5
B247
  8
0
 10
-294.448637286709
 20
170.0000000000001
 30
-30.0
 70
   192
  0
VERTEX
  5
B248
  8
0
 10
-169.9999999999999
 20
294.4486372867091
 30
-30.0
 70
   192
  0
VERTEX
  5
B249
  8
0
 10
-169.9999999999999
 20
294.4486372867091
 30
-10.0
 70
   192
  0
VERTEX
  5
B24A
  8
0
 10
-294.448637286709
 20
170.0000000000001
 30
-10.0
 70
   192
  0
VERTEX
  5
B24B
  8
0
 10
-339.9999999999999
 20
0.0000000000000416
 30
-30.0
 70
   192
  0
VERTEX
  5
B24C
  8
0
 10
-339.9999999999999
 20
0.0000000000000416
 30
-10.0
 70
   192
  0
VERTEX
  5
B24D
  8
0
 10
0.0000000000000944
 20
339.9999999999999
 30
-30.0
 70
   192
  0
VERTEX
  5
B24E
  8
0
 10
0.0000000000000944
 20
339.9999999999999
 30
-10.0
 70
   192
  0
VERTEX
  5
B24F
  8
0
 10
339.9999999999999
 20
0.0
 30
-30.0
 70
   192
  0
VERTEX
  5
B250
  8
0
 10
339.9999999999999
 20
0.0
 30
-10.0
 70
   192
  0
VERTEX
  5
B251
  8
0
 10
0.0
 20
0.0
 30
0.0
 70
   128
 71
     1
 72
     2
 73
    -3
  0
VERTEX
  5
B252
  8
0
 10
0.0
 20
0.0
 30
0.0
 70
   128
 71
     4
 72
    -1
 73
     3
  0
VERTEX
  5
B253
  8
0
 10
0.0
 20
0.0
 30
0.0
 70
   128
 71
     5
 72
     6
 73
    -7
  0
VERTEX
  5
B254
  8
0
 10
0.0
 20
0.0
 30
0.0
 70
   128
 71
     8
 72
    -5
 73
     7
  0
VERTEX
  5
B255
  8
0
 10
0.0
 20
0.0
 30
0.0
 70
   128
 71
     9
 72
     5
 73
    -8
  0
VERTEX
  5
B256
  8
0
 10
0.0
 20
0.0
 30
0.0
 70
   128
 71
    10
 72
    -9
 73
     8
  0
VERTEX
  5
B257
  8
0
 10
0.0
 20
0.0
 30
0.0
 70
   128
 71
     6
 72
    11
 73
   -12
  0
VERTEX
  5
B258
  8
0
 10
0.0
 20
0.0
 30
0.0
 70
   128
 71
     7
 72
    -6
 73
    12
  0
VERTEX
  5
B259
  8
0
 10
0.0
 20
0.0
 30
0.0
 70
   128
 71
    11
 72
     1
 73
    -4
  0
VERTEX
  5
B25A
  8
0
 10
0.0
 20
0.0
 30
0.0
 70
   128
 71
    12
 72
   -11
 73
     4
  0
VERTEX
  5
B25B
  8
0
 10
0.0
 20
0.0
 30
0.0
 70
   128
 71
     2
 72
    13
 73
   -14
  0
VERTEX
  5
B25C
  8
0
 10
0.0
 20
0.0
 30
0.0
 70
   128
 71
     3
 72
    -2
 73
    14
  0
SEQEND
  5
B48B
  8
0
  0
POLYLINE
  5
B25D
  8
0
 66
     1
 10
0.0
 20
0.0
 30
0.0
 70
    64
 71
    12
 72
    10
  0
VERTEX
  5
B25E
  8
0
 10
-339.9999999999999
 20
0.0000000000000416
 30
-10.0
 70
   192
  0
VERTEX
  5
B25F
  8
0
 10
-294.4486372867091
 20
-169.9999999999999
 30
-10.0
 70
   192
  0
VERTEX
  5
B260
  8
0
 10
-170.0000000000001
 20
-294.4486372867091
 30
-10.0
 70
   192
  0
VERTEX
  5
B261
  8
0
 10
-0.0000000000001321
 20
-339.9999999999999
 30
-10.0
 70
   192
  0
VERTEX
  5
B262
  8
0
 10
169.9999999999998
 20
-294.4486372867092
 30
-10.0
 70
   192
  0
VERTEX
  5
B263
  8
0
 10
294.448637286709
 20
-170.0000000000002
 30
-10.0
 70
   192
  0
VERTEX
  5
B264
  8
0
 10
339.9999999999999
 20
0.0
 30
-10.0
 70
   192
  0
VERTEX
  5
B265
  8
0
 10
294.4486372867091
 20
169.9999999999999
 30
-10.0
 70
   192
  0
VERTEX
  5
B266
  8
0
 10
170.0000000000001
 20
294.4486372867091
 30
-10.0
 70
   192
  0
VERTEX
  5
B267
  8
0
 10
0.0000000000000944
 20
339.9999999999999
 30
-10.0
 70
   192
  0
VERTEX
  5
B268
  8
0
 10
-169.9999999999999
 20
294.4486372867091
 30
-10.0
 70
   192
  0
VERTEX
  5
B269
  8
0
 10
-294.448637286709
 20
170.0000000000001
 30
-10.0
 70
   192
  0
VERTEX
  5
B26A
  8
0
 10
0.0
 20
0.0
 30
0.0
 70
   128
 71
     1
 72
    12
 73
   -11
  0
VERTEX
  5
B26B
  8
0
 10
0.0
 20
0.0
 30
0.0
 70
   128
 71
    -1
 72
    11
 73
   -10
  0
VERTEX
  5
B26C
  8
0
 10
0.0
 20
0.0
 30
0.0
 70
   128
 71
    -1
 72
    10
 73
    -9
  0
VERTEX
  5
B26D
  8
0
 10
0.0
 20
0.0
 30
0.0
 70
   128
 71
    -1
 72
     9
 73
    -8
  0
VERTEX
  5
B26E
  8
0
 10
0.0
 20
0.0
 30
0.0
 70
   128
 71
    -1
 72
     8
 73
    -7
  0
VERTEX
  5
B26F
  8
0
 10
0.0
 20
0.0
 30
0.0
 70
   128
 71
    -1
 72
     7
 73
    -6
  0
VERTEX
  5
B270
  8
0
 10
0.0
 20
0.0
 30
0.0
 70
   128
 71
    -1
 72
     6
 73
    -5
  0
VERTEX
  5
B271
  8
0
 10
0.0
 20
0.0
 30
0.0
 70
   128
 71
    -1
 72
     5
 73
    -4
  0
VERTEX
  5
B272
  8
0
 10
0.0
 20
0.0
 30
0.0
 70
   128
 71
    -1
 72
     4
 73
    -3
  0
VERTEX
  5
B273
  8
0
 10
0.0
 20
0.0
 30
0.0
 70
   128
 71
    -1
 72
     3
 73
     2
  0
SEQEND
  5
B48C
  8
0
  0
ENDBLK
  5
B485
  8
0
  0
BLOCK
  8
0
  2
*X2
 70
     1
 10
0.0
 20
0.0
 30
0.0
  3
*X2
  1

  0
POLYLINE
  5
B275
  8
0
 66
     1
 10
0.0
 20
0.0
 30
0.0
 70
    64
 71
     6
 72
     4
  0
VERTEX
  5
B276
  8
0
 10
-138.0000000000003
 20
210.0
 30
-20.0
 70
   192
  0
VERTEX
  5
B277
  8
0
 10
-172.0000000000003
 20
210.0
 30
-20.0
 70
   192
  0
VERTEX
  5
B278
  8
0
 10
-172.0000000000003
 20
210.0
 30
-13.0
 70
   192
  0
VERTEX
  5
B279
  8
0
 10
-175.0000000000003
 20
210.0
 30
-13.0
 70
   192
  0
VERTEX
  5
B27A
  8
0
 10
-175.0000000000003
 20
210.0
 30
-23.0
 70
   192
  0
VERTEX
  5
B27B
  8
0
 10
-138.0000000000003
 20
210.0
 30
-23.0
 70
   192
  0
VERTEX
  5
B27C
  8
0
 10
0.0
 20
0.0
 30
0.0
 70
   128
 71
     6
 72
     1
 73
    -2
  0
VERTEX
  5
B27D
  8
0
 10
0.0
 20
0.0
 30
0.0
 70
   128
 71
     5
 72
    -6
 73
    -2
  0
VERTEX
  5
B27E
  8
0
 10
0.0
 20
0.0
 30
0.0
 70
   128
 71
     3
 72
     4
 73
    -5
  0
VERTEX
  5
B27F
  8
0
 10
0.0
 20
0.0
 30
0.0
 70
   128
 71
     2
 72
    -3
 73
    -5
  0
SEQEND
  5
B48F
  8
0
  0
POLYLINE
  5
B280
  8
0
 66
     1
 10
0.0
 20
0.0
 30
0.0
 70
    64
 71
     6
 72
     4
  0
VERTEX
  5
B281
  8
0
 10
-175.0000000000003
 20
175.0000000000001
 30
-10.0
 70
   192
  0
VERTEX
  5
B282
  8
0
 10
-175.0000000000003
 20
235.0000000000001
 30
-10.0
 70
   192
  0
VERTEX
  5
B283
  8
0
 10
-175.0000000000003
 20
235.0000000000001
 30
-23.0
 70
   192
  0
VERTEX
  5
B284
  8
0
 10
-175.0000000000003
 20
210.0
 30
-23.0
 70
   192
  0
VERTEX
  5
B285
  8
0
 10
-175.0000000000003
 20
210.0
 30
-13.0
 70
   192
  0
VERTEX
  5
B286
  8
0
 10
-175.0000000000003
 20
175.0000000000001
 30
-13.0
 70
   192
  0
VERTEX
  5
B287
  8
0
 10
0.0
 20
0.0
 30
0.0
 70
   128
 71
     3
 72
     4
 73
    -5
  0
VERTEX
  5
B288
  8
0
 10
0.0
 20
0.0
 30
0.0
 70
   128
 71
     2
 72
    -3
 73
    -5
  0
VERTEX
  5
B289
  8
0
 10
0.0
 20
0.0
 30
0.0
 70
   128
 71
     6
 72
     1
 73
    -2
  0
VERTEX
  5
B28A
  8
0
 10
0.0
 20
0.0
 30
0.0
 70
   128
 71
     5
 72
    -6
 73
    -2
  0
SEQEND
  5
B490
  8
0
  0
POLYLINE
  5
B28B
  8
0
 66
     1
 10
0.0
 20
0.0
 30
0.0
 70
    64
 71
     4
 72
     2
  0
VERTEX
  5
B28C
  8
0
 10
-175.0000000000003
 20
235.0000000000001
 30
-10.0
 70
   192
  0
VERTEX
  5
B28D
  8
0
 10
-175.0000000000003
 20
235.0000000000001
 30
-23.0
 70
   192
  0
VERTEX
  5
B28E
  8
0
 10
-95.00000000000033
 20
235.0
 30
-23.0
 70
   192
  0
VERTEX
  5
B28F
  8
0
 10
-95.00000000000033
 20
235.0
 30
-10.0
 70
   192
  0
VERTEX
  5
B290
  8
0
 10
0.0
 20
0.0
 30
0.0
 70
   128
 71
     1
 72
     4
 73
    -3
  0
VERTEX
  5
B291
  8
0
 10
0.0
 20
0.0
 30
0.0
 70
   128
 71
    -1
 72
     3
 73
     2
  0
SEQEND
  5
B491
  8
0
  0
POLYLINE
  5
B292
  8
0
 66
     1
 10
0.0
 20
0.0
 30
0.0
 70
    64
 71
     6
 72
     4
  0
VERTEX
  5
B293
  8
0
 10
-95.00000000000033
 20
235.0
 30
-10.0
 70
   192
  0
VERTEX
  5
B294
  8
0
 10
-95.00000000000031
 20
235.0
 30
-23.0
 70
   192
  0
VERTEX
  5
B295
  8
0
 10
-95.00000000000031
 20
210.0
 30
-23.0
 70
   192
  0
VERTEX
  5
B296
  8
0
 10
-95.00000000000031
 20
210.0
 30
-13.0
 70
   192
  0
VERTEX
  5
B297
  8
0
 10
-95.00000000000028
 20
175.0000000000001
 30
-13.0
 70
   192
  0
VERTEX
  5
B298
  8
0
 10
-95.00000000000028
 20
175.0000000000001
 30
-10.0
 70
   192
  0
VERTEX
  5
B299
  8
0
 10
0.0
 20
0.0
 30
0.0
 70
   128
 71
     4
 72
     3
 73
    -2
  0
VERTEX
  5
B29A
  8
0
 10
0.0
 20
0.0
 30
0.0
 70
   128
 71
    -4
 72
     2
 73
    -1
  0
VERTEX
  5
B29B
  8
0
 10
0.0
 20
0.0
 30
0.0
 70
   128
 71
     1
 72
     6
 73
    -5
  0
VERTEX
  5
B29C
  8
0
 10
0.0
 20
0.0
 30
0.0
 70
   128
 71
    -1
 72
     5
 73
    -4
  0
SEQEND
  5
B492
  8
0
  0
POLYLINE
  5
B29D
  8
0
 66
     1
 10
0.0
 20
0.0
 30
0.0
 70
    64
 71
     4
 72
     2
  0
VERTEX
  5
B29E
  8
0
 10
-95.00000000000028
 20
175.0000000000001
 30
-10.0
 70
   192
  0
VERTEX
  5
B29F
  8
0
 10
-175.0000000000003
 20
175.0000000000001
 30
-10.0
 70
   192
  0
VERTEX
  5
B2A0
  8
0
 10
-175.0000000000003
 20
175.0000000000001
 30
-13.0
 70
   192
  0
VERTEX
  5
B2A1
  8
0
 10
-95.00000000000028
 20
175.0000000000001
 30
-13.0
 70
   192
  0
VERTEX
  5
B2A2
  8
0
 10
0.0
 20
0.0
 30
0.0
 70
   128
 71
     3
 72
     4
 73
    -1
  0
VERTEX
  5
B2A3
  8
0
 10
0.0
 20
0.0
 30
0.0
 70
   128
 71
     2
 72
    -3
 73
     1
  0
SEQEND
  5
B493
  8
0
  0
POLYLINE
  5
B2A4
  8
0
 66
     1
 10
0.0
 20
0.0
 30
0.0
 70
    64
 71
     8
 72
     6
  0
VERTEX
  5
B2A5
  8
0
 10
-98.00000000000031
 20
232.0
 30
-13.0
 70
   192
  0
VERTEX
  5
B2A6
  8
0
 10
-172.0000000000003
 20
232.0000000000001
 30
-13.0
 70
   192
  0
VERTEX
  5
B2A7
  8
0
 10
-172.0000000000003
 20
210.0
 30
-13.0
 70
   192
  0
VERTEX
  5
B2A8
  8
0
 10
-175.0000000000003
 20
210.0
 30
-13.0
 70
   192
  0
VERTEX
  5
B2A9
  8
0
 10
-175.0000000000003
 20
175.0000000000001
 30
-13.0
 70
   192
  0
VERTEX
  5
B2AA
  8
0
 10
-95.00000000000028
 20
175.0000000000001
 30
-13.0
 70
   192
  0
VERTEX
  5
B2AB
  8
0
 10
-95.00000000000031
 20
210.0
 30
-13.0
 70
   192
  0
VERTEX
  5
B2AC
  8
0
 10
-98.0000000000003
 20
210.0
 30
-13.0
 70
   192
  0
VERTEX
  5
B2AD
  8
0
 10
0.0
 20
0.0
 30
0.0
 70
   128
 71
     8
 72
     7
 73
    -6
  0
VERTEX
  5
B2AE
  8
0
 10
0.0
 20
0.0
 30
0.0
 70
   128
 71
     3
 72
     2
 73
    -1
  0
VERTEX
  5
B2AF
  8
0
 10
0.0
 20
0.0
 30
0.0
 70
   128
 71
    -3
 72
     1
 73
    -8
  0
VERTEX
  5
B2B0
  8
0
 10
0.0
 20
0.0
 30
0.0
 70
   128
 71
    -8
 72
     6
 73
    -5
  0
VERTEX
  5
B2B1
  8
0
 10
0.0
 20
0.0
 30
0.0
 70
   128
 71
    -8
 72
    -5
 73
    -3
  0
VERTEX
  5
B2B2
  8
0
 10
0.0
 20
0.0
 30
0.0
 70
   128
 71
     5
 72
     4
 73
    -3
  0
SEQEND
  5
B494
  8
0
  0
POLYLINE
  5
B2B3
  8
0
 66
     1
 10
0.0
 20
0.0
 30
0.0
 70
    64
 71
     4
 72
     2
  0
VERTEX
  5
B2B4
  8
0
 10
-175.0000000000003
 20
235.0000000000001
 30
-10.0
 70
   192
  0
VERTEX
  5
B2B5
  8
0
 10
-175.0000000000003
 20
175.0000000000001
 30
-10.0
 70
   192
  0
VERTEX
  5
B2B6
  8
0
 10
-95.00000000000028
 20
175.0000000000001
 30
-10.0
 70
   192
  0
VERTEX
  5
B2B7
  8
0
 10
-95.00000000000033
 20
235.0
 30
-10.0
 70
   192
  0
VERTEX
  5
B2B8
  8
0
 10
0.0
 20
0.0
 30
0.0
 70
   128
 71
     3
 72
     4
 73
    -1
  0
VERTEX
  5
B2B9
  8
0
 10
0.0
 20
0.0
 30
0.0
 70
   128
 71
     2
 72
    -3
 73
     1
  0
SEQEND
  5
B495
  8
0
  0
POLYLINE
  5
B2BA
  8
0
 66
     1
 10
0.0
 20
0.0
 30
0.0
 70
    64
 71
     4
 72
     2
  0
VERTEX
  5
B2BB
  8
0
 10
-131.9999999999997
 20
230.0
 30
-20.0
 70
   192
  0
VERTEX
  5
B2BC
  8
0
 10
-138.0000000000003
 20
230.0
 30
-20.0
 70
   192
  0
VERTEX
  5
B2BD
  8
0
 10
-138.0000000000003
 20
230.0
 30
-23.0
 70
   192
  0
VERTEX
  5
B2BE
  8
0
 10
-131.9999999999997
 20
230.0
 30
-23.0
 70
   192
  0
VERTEX
  5
B2BF
  8
0
 10
0.0
 20
0.0
 30
0.0
 70
   128
 71
     3
 72
     4
 73
    -1
  0
VERTEX
  5
B2C0
  8
0
 10
0.0
 20
0.0
 30
0.0
 70
   128
 71
     2
 72
    -3
 73
     1
  0
SEQEND
  5
B496
  8
0
  0
POLYLINE
  5
B2C1
  8
0
 66
     1
 10
0.0
 20
0.0
 30
0.0
 70
    64
 71
     4
 72
     2
  0
VERTEX
  5
B2C2
  8
0
 10
-138.0000000000003
 20
230.0
 30
-20.0
 70
   192
  0
VERTEX
  5
B2C3
  8
0
 10
-138.0000000000003
 20
210.0
 30
-20.0
 70
   192
  0
VERTEX
  5
B2C4
  8
0
 10
-138.0000000000003
 20
210.0
 30
-23.0
 70
   192
  0
VERTEX
  5
B2C5
  8
0
 10
-138.0000000000003
 20
230.0
 30
-23.0
 70
   192
  0
VERTEX
  5
B2C6
  8
0
 10
0.0
 20
0.0
 30
0.0
 70
   128
 71
     3
 72
     4
 73
    -1
  0
VERTEX
  5
B2C7
  8
0
 10
0.0
 20
0.0
 30
0.0
 70
   128
 71
     2
 72
    -3
 73
     1
  0
SEQEND
  5
B497
  8
0
  0
POLYLINE
  5
B2C8
  8
0
 66
     1
 10
0.0
 20
0.0
 30
0.0
 70
    64
 71
     6
 72
     4
  0
VERTEX
  5
B2C9
  8
0
 10
-98.00000000000031
 20
210.0
 30
-13.0
 70
   192
  0
VERTEX
  5
B2CA
  8
0
 10
-98.00000000000031
 20
210.0
 30
-20.0
 70
   192
  0
VERTEX
  5
B2CB
  8
0
 10
-131.9999999999997
 20
210.0
 30
-20.0
 70
   192
  0
VERTEX
  5
B2CC
  8
0
 10
-131.9999999999997
 20
210.0
 30
-23.0
 70
   192
  0
VERTEX
  5
B2CD
  8
0
 10
-95.00000000000031
 20
210.0
 30
-23.0
 70
   192
  0
VERTEX
  5
B2CE
  8
0
 10
-95.00000000000031
 20
210.0
 30
-13.0
 70
   192
  0
VERTEX
  5
B2CF
  8
0
 10
0.0
 20
0.0
 30
0.0
 70
   128
 71
     6
 72
     1
 73
    -2
  0
VERTEX
  5
B2D0
  8
0
 10
0.0
 20
0.0
 30
0.0
 70
   128
 71
     5
 72
    -6
 73
    -2
  0
VERTEX
  5
B2D1
  8
0
 10
0.0
 20
0.0
 30
0.0
 70
   128
 71
     3
 72
     4
 73
    -5
  0
VERTEX
  5
B2D2
  8
0
 10
0.0
 20
0.0
 30
0.0
 70
   128
 71
     2
 72
    -3
 73
    -5
  0
SEQEND
  5
B498
  8
0
  0
POLYLINE
  5
B2D3
  8
0
 66
     1
 10
0.0
 20
0.0
 30
0.0
 70
    64
 71
     4
 72
     2
  0
VERTEX
  5
B2D4
  8
0
 10
-131.9999999999996
 20
210.0
 30
-20.0
 70
   192
  0
VERTEX
  5
B2D5
  8
0
 10
-131.9999999999997
 20
230.0
 30
-20.0
 70
   192
  0
VERTEX
  5
B2D6
  8
0
 10
-131.9999999999997
 20
230.0
 30
-23.0
 70
   192
  0
VERTEX
  5
B2D7
  8
0
 10
-131.9999999999996
 20
210.0
 30
-23.0
 70
   192
  0
VERTEX
  5
B2D8
  8
0
 10
0.0
 20
0.0
 30
0.0
 70
   128
 71
     3
 72
     4
 73
    -1
  0
VERTEX
  5
B2D9
  8
0
 10
0.0
 20
0.0
 30
0.0
 70
   128
 71
     2
 72
    -3
 73
     1
  0
SEQEND
  5
B499
  8
0
  0
POLYLINE
  5
B2DA
  8
0
 66
     1
 10
0.0
 20
0.0
 30
0.0
 70
    64
 71
     8
 72
     6
  0
VERTEX
  5
B2DB
  8
0
 10
-131.9999999999997
 20
230.0
 30
-23.0
 70
   192
  0
VERTEX
  5
B2DC
  8
0
 10
-138.0000000000003
 20
230.0
 30
-23.0
 70
   192
  0
VERTEX
  5
B2DD
  8
0
 10
-138.0000000000003
 20
210.0
 30
-23.0
 70
   192
  0
VERTEX
  5
B2DE
  8
0
 10
-175.0000000000003
 20
210.0
 30
-23.0
 70
   192
  0
VERTEX
  5
B2DF
  8
0
 10
-175.0000000000003
 20
235.0000000000001
 30
-23.0
 70
   192
  0
VERTEX
  5
B2E0
  8
0
 10
-95.00000000000033
 20
235.0
 30
-23.0
 70
   192
  0
VERTEX
  5
B2E1
  8
0
 10
-95.0000000000003
 20
210.0
 30
-23.0
 70
   192
  0
VERTEX
  5
B2E2
  8
0
 10
-131.9999999999997
 20
210.0
 30
-23.0
 70
   192
  0
VERTEX
  5
B2E3
  8
0
 10
0.0
 20
0.0
 30
0.0
 70
   128
 71
     7
 72
     8
 73
    -1
  0
VERTEX
  5
B2E4
  8
0
 10
0.0
 20
0.0
 30
0.0
 70
   128
 71
     6
 72
    -7
 73
    -1
  0
VERTEX
  5
B2E5
  8
0
 10
0.0
 20
0.0
 30
0.0
 70
   128
 71
    -6
 72
     1
 73
    -2
  0
VERTEX
  5
B2E6
  8
0
 10
0.0
 20
0.0
 30
0.0
 70
   128
 71
     5
 72
    -6
 73
    -2
  0
VERTEX
  5
B2E7
  8
0
 10
0.0
 20
0.0
 30
0.0
 70
   128
 71
     3
 72
     4
 73
    -5
  0
VERTEX
  5
B2E8
  8
0
 10
0.0
 20
0.0
 30
0.0
 70
   128
 71
     2
 72
    -3
 73
    -5
  0
SEQEND
  5
B49A
  8
0
  0
POLYLINE
  5
B2E9
  8
0
 66
     1
 10
0.0
 20
0.0
 30
0.0
 70
    64
 71
     4
 72
     2
  0
VERTEX
  5
B2EA
  8
0
 10
-172.0000000000003
 20
210.0
 30
-13.0
 70
   192
  0
VERTEX
  5
B2EB
  8
0
 10
-172.0000000000003
 20
232.0000000000001
 30
-13.0
 70
   192
  0
VERTEX
  5
B2EC
  8
0
 10
-172.0000000000003
 20
232.0000000000001
 30
-20.0
 70
   192
  0
VERTEX
  5
B2ED
  8
0
 10
-172.0000000000003
 20
210.0
 30
-20.0
 70
   192
  0
VERTEX
  5
B2EE
  8
0
 10
0.0
 20
0.0
 30
0.0
 70
   128
 71
     1
 72
     4
 73
    -3
  0
VERTEX
  5
B2EF
  8
0
 10
0.0
 20
0.0
 30
0.0
 70
   128
 71
    -1
 72
     3
 73
     2
  0
SEQEND
  5
B49B
  8
0
  0
POLYLINE
  5
B2F0
  8
0
 66
     1
 10
0.0
 20
0.0
 30
0.0
 70
    64
 71
     4
 72
     2
  0
VERTEX
  5
B2F1
  8
0
 10
-98.00000000000031
 20
232.0
 30
-13.0
 70
   192
  0
VERTEX
  5
B2F2
  8
0
 10
-172.0000000000003
 20
232.0000000000001
 30
-13.0
 70
   192
  0
VERTEX
  5
B2F3
  8
0
 10
-172.0000000000003
 20
232.0000000000001
 30
-20.0
 70
   192
  0
VERTEX
  5
B2F4
  8
0
 10
-98.00000000000033
 20
232.0
 30
-20.0
 70
   192
  0
VERTEX
  5
B2F5
  8
0
 10
0.0
 20
0.0
 30
0.0
 70
   128
 71
     3
 72
     4
 73
    -1
  0
VERTEX
  5
B2F6
  8
0
 10
0.0
 20
0.0
 30
0.0
 70
   128
 71
     2
 72
    -3
 73
     1
  0
SEQEND
  5
B49C
  8
0
  0
POLYLINE
  5
B2F7
  8
0
 66
     1
 10
0.0
 20
0.0
 30
0.0
 70
    64
 71
     4
 72
     2
  0
VERTEX
  5
B2F8
  8
0
 10
-98.0000000000003
 20
210.0
 30
-13.0
 70
   192
  0
VERTEX
  5
B2F9
  8
0
 10
-98.00000000000031
 20
232.0
 30
-13.0
 70
   192
  0
VERTEX
  5
B2FA
  8
0
 10
-98.00000000000033
 20
232.0
 30
-20.0
 70
   192
  0
VERTEX
  5
B2FB
  8
0
 10
-98.00000000000031
 20
210.0
 30
-20.0
 70
   192
  0
VERTEX
  5
B2FC
  8
0
 10
0.0
 20
0.0
 30
0.0
 70
   128
 71
     3
 72
     4
 73
    -1
  0
VERTEX
  5
B2FD
  8
0
 10
0.0
 20
0.0
 30
0.0
 70
   128
 71
     2
 72
    -3
 73
     1
  0
SEQEND
  5
B49D
  8
0
  0
POLYLINE
  5
B2FE
  8
0
 66
     1
 10
0.0
 20
0.0
 30
0.0
 70
    64
 71
     8
 72
     6
  0
VERTEX
  5
B2FF
  8
0
 10
-138.0000000000003
 20
230.0
 30
-20.0
 70
   192
  0
VERTEX
  5
B300
  8
0
 10
-138.0000000000003
 20
210.0
 30
-20.0
 70
   192
  0
VERTEX
  5
B301
  8
0
 10
-172.0000000000003
 20
210.0
 30
-20.0
 70
   192
  0
VERTEX
  5
B302
  8
0
 10
-172.0000000000003
 20
232.0000000000001
 30
-20.0
 70
   192
  0
VERTEX
  5
B303
  8
0
 10
-98.00000000000033
 20
232.0
 30
-20.0
 70
   192
  0
VERTEX
  5
B304
  8
0
 10
-98.00000000000031
 20
210.0
 30
-20.0
 70
   192
  0
VERTEX
  5
B305
  8
0
 10
-131.9999999999996
 20
210.0
 30
-20.0
 70
   192
  0
VERTEX
  5
B306
  8
0
 10
-131.9999999999997
 20
230.0
 30
-20.0
 70
   192
  0
VERTEX
  5
B307
  8
0
 10
0.0
 20
0.0
 30
0.0
 70
   128
 71
     8
 72
     7
 73
    -6
  0
VERTEX
  5
B308
  8
0
 10
0.0
 20
0.0
 30
0.0
 70
   128
 71
    -8
 72
     6
 73
    -5
  0
VERTEX
  5
B309
  8
0
 10
0.0
 20
0.0
 30
0.0
 70
   128
 71
    -5
 72
     1
 73
    -8
  0
VERTEX
  5
B30A
  8
0
 10
0.0
 20
0.0
 30
0.0
 70
   128
 71
     5
 72
    -4
 73
    -1
  0
VERTEX
  5
B30B
  8
0
 10
0.0
 20
0.0
 30
0.0
 70
   128
 71
     4
 72
     3
 73
    -2
  0
VERTEX
  5
B30C
  8
0
 10
0.0
 20
0.0
 30
0.0
 70
   128
 71
    -4
 72
     2
 73
    -1
  0
SEQEND
  5
B49E
  8
0
  0
ENDBLK
  5
B48E
  8
0
  0
BLOCK
  8
0
  2
*X3
 70
     1
 10
0.0
 20
0.0
 30
0.0
  3
*X3
  1

  0
POLYLINE
  5
B30E
  8
0
 66
     1
 10
0.0
 20
0.0
 30
0.0
 70
    64
 71
     8
 72
     6
  0
VERTEX
  5
B30F
  8
0
 10
95.0000000000005
 20
210.0000000000001
 30
-13.0
 70
   192
  0
VERTEX
  5
B310
  8
0
 10
95.00000000000051
 20
175.0000000000001
 30
-13.0
 70
   192
  0
VERTEX
  5
B311
  8
0
 10
174.9999999999995
 20
175.0000000000009
 30
-13.0
 70
   192
  0
VERTEX
  5
B312
  8
0
 10
174.9999999999995
 20
210.0000000000001
 30
-13.0
 70
   192
  0
VERTEX
  5
B313
  8
0
 10
171.9999999999995
 20
210.0000000000001
 30
-13.0
 70
   192
  0
VERTEX
  5
B314
  8
0
 10
171.9999999999995
 20
232.0
 30
-13.0
 70
   192
  0
VERTEX
  5
B315
  8
0
 10
98.0000000000005
 20
232.0
 30
-13.0
 70
   192
  0
VERTEX
  5
B316
  8
0
 10
98.0000000000005
 20
210.0000000000001
 30
-13.0
 70
   192
  0
VERTEX
  5
B317
  8
0
 10
0.0
 20
0.0
 30
0.0
 70
   128
 71
     5
 72
    -4
 73
    -8
  0
VERTEX
  5
B318
  8
0
 10
0.0
 20
0.0
 30
0.0
 70
   128
 71
     8
 72
     7
 73
    -6
  0
VERTEX
  5
B319
  8
0
 10
0.0
 20
0.0
 30
0.0
 70
   128
 71
    -8
 72
     6
 73
    -5
  0
VERTEX
  5
B31A
  8
0
 10
0.0
 20
0.0
 30
0.0
 70
   128
 71
     4
 72
     3
 73
    -2
  0
VERTEX
  5
B31B
  8
0
 10
0.0
 20
0.0
 30
0.0
 70
   128
 71
    -4
 72
    -2
 73
    -8
  0
VERTEX
  5
B31C
  8
0
 10
0.0
 20
0.0
 30
0.0
 70
   128
 71
     2
 72
     1
 73
    -8
  0
SEQEND
  5
B4A1
  8
0
  0
POLYLINE
  5
B31D
  8
0
 66
     1
 10
0.0
 20
0.0
 30
0.0
 70
    64
 71
     6
 72
     4
  0
VERTEX
  5
B31E
  8
0
 10
95.00000000000051
 20
175.0000000000001
 30
-10.0
 70
   192
  0
VERTEX
  5
B31F
  8
0
 10
95.0000000000005
 20
235.0
 30
-10.0
 70
   192
  0
VERTEX
  5
B320
  8
0
 10
95.0000000000005
 20
235.0
 30
-23.0
 70
   192
  0
VERTEX
  5
B321
  8
0
 10
95.00000000000051
 20
210.0000000000001
 30
-23.0
 70
   192
  0
VERTEX
  5
B322
  8
0
 10
95.0000000000005
 20
210.0000000000001
 30
-13.0
 70
   192
  0
VERTEX
  5
B323
  8
0
 10
95.00000000000051
 20
175.0000000000001
 30
-13.0
 70
   192
  0
VERTEX
  5
B324
  8
0
 10
0.0
 20
0.0
 30
0.0
 70
   128
 71
     3
 72
     4
 73
    -5
  0
VERTEX
  5
B325
  8
0
 10
0.0
 20
0.0
 30
0.0
 70
   128
 71
     2
 72
    -3
 73
    -5
  0
VERTEX
  5
B326
  8
0
 10
0.0
 20
0.0
 30
0.0
 70
   128
 71
     6
 72
     1
 73
    -2
  0
VERTEX
  5
B327
  8
0
 10
0.0
 20
0.0
 30
0.0
 70
   128
 71
     5
 72
    -6
 73
    -2
  0
SEQEND
  5
B4A2
  8
0
  0
POLYLINE
  5
B328
  8
0
 66
     1
 10
0.0
 20
0.0
 30
0.0
 70
    64
 71
     4
 72
     2
  0
VERTEX
  5
B329
  8
0
 10
95.0000000000005
 20
235.0
 30
-10.0
 70
   192
  0
VERTEX
  5
B32A
  8
0
 10
95.0000000000005
 20
235.0
 30
-23.0
 70
   192
  0
VERTEX
  5
B32B
  8
0
 10
174.9999999999995
 20
235.0
 30
-23.0
 70
   192
  0
VERTEX
  5
B32C
  8
0
 10
174.9999999999995
 20
235.0
 30
-10.0
 70
   192
  0
VERTEX
  5
B32D
  8
0
 10
0.0
 20
0.0
 30
0.0
 70
   128
 71
     1
 72
     4
 73
    -3
  0
VERTEX
  5
B32E
  8
0
 10
0.0
 20
0.0
 30
0.0
 70
   128
 71
    -1
 72
     3
 73
     2
  0
SEQEND
  5
B4A3
  8
0
  0
POLYLINE
  5
B32F
  8
0
 66
     1
 10
0.0
 20
0.0
 30
0.0
 70
    64
 71
     6
 72
     4
  0
VERTEX
  5
B330
  8
0
 10
174.9999999999995
 20
235.0
 30
-10.0
 70
   192
  0
VERTEX
  5
B331
  8
0
 10
174.9999999999995
 20
235.0
 30
-23.0
 70
   192
  0
VERTEX
  5
B332
  8
0
 10
174.9999999999995
 20
210.0000000000001
 30
-23.0
 70
   192
  0
VERTEX
  5
B333
  8
0
 10
174.9999999999995
 20
210.0000000000001
 30
-13.0
 70
   192
  0
VERTEX
  5
B334
  8
0
 10
174.9999999999995
 20
175.0000000000009
 30
-13.0
 70
   192
  0
VERTEX
  5
B335
  8
0
 10
174.9999999999995
 20
175.0000000000009
 30
-10.0
 70
   192
  0
VERTEX
  5
B336
  8
0
 10
0.0
 20
0.0
 30
0.0
 70
   128
 71
     4
 72
     3
 73
    -2
  0
VERTEX
  5
B337
  8
0
 10
0.0
 20
0.0
 30
0.0
 70
   128
 71
    -4
 72
     2
 73
    -1
  0
VERTEX
  5
B338
  8
0
 10
0.0
 20
0.0
 30
0.0
 70
   128
 71
     1
 72
     6
 73
    -5
  0
VERTEX
  5
B339
  8
0
 10
0.0
 20
0.0
 30
0.0
 70
   128
 71
    -1
 72
     5
 73
    -4
  0
SEQEND
  5
B4A4
  8
0
  0
POLYLINE
  5
B33A
  8
0
 66
     1
 10
0.0
 20
0.0
 30
0.0
 70
    64
 71
     4
 72
     2
  0
VERTEX
  5
B33B
  8
0
 10
174.9999999999995
 20
175.0000000000009
 30
-10.0
 70
   192
  0
VERTEX
  5
B33C
  8
0
 10
95.00000000000051
 20
175.0000000000001
 30
-10.0
 70
   192
  0
VERTEX
  5
B33D
  8
0
 10
95.00000000000051
 20
175.0000000000001
 30
-13.0
 70
   192
  0
VERTEX
  5
B33E
  8
0
 10
174.9999999999995
 20
175.0000000000009
 30
-13.0
 70
   192
  0
VERTEX
  5
B33F
  8
0
 10
0.0
 20
0.0
 30
0.0
 70
   128
 71
     3
 72
     4
 73
    -1
  0
VERTEX
  5
B340
  8
0
 10
0.0
 20
0.0
 30
0.0
 70
   128
 71
     2
 72
    -3
 73
     1
  0
SEQEND
  5
B4A5
  8
0
  0
POLYLINE
  5
B341
  8
0
 66
     1
 10
0.0
 20
0.0
 30
0.0
 70
    64
 71
     4
 72
     2
  0
VERTEX
  5
B342
  8
0
 10
95.0000000000005
 20
235.0
 30
-10.0
 70
   192
  0
VERTEX
  5
B343
  8
0
 10
95.00000000000051
 20
175.0000000000001
 30
-10.0
 70
   192
  0
VERTEX
  5
B344
  8
0
 10
174.9999999999995
 20
175.0000000000009
 30
-10.0
 70
   192
  0
VERTEX
  5
B345
  8
0
 10
174.9999999999995
 20
235.0
 30
-10.0
 70
   192
  0
VERTEX
  5
B346
  8
0
 10
0.0
 20
0.0
 30
0.0
 70
   128
 71
     3
 72
     4
 73
    -1
  0
VERTEX
  5
B347
  8
0
 10
0.0
 20
0.0
 30
0.0
 70
   128
 71
     2
 72
    -3
 73
     1
  0
SEQEND
  5
B4A6
  8
0
  0
POLYLINE
  5
B348
  8
0
 66
     1
 10
0.0
 20
0.0
 30
0.0
 70
    64
 71
     4
 72
     2
  0
VERTEX
  5
B349
  8
0
 10
131.9999999999997
 20
230.0
 30
-23.0
 70
   192
  0
VERTEX
  5
B34A
  8
0
 10
131.9999999999997
 20
210.0
 30
-23.0
 70
   192
  0
VERTEX
  5
B34B
  8
0
 10
131.9999999999996
 20
210.0000000000001
 30
-20.0
 70
   192
  0
VERTEX
  5
B34C
  8
0
 10
131.9999999999997
 20
230.0
 30
-20.0
 70
   192
  0
VERTEX
  5
B34D
  8
0
 10
0.0
 20
0.0
 30
0.0
 70
   128
 71
     1
 72
     4
 73
    -3
  0
VERTEX
  5
B34E
  8
0
 10
0.0
 20
0.0
 30
0.0
 70
   128
 71
    -1
 72
     3
 73
     2
  0
SEQEND
  5
B4A7
  8
0
  0
POLYLINE
  5
B34F
  8
0
 66
     1
 10
0.0
 20
0.0
 30
0.0
 70
    64
 71
     6
 72
     4
  0
VERTEX
  5
B350
  8
0
 10
131.9999999999997
 20
210.0
 30
-20.0
 70
   192
  0
VERTEX
  5
B351
  8
0
 10
131.9999999999997
 20
210.0000000000001
 30
-23.0
 70
   192
  0
VERTEX
  5
B352
  8
0
 10
95.0000000000005
 20
210.0000000000001
 30
-23.0
 70
   192
  0
VERTEX
  5
B353
  8
0
 10
95.0000000000005
 20
210.0000000000001
 30
-13.0
 70
   192
  0
VERTEX
  5
B354
  8
0
 10
98.0000000000005
 20
210.0000000000001
 30
-13.0
 70
   192
  0
VERTEX
  5
B355
  8
0
 10
98.0000000000005
 20
210.0000000000001
 30
-20.0
 70
   192
  0
VERTEX
  5
B356
  8
0
 10
0.0
 20
0.0
 30
0.0
 70
   128
 71
     6
 72
     5
 73
    -4
  0
VERTEX
  5
B357
  8
0
 10
0.0
 20
0.0
 30
0.0
 70
   128
 71
    -6
 72
     4
 73
    -3
  0
VERTEX
  5
B358
  8
0
 10
0.0
 20
0.0
 30
0.0
 70
   128
 71
     3
 72
     2
 73
    -1
  0
VERTEX
  5
B359
  8
0
 10
0.0
 20
0.0
 30
0.0
 70
   128
 71
    -3
 72
     1
 73
    -6
  0
SEQEND
  5
B4A8
  8
0
  0
POLYLINE
  5
B35A
  8
0
 66
     1
 10
0.0
 20
0.0
 30
0.0
 70
    64
 71
     6
 72
     4
  0
VERTEX
  5
B35B
  8
0
 10
171.9999999999995
 20
210.0000000000001
 30
-13.0
 70
   192
  0
VERTEX
  5
B35C
  8
0
 10
174.9999999999995
 20
210.0000000000001
 30
-13.0
 70
   192
  0
VERTEX
  5
B35D
  8
0
 10
174.9999999999995
 20
210.0000000000001
 30
-23.0
 70
   192
  0
VERTEX
  5
B35E
  8
0
 10
138.0000000000003
 20
210.0
 30
-23.0
 70
   192
  0
VERTEX
  5
B35F
  8
0
 10
138.0000000000003
 20
210.0
 30
-20.0
 70
   192
  0
VERTEX
  5
B360
  8
0
 10
171.9999999999995
 20
210.0000000000001
 30
-20.0
 70
   192
  0
VERTEX
  5
B361
  8
0
 10
0.0
 20
0.0
 30
0.0
 70
   128
 71
     6
 72
     5
 73
    -4
  0
VERTEX
  5
B362
  8
0
 10
0.0
 20
0.0
 30
0.0
 70
   128
 71
    -6
 72
     4
 73
    -3
  0
VERTEX
  5
B363
  8
0
 10
0.0
 20
0.0
 30
0.0
 70
   128
 71
     3
 72
     2
 73
    -1
  0
VERTEX
  5
B364
  8
0
 10
0.0
 20
0.0
 30
0.0
 70
   128
 71
    -3
 72
     1
 73
    -6
  0
SEQEND
  5
B4A9
  8
0
  0
POLYLINE
  5
B365
  8
0
 66
     1
 10
0.0
 20
0.0
 30
0.0
 70
    64
 71
     4
 72
     2
  0
VERTEX
  5
B366
  8
0
 10
138.0000000000003
 20
210.0
 30
-23.0
 70
   192
  0
VERTEX
  5
B367
  8
0
 10
138.0000000000003
 20
230.0
 30
-23.0
 70
   192
  0
VERTEX
  5
B368
  8
0
 10
138.0000000000003
 20
230.0
 30
-20.0
 70
   192
  0
VERTEX
  5
B369
  8
0
 10
138.0000000000003
 20
210.0
 30
-20.0
 70
   192
  0
VERTEX
  5
B36A
  8
0
 10
0.0
 20
0.0
 30
0.0
 70
   128
 71
     1
 72
     4
 73
    -3
  0
VERTEX
  5
B36B
  8
0
 10
0.0
 20
0.0
 30
0.0
 70
   128
 71
    -1
 72
     3
 73
     2
  0
SEQEND
  5
B4AA
  8
0
  0
POLYLINE
  5
B36C
  8
0
 66
     1
 10
0.0
 20
0.0
 30
0.0
 70
    64
 71
     4
 72
     2
  0
VERTEX
  5
B36D
  8
0
 10
138.0000000000003
 20
230.0
 30
-23.0
 70
   192
  0
VERTEX
  5
B36E
  8
0
 10
131.9999999999997
 20
230.0
 30
-23.0
 70
   192
  0
VERTEX
  5
B36F
  8
0
 10
131.9999999999997
 20
230.0
 30
-20.0
 70
   192
  0
VERTEX
  5
B370
  8
0
 10
138.0000000000003
 20
230.0
 30
-20.0
 70
   192
  0
VERTEX
  5
B371
  8
0
 10
0.0
 20
0.0
 30
0.0
 70
   128
 71
     1
 72
     4
 73
    -3
  0
VERTEX
  5
B372
  8
0
 10
0.0
 20
0.0
 30
0.0
 70
   128
 71
    -1
 72
     3
 73
     2
  0
SEQEND
  5
B4AB
  8
0
  0
POLYLINE
  5
B373
  8
0
 66
     1
 10
0.0
 20
0.0
 30
0.0
 70
    64
 71
     8
 72
     6
  0
VERTEX
  5
B374
  8
0
 10
131.9999999999997
 20
230.0
 30
-23.0
 70
   192
  0
VERTEX
  5
B375
  8
0
 10
131.9999999999996
 20
210.0000000000001
 30
-23.0
 70
   192
  0
VERTEX
  5
B376
  8
0
 10
95.0000000000005
 20
210.0000000000001
 30
-23.0
 70
   192
  0
VERTEX
  5
B377
  8
0
 10
95.0000000000005
 20
235.0
 30
-23.0
 70
   192
  0
VERTEX
  5
B378
  8
0
 10
174.9999999999995
 20
235.0
 30
-23.0
 70
   192
  0
VERTEX
  5
B379
  8
0
 10
174.9999999999995
 20
210.0000000000001
 30
-23.0
 70
   192
  0
VERTEX
  5
B37A
  8
0
 10
138.0000000000003
 20
210.0
 30
-23.0
 70
   192
  0
VERTEX
  5
B37B
  8
0
 10
138.0000000000003
 20
230.0
 30
-23.0
 70
   192
  0
VERTEX
  5
B37C
  8
0
 10
0.0
 20
0.0
 30
0.0
 70
   128
 71
     6
 72
     7
 73
    -8
  0
VERTEX
  5
B37D
  8
0
 10
0.0
 20
0.0
 30
0.0
 70
   128
 71
     5
 72
    -6
 73
    -8
  0
VERTEX
  5
B37E
  8
0
 10
0.0
 20
0.0
 30
0.0
 70
   128
 71
    -1
 72
     4
 73
    -5
  0
VERTEX
  5
B37F
  8
0
 10
0.0
 20
0.0
 30
0.0
 70
   128
 71
     8
 72
    -1
 73
    -5
  0
VERTEX
  5
B380
  8
0
 10
0.0
 20
0.0
 30
0.0
 70
   128
 71
     2
 72
     3
 73
    -4
  0
VERTEX
  5
B381
  8
0
 10
0.0
 20
0.0
 30
0.0
 70
   128
 71
     1
 72
    -2
 73
    -4
  0
SEQEND
  5
B4AC
  8
0
  0
POLYLINE
  5
B382
  8
0
 66
     1
 10
0.0
 20
0.0
 30
0.0
 70
    64
 71
     4
 72
     2
  0
VERTEX
  5
B383
  8
0
 10
98.00000000000051
 20
210.0000000000001
 30
-13.0
 70
   192
  0
VERTEX
  5
B384
  8
0
 10
98.0000000000005
 20
232.0
 30
-13.0
 70
   192
  0
VERTEX
  5
B385
  8
0
 10
98.0000000000005
 20
232.0
 30
-20.0
 70
   192
  0
VERTEX
  5
B386
  8
0
 10
98.0000000000005
 20
210.0000000000001
 30
-20.0
 70
   192
  0
VERTEX
  5
B387
  8
0
 10
0.0
 20
0.0
 30
0.0
 70
   128
 71
     1
 72
     4
 73
    -3
  0
VERTEX
  5
B388
  8
0
 10
0.0
 20
0.0
 30
0.0
 70
   128
 71
    -1
 72
     3
 73
     2
  0
SEQEND
  5
B4AD
  8
0
  0
POLYLINE
  5
B389
  8
0
 66
     1
 10
0.0
 20
0.0
 30
0.0
 70
    64
 71
     4
 72
     2
  0
VERTEX
  5
B38A
  8
0
 10
171.9999999999995
 20
232.0
 30
-13.0
 70
   192
  0
VERTEX
  5
B38B
  8
0
 10
98.00000000000048
 20
232.0
 30
-13.0
 70
   192
  0
VERTEX
  5
B38C
  8
0
 10
98.0000000000005
 20
232.0
 30
-20.0
 70
   192
  0
VERTEX
  5
B38D
  8
0
 10
171.9999999999995
 20
232.0
 30
-20.0
 70
   192
  0
VERTEX
  5
B38E
  8
0
 10
0.0
 20
0.0
 30
0.0
 70
   128
 71
     3
 72
     4
 73
    -1
  0
VERTEX
  5
B38F
  8
0
 10
0.0
 20
0.0
 30
0.0
 70
   128
 71
     2
 72
    -3
 73
     1
  0
SEQEND
  5
B4AE
  8
0
  0
POLYLINE
  5
B390
  8
0
 66
     1
 10
0.0
 20
0.0
 30
0.0
 70
    64
 71
     4
 72
     2
  0
VERTEX
  5
B391
  8
0
 10
171.9999999999995
 20
210.0000000000001
 30
-13.0
 70
   192
  0
VERTEX
  5
B392
  8
0
 10
171.9999999999995
 20
232.0
 30
-13.0
 70
   192
  0
VERTEX
  5
B393
  8
0
 10
171.9999999999995
 20
232.0
 30
-20.0
 70
   192
  0
VERTEX
  5
B394
  8
0
 10
171.9999999999995
 20
210.0000000000001
 30
-20.0
 70
   192
  0
VERTEX
  5
B395
  8
0
 10
0.0
 20
0.0
 30
0.0
 70
   128
 71
     3
 72
     4
 73
    -1
  0
VERTEX
  5
B396
  8
0
 10
0.0
 20
0.0
 30
0.0
 70
   128
 71
     2
 72
    -3
 73
     1
  0
SEQEND
  5
B4AF
  8
0
  0
POLYLINE
  5
B397
  8
0
 66
     1
 10
0.0
 20
0.0
 30
0.0
 70
    64
 71
     8
 72
     6
  0
VERTEX
  5
B398
  8
0
 10
131.9999999999997
 20
210.0000000000001
 30
-20.0
 70
   192
  0
VERTEX
  5
B399
  8
0
 10
98.0000000000005
 20
210.0000000000001
 30
-20.0
 70
   192
  0
VERTEX
  5
B39A
  8
0
 10
98.0000000000005
 20
232.0
 30
-20.0
 70
   192
  0
VERTEX
  5
B39B
  8
0
 10
171.9999999999995
 20
232.0
 30
-20.0
 70
   192
  0
VERTEX
  5
B39C
  8
0
 10
171.9999999999995
 20
210.0000000000001
 30
-20.0
 70
   192
  0
VERTEX
  5
B39D
  8
0
 10
138.0000000000003
 20
210.0
 30
-20.0
 70
   192
  0
VERTEX
  5
B39E
  8
0
 10
138.0000000000003
 20
230.0
 30
-20.0
 70
   192
  0
VERTEX
  5
B39F
  8
0
 10
131.9999999999997
 20
230.0
 30
-20.0
 70
   192
  0
VERTEX
  5
B3A0
  8
0
 10
0.0
 20
0.0
 30
0.0
 70
   128
 71
     7
 72
     6
 73
    -5
  0
VERTEX
  5
B3A1
  8
0
 10
0.0
 20
0.0
 30
0.0
 70
   128
 71
    -7
 72
     5
 73
    -4
  0
VERTEX
  5
B3A2
  8
0
 10
0.0
 20
0.0
 30
0.0
 70
   128
 71
    -4
 72
     8
 73
    -7
  0
VERTEX
  5
B3A3
  8
0
 10
0.0
 20
0.0
 30
0.0
 70
   128
 71
     4
 72
    -3
 73
    -8
  0
VERTEX
  5
B3A4
  8
0
 10
0.0
 20
0.0
 30
0.0
 70
   128
 71
     3
 72
     2
 73
    -1
  0
VERTEX
  5
B3A5
  8
0
 10
0.0
 20
0.0
 30
0.0
 70
   128
 71
    -3
 72
     1
 73
    -8
  0
SEQEND
  5
B4B0
  8
0
  0
ENDBLK
  5
B4A0
  8
0
  0
BLOCK
  8
0
  2
*X4
 70
     1
 10
0.0
 20
0.0
 30
0.0
  3
*X4
  1

  0
POLYLINE
  5
B3A7
  8
0
 66
     1
 10
0.0
 20
0.0
 30
0.0
 70
    64
 71
    10
 72
     8
  0
VERTEX
  5
B3A8
  8
0
 10
149.9999999999999
 20
-240.0
 30
-11.50000000000001
 70
   192
  0
VERTEX
  5
B3A9
  8
0
 10
149.9999999999999
 20
-240.0
 30
-18.49999999999999
 70
   192
  0
VERTEX
  5
B3AA
  8
0
 10
149.9999999999999
 20
-235.0
 30
-18.49999999999999
 70
   192
  0
VERTEX
  5
B3AB
  8
0
 10
149.9999999999999
 20
-235.0
 30
-11.5
 70
   192
  0
VERTEX
  5
B3AC
  8
0
 10
153.4999999999999
 20
-235.0
 30
-15.0
 70
   192
  0
VERTEX
  5
B3AD
  8
0
 10
153.4999999999999
 20
-240.0
 30
-15.0
 70
   192
  0
VERTEX
  5
B3AE
  8
0
 10
152.4748737341529
 20
-235.0
 30
-12.52512626584708
 70
   192
  0
VERTEX
  5
B3AF
  8
0
 10
152.4748737341529
 20
-240.0
 30
-12.52512626584709
 70
   192
  0
VERTEX
  5
B3B0
  8
0
 10
152.4748737341529
 20
-235.0
 30
-17.47487373415292
 70
   192
  0
VERTEX
  5
B3B1
  8
0
 10
152.4748737341529
 20
-240.0
 30
-17.47487373415291
 70
   192
  0
VERTEX
  5
B3B2
  8
0
 10
0.0
 20
0.0
 30
0.0
 70
   128
 71
     7
 72
     4
 73
    -1
  0
VERTEX
  5
B3B3
  8
0
 10
0.0
 20
0.0
 30
0.0
 70
   128
 71
    -7
 72
     1
 73
     8
  0
VERTEX
  5
B3B4
  8
0
 10
0.0
 20
0.0
 30
0.0
 70
   128
 71
     6
 72
     5
 73
    -7
  0
VERTEX
  5
B3B5
  8
0
 10
0.0
 20
0.0
 30
0.0
 70
   128
 71
    -6
 72
     7
 73
     8
  0
VERTEX
  5
B3B6
  8
0
 10
0.0
 20
0.0
 30
0.0
 70
   128
 71
    10
 72
     9
 73
    -5
  0
VERTEX
  5
B3B7
  8
0
 10
0.0
 20
0.0
 30
0.0
 70
   128
 71
   -10
 72
     5
 73
     6
  0
VERTEX
  5
B3B8
  8
0
 10
0.0
 20
0.0
 30
0.0
 70
   128
 71
     2
 72
     3
 73
    -9
  0
VERTEX
  5
B3B9
  8
0
 10
0.0
 20
0.0
 30
0.0
 70
   128
 71
    -2
 72
     9
 73
    10
  0
SEQEND
  5
B4B3
  8
0
  0
POLYLINE
  5
B3BA
  8
0
 66
     1
 10
0.0
 20
0.0
 30
0.0
 70
    64
 71
     8
 72
     6
  0
VERTEX
  5
B3BB
  8
0
 10
194.9999999999999
 20
-233.6602540378444
 30
-10.0
 70
   192
  0
VERTEX
  5
B3BC
  8
0
 10
194.9999999999999
 20
-233.6602540378444
 30
-20.0
 70
   192
  0
VERTEX
  5
B3BD
  8
0
 10
198.6602540378443
 20
-230.0
 30
-20.0
 70
   192
  0
VERTEX
  5
B3BE
  8
0
 10
198.6602540378443
 20
-230.0
 30
-10.0
 70
   192
  0
VERTEX
  5
B3BF
  8
0
 10
189.9999999999999
 20
-235.0
 30
-10.0
 70
   192
  0
VERTEX
  5
B3C0
  8
0
 10
189.9999999999999
 20
-235.0
 30
-20.0
 70
   192
  0
VERTEX
  5
B3C1
  8
0
 10
199.9999999999999
 20
-225.0
 30
-20.0
 70
   192
  0
VERTEX
  5
B3C2
  8
0
 10
200.0
 20
-225.0
 30
-10.0
 70
   192
  0
VERTEX
  5
B3C3
  8
0
 10
0.0
 20
0.0
 30
0.0
 70
   128
 71
     1
 72
     2
 73
    -3
  0
VERTEX
  5
B3C4
  8
0
 10
0.0
 20
0.0
 30
0.0
 70
   128
 71
    -1
 72
     3
 73
     4
  0
VERTEX
  5
B3C5
  8
0
 10
0.0
 20
0.0
 30
0.0
 70
   128
 71
     5
 72
     6
 73
    -2
  0
VERTEX
  5
B3C6
  8
0
 10
0.0
 20
0.0
 30
0.0
 70
   128
 71
    -5
 72
     2
 73
     1
  0
VERTEX
  5
B3C7
  8
0
 10
0.0
 20
0.0
 30
0.0
 70
   128
 71
     4
 72
     3
 73
    -7
  0
VERTEX
  5
B3C8
  8
0
 10
0.0
 20
0.0
 30
0.0
 70
   128
 71
    -4
 72
     7
 73
     8
  0
SEQEND
  5
B4B4
  8
0
  0
POLYLINE
  5
B3C9
  8
0
 66
     1
 10
0.0
 20
0.0
 30
0.0
 70
    64
 71
    12
 72
    12
  0
VERTEX
  5
B3CA
  8
0
 10
189.9999999999999
 20
-235.0
 30
-10.0
 70
   192
  0
VERTEX
  5
B3CB
  8
0
 10
189.9999999999999
 20
-235.0
 30
-20.0
 70
   192
  0
VERTEX
  5
B3CC
  8
0
 10
9.999999999999954
 20
-235.0
 30
-20.0
 70
   192
  0
VERTEX
  5
B3CD
  8
0
 10
9.999999999999943
 20
-235.0
 30
-10.0
 70
   192
  0
VERTEX
  5
B3CE
  8
0
 10
149.9999999999999
 20
-235.0
 30
-18.5
 70
   192
  0
VERTEX
  5
B3CF
  8
0
 10
152.4748737341529
 20
-235.0
 30
-17.47487373415292
 70
   192
  0
VERTEX
  5
B3D0
  8
0
 10
153.4999999999999
 20
-235.0
 30
-15.0
 70
   192
  0
VERTEX
  5
B3D1
  8
0
 10
152.4748737341529
 20
-235.0
 30
-12.52512626584708
 70
   192
  0
VERTEX
  5
B3D2
  8
0
 10
149.9999999999999
 20
-235.0
 30
-11.5
 70
   192
  0
VERTEX
  5
B3D3
  8
0
 10
147.525126265847
 20
-235.0
 30
-12.52512626584708
 70
   192
  0
VERTEX
  5
B3D4
  8
0
 10
146.4999999999999
 20
-235.0
 30
-15.0
 70
   192
  0
VERTEX
  5
B3D5
  8
0
 10
147.525126265847
 20
-235.0
 30
-17.47487373415292
 70
   192
  0
VERTEX
  5
B3D6
  8
0
 10
0.0
 20
0.0
 30
0.0
 70
   128
 71
     6
 72
    -5
 73
    -2
  0
VERTEX
  5
B3D7
  8
0
 10
0.0
 20
0.0
 30
0.0
 70
   128
 71
     2
 72
    -1
 73
    -7
  0
VERTEX
  5
B3D8
  8
0
 10
0.0
 20
0.0
 30
0.0
 70
   128
 71
    -2
 72
     7
 73
    -6
  0
VERTEX
  5
B3D9
  8
0
 10
0.0
 20
0.0
 30
0.0
 70
   128
 71
    -1
 72
     8
 73
    -7
  0
VERTEX
  5
B3DA
  8
0
 10
0.0
 20
0.0
 30
0.0
 70
   128
 71
    -1
 72
     9
 73
    -8
  0
VERTEX
  5
B3DB
  8
0
 10
0.0
 20
0.0
 30
0.0
 70
   128
 71
    -9
 72
     1
 73
    -4
  0
VERTEX
  5
B3DC
  8
0
 10
0.0
 20
0.0
 30
0.0
 70
   128
 71
    -4
 72
    10
 73
    -9
  0
VERTEX
  5
B3DD
  8
0
 10
0.0
 20
0.0
 30
0.0
 70
   128
 71
     4
 72
    -3
 73
   -11
  0
VERTEX
  5
B3DE
  8
0
 10
0.0
 20
0.0
 30
0.0
 70
   128
 71
    -4
 72
    11
 73
   -10
  0
VERTEX
  5
B3DF
  8
0
 10
0.0
 20
0.0
 30
0.0
 70
   128
 71
    -3
 72
    12
 73
   -11
  0
VERTEX
  5
B3E0
  8
0
 10
0.0
 20
0.0
 30
0.0
 70
   128
 71
    -3
 72
     5
 73
   -12
  0
VERTEX
  5
B3E1
  8
0
 10
0.0
 20
0.0
 30
0.0
 70
   128
 71
     3
 72
    -2
 73
    -5
  0
SEQEND
  5
B4B5
  8
0
  0
POLYLINE
  5
B3E2
  8
0
 66
     1
 10
0.0
 20
0.0
 30
0.0
 70
    64
 71
     8
 72
     6
  0
VERTEX
  5
B3E3
  8
0
 10
1.339745962155563
 20
-230.0
 30
-10.0
 70
   192
  0
VERTEX
  5
B3E4
  8
0
 10
1.339745962155563
 20
-230.0
 30
-20.0
 70
   192
  0
VERTEX
  5
B3E5
  8
0
 10
4.999999999999948
 20
-233.6602540378444
 30
-20.0
 70
   192
  0
VERTEX
  5
B3E6
  8
0
 10
4.999999999999948
 20
-233.6602540378444
 30
-10.0
 70
   192
  0
VERTEX
  5
B3E7
  8
0
 10
-0.0000000000000533
 20
-225.0
 30
-10.0
 70
   192
  0
VERTEX
  5
B3E8
  8
0
 10
-0.0000000000000486
 20
-225.0
 30
-20.0
 70
   192
  0
VERTEX
  5
B3E9
  8
0
 10
9.999999999999954
 20
-235.0
 30
-20.0
 70
   192
  0
VERTEX
  5
B3EA
  8
0
 10
9.999999999999954
 20
-235.0
 30
-10.0
 70
   192
  0
VERTEX
  5
B3EB
  8
0
 10
0.0
 20
0.0
 30
0.0
 70
   128
 71
     1
 72
     2
 73
    -3
  0
VERTEX
  5
B3EC
  8
0
 10
0.0
 20
0.0
 30
0.0
 70
   128
 71
    -1
 72
     3
 73
     4
  0
VERTEX
  5
B3ED
  8
0
 10
0.0
 20
0.0
 30
0.0
 70
   128
 71
     5
 72
     6
 73
    -2
  0
VERTEX
  5
B3EE
  8
0
 10
0.0
 20
0.0
 30
0.0
 70
   128
 71
    -5
 72
     2
 73
     1
  0
VERTEX
  5
B3EF
  8
0
 10
0.0
 20
0.0
 30
0.0
 70
   128
 71
     4
 72
     3
 73
    -7
  0
VERTEX
  5
B3F0
  8
0
 10
0.0
 20
0.0
 30
0.0
 70
   128
 71
    -4
 72
     7
 73
     8
  0
SEQEND
  5
B4B6
  8
0
  0
POLYLINE
  5
B3F1
  8
0
 66
     1
 10
0.0
 20
0.0
 30
0.0
 70
    64
 71
     4
 72
     2
  0
VERTEX
  5
B3F2
  8
0
 10
-0.0000000000000486
 20
-225.0
 30
-10.0
 70
   192
  0
VERTEX
  5
B3F3
  8
0
 10
-0.0000000000000486
 20
-224.9999999999999
 30
-20.0
 70
   192
  0
VERTEX
  5
B3F4
  8
0
 10
-0.0000000000000278
 20
-65.00000000000001
 30
-20.0
 70
   192
  0
VERTEX
  5
B3F5
  8
0
 10
-0.0000000000000295
 20
-65.00000000000001
 30
-10.0
 70
   192
  0
VERTEX
  5
B3F6
  8
0
 10
0.0
 20
0.0
 30
0.0
 70
   128
 71
     1
 72
     4
 73
    -3
  0
VERTEX
  5
B3F7
  8
0
 10
0.0
 20
0.0
 30
0.0
 70
   128
 71
    -1
 72
     3
 73
     2
  0
SEQEND
  5
B4B7
  8
0
  0
POLYLINE
  5
B3F8
  8
0
 66
     1
 10
0.0
 20
0.0
 30
0.0
 70
    64
 71
     8
 72
     6
  0
VERTEX
  5
B3F9
  8
0
 10
4.999999999999968
 20
-56.33974596215563
 30
-10.0
 70
   192
  0
VERTEX
  5
B3FA
  8
0
 10
4.999999999999968
 20
-56.33974596215563
 30
-20.0
 70
   192
  0
VERTEX
  5
B3FB
  8
0
 10
1.339745962155584
 20
-60.00000000000001
 30
-20.0
 70
   192
  0
VERTEX
  5
B3FC
  8
0
 10
1.339745962155584
 20
-60.00000000000001
 30
-10.0
 70
   192
  0
VERTEX
  5
B3FD
  8
0
 10
9.99999999999997
 20
-55.00000000000001
 30
-10.0
 70
   192
  0
VERTEX
  5
B3FE
  8
0
 10
9.999999999999972
 20
-55.00000000000002
 30
-20.0
 70
   192
  0
VERTEX
  5
B3FF
  8
0
 10
-0.0000000000000266
 20
-65.00000000000001
 30
-20.0
 70
   192
  0
VERTEX
  5
B400
  8
0
 10
-0.0000000000000278
 20
-65.00000000000001
 30
-10.0
 70
   192
  0
VERTEX
  5
B401
  8
0
 10
0.0
 20
0.0
 30
0.0
 70
   128
 71
     1
 72
     2
 73
    -3
  0
VERTEX
  5
B402
  8
0
 10
0.0
 20
0.0
 30
0.0
 70
   128
 71
    -1
 72
     3
 73
     4
  0
VERTEX
  5
B403
  8
0
 10
0.0
 20
0.0
 30
0.0
 70
   128
 71
     5
 72
     6
 73
    -2
  0
VERTEX
  5
B404
  8
0
 10
0.0
 20
0.0
 30
0.0
 70
   128
 71
    -5
 72
     2
 73
     1
  0
VERTEX
  5
B405
  8
0
 10
0.0
 20
0.0
 30
0.0
 70
   128
 71
     4
 72
     3
 73
    -7
  0
VERTEX
  5
B406
  8
0
 10
0.0
 20
0.0
 30
0.0
 70
   128
 71
    -4
 72
     7
 73
     8
  0
SEQEND
  5
B4B8
  8
0
  0
POLYLINE
  5
B407
  8
0
 66
     1
 10
0.0
 20
0.0
 30
0.0
 70
    64
 71
     4
 72
     2
  0
VERTEX
  5
B408
  8
0
 10
9.999999999999972
 20
-55.00000000000002
 30
-10.0
 70
   192
  0
VERTEX
  5
B409
  8
0
 10
9.999999999999972
 20
-55.00000000000002
 30
-20.0
 70
   192
  0
VERTEX
  5
B40A
  8
0
 10
190.0
 20
-55.00000000000001
 30
-20.0
 70
   192
  0
VERTEX
  5
B40B
  8
0
 10
190.0
 20
-55.00000000000001
 30
-10.0
 70
   192
  0
VERTEX
  5
B40C
  8
0
 10
0.0
 20
0.0
 30
0.0
 70
   128
 71
     1
 72
     4
 73
    -3
  0
VERTEX
  5
B40D
  8
0
 10
0.0
 20
0.0
 30
0.0
 70
   128
 71
    -1
 72
     3
 73
     2
  0
SEQEND
  5
B4B9
  8
0
  0
POLYLINE
  5
B40E
  8
0
 66
     1
 10
0.0
 20
0.0
 30
0.0
 70
    64
 71
     8
 72
     6
  0
VERTEX
  5
B40F
  8
0
 10
198.6602540378444
 20
-60.00000000000001
 30
-10.0
 70
   192
  0
VERTEX
  5
B410
  8
0
 10
198.6602540378444
 20
-60.00000000000001
 30
-20.0
 70
   192
  0
VERTEX
  5
B411
  8
0
 10
195.0
 20
-56.33974596215562
 30
-20.0
 70
   192
  0
VERTEX
  5
B412
  8
0
 10
195.0
 20
-56.33974596215562
 30
-10.0
 70
   192
  0
VERTEX
  5
B413
  8
0
 10
200.0
 20
-65.00000000000001
 30
-10.0
 70
   192
  0
VERTEX
  5
B414
  8
0
 10
200.0
 20
-65.00000000000001
 30
-20.0
 70
   192
  0
VERTEX
  5
B415
  8
0
 10
190.0
 20
-55.00000000000001
 30
-20.0
 70
   192
  0
VERTEX
  5
B416
  8
0
 10
190.0
 20
-55.00000000000001
 30
-10.0
 70
   192
  0
VERTEX
  5
B417
  8
0
 10
0.0
 20
0.0
 30
0.0
 70
   128
 71
     1
 72
     2
 73
    -3
  0
VERTEX
  5
B418
  8
0
 10
0.0
 20
0.0
 30
0.0
 70
   128
 71
    -1
 72
     3
 73
     4
  0
VERTEX
  5
B419
  8
0
 10
0.0
 20
0.0
 30
0.0
 70
   128
 71
     5
 72
     6
 73
    -2
  0
VERTEX
  5
B41A
  8
0
 10
0.0
 20
0.0
 30
0.0
 70
   128
 71
    -5
 72
     2
 73
     1
  0
VERTEX
  5
B41B
  8
0
 10
0.0
 20
0.0
 30
0.0
 70
   128
 71
     4
 72
     3
 73
    -7
  0
VERTEX
  5
B41C
  8
0
 10
0.0
 20
0.0
 30
0.0
 70
   128
 71
    -4
 72
     7
 73
     8
  0
SEQEND
  5
B4BA
  8
0
  0
POLYLINE
  5
B41D
  8
0
 66
     1
 10
0.0
 20
0.0
 30
0.0
 70
    64
 71
     4
 72
     2
  0
VERTEX
  5
B41E
  8
0
 10
200.0
 20
-65.00000000000001
 30
-10.0
 70
   192
  0
VERTEX
  5
B41F
  8
0
 10
200.0
 20
-65.00000000000001
 30
-20.0
 70
   192
  0
VERTEX
  5
B420
  8
0
 10
200.0
 20
-225.0
 30
-20.0
 70
   192
  0
VERTEX
  5
B421
  8
0
 10
200.0
 20
-224.9999999999999
 30
-10.0
 70
   192
  0
VERTEX
  5
B422
  8
0
 10
0.0
 20
0.0
 30
0.0
 70
   128
 71
     1
 72
     4
 73
    -3
  0
VERTEX
  5
B423
  8
0
 10
0.0
 20
0.0
 30
0.0
 70
   128
 71
    -1
 72
     3
 73
     2
  0
SEQEND
  5
B4BB
  8
0
  0
POLYLINE
  5
B424
  8
0
 66
     1
 10
0.0
 20
0.0
 30
0.0
 70
    64
 71
    16
 72
    14
  0
VERTEX
  5
B425
  8
0
 10
199.9999999999999
 20
-225.0
 30
-20.0
 70
   192
  0
VERTEX
  5
B426
  8
0
 10
198.6602540378443
 20
-230.0
 30
-20.0
 70
   192
  0
VERTEX
  5
B427
  8
0
 10
194.9999999999999
 20
-233.6602540378444
 30
-20.0
 70
   192
  0
VERTEX
  5
B428
  8
0
 10
189.9999999999999
 20
-235.0
 30
-20.0
 70
   192
  0
VERTEX
  5
B429
  8
0
 10
9.999999999999943
 20
-235.0
 30
-20.0
 70
   192
  0
VERTEX
  5
B42A
  8
0
 10
4.999999999999948
 20
-233.6602540378444
 30
-20.0
 70
   192
  0
VERTEX
  5
B42B
  8
0
 10
1.339745962155563
 20
-230.0
 30
-20.0
 70
   192
  0
VERTEX
  5
B42C
  8
0
 10
-0.0000000000000533
 20
-225.0
 30
-20.0
 70
   192
  0
VERTEX
  5
B42D
  8
0
 10
-0.0000000000000295
 20
-65.00000000000001
 30
-20.0
 70
   192
  0
VERTEX
  5
B42E
  8
0
 10
1.339745962155584
 20
-60.00000000000001
 30
-20.0
 70
   192
  0
VERTEX
  5
B42F
  8
0
 10
4.999999999999968
 20
-56.33974596215563
 30
-20.0
 70
   192
  0
VERTEX
  5
B430
  8
0
 10
9.99999999999997
 20
-55.00000000000001
 30
-20.0
 70
   192
  0
VERTEX
  5
B431
  8
0
 10
190.0
 20
-55.00000000000001
 30
-20.0
 70
   192
  0
VERTEX
  5
B432
  8
0
 10
195.0
 20
-56.33974596215562
 30
-20.0
 70
   192
  0
VERTEX
  5
B433
  8
0
 10
198.6602540378444
 20
-60.00000000000001
 30
-20.0
 70
   192
  0
VERTEX
  5
B434
  8
0
 10
200.0
 20
-65.00000000000001
 30
-20.0
 70
   192
  0
VERTEX
  5
B435
  8
0
 10
0.0
 20
0.0
 30
0.0
 70
   128
 71
    15
 72
    16
 73
    -1
  0
VERTEX
  5
B436
  8
0
 10
0.0
 20
0.0
 30
0.0
 70
   128
 71
    14
 72
   -15
 73
    -1
  0
VERTEX
  5
B437
  8
0
 10
0.0
 20
0.0
 30
0.0
 70
   128
 71
    13
 72
   -14
 73
    -1
  0
VERTEX
  5
B438
  8
0
 10
0.0
 20
0.0
 30
0.0
 70
   128
 71
    12
 72
   -13
 73
    -1
  0
VERTEX
  5
B439
  8
0
 10
0.0
 20
0.0
 30
0.0
 70
   128
 71
    11
 72
   -12
 73
    -1
  0
VERTEX
  5
B43A
  8
0
 10
0.0
 20
0.0
 30
0.0
 70
   128
 71
    10
 72
   -11
 73
    -1
  0
VERTEX
  5
B43B
  8
0
 10
0.0
 20
0.0
 30
0.0
 70
   128
 71
     9
 72
   -10
 73
    -1
  0
VERTEX
  5
B43C
  8
0
 10
0.0
 20
0.0
 30
0.0
 70
   128
 71
     8
 72
    -9
 73
    -1
  0
VERTEX
  5
B43D
  8
0
 10
0.0
 20
0.0
 30
0.0
 70
   128
 71
     7
 72
    -8
 73
    -1
  0
VERTEX
  5
B43E
  8
0
 10
0.0
 20
0.0
 30
0.0
 70
   128
 71
     6
 72
    -7
 73
    -1
  0
VERTEX
  5
B43F
  8
0
 10
0.0
 20
0.0
 30
0.0
 70
   128
 71
     5
 72
    -6
 73
    -1
  0
VERTEX
  5
B440
  8
0
 10
0.0
 20
0.0
 30
0.0
 70
   128
 71
     4
 72
    -5
 73
    -1
  0
VERTEX
  5
B441
  8
0
 10
0.0
 20
0.0
 30
0.0
 70
   128
 71
     3
 72
    -4
 73
    -1
  0
VERTEX
  5
B442
  8
0
 10
0.0
 20
0.0
 30
0.0
 70
   128
 71
     2
 72
    -3
 73
     1
  0
SEQEND
  5
B4BC
  8
0
  0
POLYLINE
  5
B443
  8
0
 66
     1
 10
0.0
 20
0.0
 30
0.0
 70
    64
 71
    16
 72
    14
  0
VERTEX
  5
B444
  8
0
 10
189.9999999999999
 20
-235.0
 30
-10.0
 70
   192
  0
VERTEX
  5
B445
  8
0
 10
9.999999999999954
 20
-235.0
 30
-10.0
 70
   192
  0
VERTEX
  5
B446
  8
0
 10
4.999999999999948
 20
-233.6602540378444
 30
-10.0
 70
   192
  0
VERTEX
  5
B447
  8
0
 10
1.339745962155563
 20
-230.0
 30
-10.0
 70
   192
  0
VERTEX
  5
B448
  8
0
 10
-0.0000000000000486
 20
-224.9999999999999
 30
-10.0
 70
   192
  0
VERTEX
  5
B449
  8
0
 10
-0.0000000000000266
 20
-65.00000000000001
 30
-10.0
 70
   192
  0
VERTEX
  5
B44A
  8
0
 10
1.339745962155584
 20
-60.00000000000001
 30
-10.0
 70
   192
  0
VERTEX
  5
B44B
  8
0
 10
4.999999999999968
 20
-56.33974596215563
 30
-10.0
 70
   192
  0
VERTEX
  5
B44C
  8
0
 10
9.999999999999972
 20
-55.00000000000002
 30
-10.0
 70
   192
  0
VERTEX
  5
B44D
  8
0
 10
190.0
 20
-55.00000000000001
 30
-10.0
 70
   192
  0
VERTEX
  5
B44E
  8
0
 10
195.0
 20
-56.33974596215562
 30
-10.0
 70
   192
  0
VERTEX
  5
B44F
  8
0
 10
198.6602540378444
 20
-60.00000000000001
 30
-10.0
 70
   192
  0
VERTEX
  5
B450
  8
0
 10
200.0
 20
-65.00000000000001
 30
-10.0
 70
   192
  0
VERTEX
  5
B451
  8
0
 10
199.9999999999999
 20
-225.0
 30
-10.0
 70
   192
  0
VERTEX
  5
B452
  8
0
 10
198.6602540378443
 20
-230.0
 30
-10.0
 70
   192
  0
VERTEX
  5
B453
  8
0
 10
194.9999999999999
 20
-233.6602540378444
 30
-10.0
 70
   192
  0
VERTEX
  5
B454
  8
0
 10
0.0
 20
0.0
 30
0.0
 70
   128
 71
     1
 72
    16
 73
   -15
  0
VERTEX
  5
B455
  8
0
 10
0.0
 20
0.0
 30
0.0
 70
   128
 71
    -1
 72
    15
 73
   -14
  0
VERTEX
  5
B456
  8
0
 10
0.0
 20
0.0
 30
0.0
 70
   128
 71
    -1
 72
    14
 73
   -13
  0
VERTEX
  5
B457
  8
0
 10
0.0
 20
0.0
 30
0.0
 70
   128
 71
    -1
 72
    13
 73
   -12
  0
VERTEX
  5
B458
  8
0
 10
0.0
 20
0.0
 30
0.0
 70
   128
 71
    -1
 72
    12
 73
   -11
  0
VERTEX
  5
B459
  8
0
 10
0.0
 20
0.0
 30
0.0
 70
   128
 71
    -1
 72
    11
 73
   -10
  0
VERTEX
  5
B45A
  8
0
 10
0.0
 20
0.0
 30
0.0
 70
   128
 71
    -1
 72
    10
 73
    -9
  0
VERTEX
  5
B45B
  8
0
 10
0.0
 20
0.0
 30
0.0
 70
   128
 71
    -1
 72
     9
 73
    -8
  0
VERTEX
  5
B45C
  8
0
 10
0.0
 20
0.0
 30
0.0
 70
   128
 71
    -1
 72
     8
 73
    -7
  0
VERTEX
  5
B45D
  8
0
 10
0.0
 20
0.0
 30
0.0
 70
   128
 71
    -1
 72
     7
 73
    -6
  0
VERTEX
  5
B45E
  8
0
 10
0.0
 20
0.0
 30
0.0
 70
   128
 71
    -1
 72
     6
 73
    -5
  0
VERTEX
  5
B45F
  8
0
 10
0.0
 20
0.0
 30
0.0
 70
   128
 71
    -1
 72
     5
 73
    -4
  0
VERTEX
  5
B460
  8
0
 10
0.0
 20
0.0
 30
0.0
 70
   128
 71
    -1
 72
     4
 73
    -3
  0
VERTEX
  5
B461
  8
0
 10
0.0
 20
0.0
 30
0.0
 70
   128
 71
    -1
 72
     3
 73
     2
  0
SEQEND
  5
B4BD
  8
0
  0
POLYLINE
  5
B462
  8
0
 66
     1
 10
0.0
 20
0.0
 30
0.0
 70
    64
 71
    10
 72
     8
  0
VERTEX
  5
B463
  8
0
 10
149.9999999999999
 20
-240.0
 30
-18.49999999999999
 70
   192
  0
VERTEX
  5
B464
  8
0
 10
149.9999999999999
 20
-240.0
 30
-11.50000000000001
 70
   192
  0
VERTEX
  5
B465
  8
0
 10
149.9999999999999
 20
-235.0
 30
-11.50000000000001
 70
   192
  0
VERTEX
  5
B466
  8
0
 10
149.9999999999999
 20
-235.0
 30
-18.5
 70
   192
  0
VERTEX
  5
B467
  8
0
 10
146.4999999999999
 20
-235.0
 30
-15.0
 70
   192
  0
VERTEX
  5
B468
  8
0
 10
146.4999999999999
 20
-240.0
 30
-15.0
 70
   192
  0
VERTEX
  5
B469
  8
0
 10
147.525126265847
 20
-235.0
 30
-17.47487373415292
 70
   192
  0
VERTEX
  5
B46A
  8
0
 10
147.525126265847
 20
-240.0
 30
-17.47487373415291
 70
   192
  0
VERTEX
  5
B46B
  8
0
 10
147.525126265847
 20
-235.0
 30
-12.52512626584708
 70
   192
  0
VERTEX
  5
B46C
  8
0
 10
147.525126265847
 20
-240.0
 30
-12.52512626584709
 70
   192
  0
VERTEX
  5
B46D
  8
0
 10
0.0
 20
0.0
 30
0.0
 70
   128
 71
     8
 72
     7
 73
    -4
  0
VERTEX
  5
B46E
  8
0
 10
0.0
 20
0.0
 30
0.0
 70
   128
 71
    -8
 72
     4
 73
     1
  0
VERTEX
  5
B46F
  8
0
 10
0.0
 20
0.0
 30
0.0
 70
   128
 71
     6
 72
     5
 73
    -7
  0
VERTEX
  5
B470
  8
0
 10
0.0
 20
0.0
 30
0.0
 70
   128
 71
    -6
 72
     7
 73
     8
  0
VERTEX
  5
B471
  8
0
 10
0.0
 20
0.0
 30
0.0
 70
   128
 71
    10
 72
     9
 73
    -5
  0
VERTEX
  5
B472
  8
0
 10
0.0
 20
0.0
 30
0.0
 70
   128
 71
   -10
 72
     5
 73
     6
  0
VERTEX
  5
B473
  8
0
 10
0.0
 20
0.0
 30
0.0
 70
   128
 71
     2
 72
     3
 73
    -9
  0
VERTEX
  5
B474
  8
0
 10
0.0
 20
0.0
 30
0.0
 70
   128
 71
    -2
 72
     9
 73
    10
  0
SEQEND
  5
B4BE
  8
0
  0
POLYLINE
  5
B475
  8
0
 66
     1
 10
0.0
 20
0.0
 30
0.0
 70
    64
 71
     8
 72
     6
  0
VERTEX
  5
B476
  8
0
 10
149.9999999999999
 20
-240.0
 30
-11.50000000000001
 70
   192
  0
VERTEX
  5
B477
  8
0
 10
147.525126265847
 20
-240.0
 30
-12.52512626584709
 70
   192
  0
VERTEX
  5
B478
  8
0
 10
146.4999999999999
 20
-240.0
 30
-15.0
 70
   192
  0
VERTEX
  5
B479
  8
0
 10
147.525126265847
 20
-240.0
 30
-17.47487373415291
 70
   192
  0
VERTEX
  5
B47A
  8
0
 10
149.9999999999999
 20
-240.0
 30
-18.49999999999999
 70
   192
  0
VERTEX
  5
B47B
  8
0
 10
152.4748737341529
 20
-240.0
 30
-17.47487373415291
 70
   192
  0
VERTEX
  5
B47C
  8
0
 10
153.4999999999999
 20
-240.0
 30
-15.0
 70
   192
  0
VERTEX
  5
B47D
  8
0
 10
152.4748737341529
 20
-240.0
 30
-12.52512626584709
 70
   192
  0
VERTEX
  5
B47E
  8
0
 10
0.0
 20
0.0
 30
0.0
 70
   128
 71
     7
 72
     8
 73
    -1
  0
VERTEX
  5
B47F
  8
0
 10
0.0
 20
0.0
 30
0.0
 70
   128
 71
     6
 72
    -7
 73
    -1
  0
VERTEX
  5
B480
  8
0
 10
0.0
 20
0.0
 30
0.0
 70
   128
 71
     5
 72
    -6
 73
    -1
  0
VERTEX
  5
B481
  8
0
 10
0.0
 20
0.0
 30
0.0
 70
   128
 71
     4
 72
    -5
 73
    -1
  0
VERTEX
  5
B482
  8
0
 10
0.0
 20
0.0
 30
0.0
 70
   128
 71
     3
 72
    -4
 73
    -1
  0
VERTEX
  5
B483
  8
0
 10
0.0
 20
0.0
 30
0.0
 70
   128
 71
     2
 72
    -3
 73
     1
  0
SEQEND
  5
B4BF
  8
0
  0
ENDBLK
  5
B4B2
  8
0
  0
ENDSEC
  0
SECTION
  2
ENTITIES
  0
INSERT
  5
AE85
  8
0
  2
*X1
 10
0.0
 20
0.0
 30
0.0
  0
INSERT
  5
AE86
  8
0
  2
*X2
 10
0.0
 20
0.0
 30
0.0
  0
INSERT
  5
AE87
  8
0
  2
*X3
 10
0.0
 20
0.0
 30
0.0
  0
INSERT
  5
AE88
  8
0
  2
*X4
 10
0.0
 20
0.0
 30
0.0
  0
ENDSEC
  0
EOF
