  0
SECTION
  2
HEADER
  9
$ACADVER
  1
AC1009
  9
$DWGCODEPAGE
  3
ansi_1250
  9
$INSBASE
 10
0.0
 20
0.0
 30
0.0
  9
$EXTMIN
 10
-300.0
 20
-400.0000000000001
 30
-25.00000000000009
  9
$EXTMAX
 10
300.0
 20
400.0
 30
0.0000000000001137
  9
$LIMMIN
 10
0.0
 20
0.0
  9
$LIMMAX
 10
420.0
 20
297.0
  9
$ORTHOMODE
 70
     0
  9
$REGENMODE
 70
     1
  9
$FILLMODE
 70
     1
  9
$QTEXTMODE
 70
     0
  9
$MIRRTEXT
 70
     0
  9
$DRAGMODE
 70
     2
  9
$LTSCALE
 40
1.0
  9
$OSMODE
 70
   511
  9
$ATTMODE
 70
     1
  9
$TEXTSIZE
 40
2.5
  9
$TRACEWID
 40
1.0
  9
$TEXTSTYLE
  7
STANDARD
  9
$CLAYER
  8
0
  9
$CELTYPE
  6
BYLAYER
  9
$CECOLOR
 62
   256
  9
$DIMSCALE
 40
1.0
  9
$DIMASZ
 40
2.5
  9
$DIMEXO
 40
0.625
  9
$DIMDLI
 40
3.75
  9
$DIMRND
 40
0.0
  9
$DIMDLE
 40
0.0
  9
$DIMEXE
 40
1.25
  9
$DIMTP
 40
0.0
  9
$DIMTM
 40
0.0
  9
$DIMTXT
 40
2.5
  9
$DIMCEN
 40
-2.5
  9
$DIMTSZ
 40
0.0
  9
$DIMTOL
 70
     0
  9
$DIMLIM
 70
     0
  9
$DIMTIH
 70
     0
  9
$DIMTOH
 70
     0
  9
$DIMSE1
 70
     0
  9
$DIMSE2
 70
     0
  9
$DIMTAD
 70
     1
  9
$DIMZIN
 70
     8
  9
$DIMBLK
  1

  9
$DIMASO
 70
     1
  9
$DIMSHO
 70
     1
  9
$DIMPOST
  1

  9
$DIMAPOST
  1

  9
$DIMALT
 70
     0
  9
$DIMALTD
 70
     3
  9
$DIMALTF
 40
0.03937007874016
  9
$DIMLFAC
 40
1.0
  9
$DIMTOFL
 70
     1
  9
$DIMTVP
 40
0.0
  9
$DIMTIX
 70
     0
  9
$DIMSOXD
 70
     0
  9
$DIMSAH
 70
     0
  9
$DIMBLK1
  1

  9
$DIMBLK2
  1

  9
$DIMSTYLE
  2
ISO-25
  9
$DIMCLRD
 70
     0
  9
$DIMCLRE
 70
     0
  9
$DIMCLRT
 70
     0
  9
$DIMTFAC
 40
1.0
  9
$DIMGAP
 40
0.625
  9
$LUNITS
 70
     2
  9
$LUPREC
 70
     3
  9
$SKETCHINC
 40
1.0
  9
$FILLETRAD
 40
10.0
  9
$AUNITS
 70
     0
  9
$AUPREC
 70
     0
  9
$MENU
  1
.
  9
$ELEVATION
 40
0.0
  9
$PELEVATION
 40
0.0
  9
$THICKNESS
 40
0.0
  9
$LIMCHECK
 70
     0
  9
$CHAMFERA
 40
10.0
  9
$CHAMFERB
 40
10.0
  9
$SKPOLY
 70
     0
  9
$TDCREATE
 40
2455022.720692848
  9
$TDUPDATE
 40
2460521.494339954
  9
$TDINDWG
 40
0.16505875
  9
$TDUSRTIMER
 40
0.16505875
  9
$USRTIMER
 70
     1
  9
$ANGBASE
 50
0.0
  9
$ANGDIR
 70
     0
  9
$PDMODE
 70
     0
  9
$PDSIZE
 40
0.0
  9
$PLINEWID
 40
0.0
  9
$COORDS
 70
     1
  9
$SPLFRAME
 70
     0
  9
$SPLINETYPE
 70
     6
  9
$SPLINESEGS
 70
     8
  9
$ATTDIA
 70
     0
  9
$ATTREQ
 70
     1
  9
$HANDLING
 70
     1
  9
$HANDSEED
  5
518E
  9
$SURFTAB1
 70
     6
  9
$SURFTAB2
 70
     6
  9
$SURFTYPE
 70
     6
  9
$SURFU
 70
     6
  9
$SURFV
 70
     6
  9
$UCSNAME
  2

  9
$UCSORG
 10
0.0
 20
0.0
 30
0.0
  9
$UCSXDIR
 10
1.0
 20
0.0
 30
0.0
  9
$UCSYDIR
 10
0.0
 20
1.0
 30
0.0
  9
$PUCSNAME
  2

  9
$PUCSORG
 10
0.0
 20
0.0
 30
0.0
  9
$PUCSXDIR
 10
1.0
 20
0.0
 30
0.0
  9
$PUCSYDIR
 10
0.0
 20
1.0
 30
0.0
  9
$USERI1
 70
     0
  9
$USERI2
 70
     0
  9
$USERI3
 70
     0
  9
$USERI4
 70
     0
  9
$USERI5
 70
     0
  9
$USERR1
 40
0.0
  9
$USERR2
 40
0.0
  9
$USERR3
 40
0.0
  9
$USERR4
 40
0.0
  9
$USERR5
 40
0.0
  9
$WORLDVIEW
 70
     1
  9
$SHADEDGE
 70
     3
  9
$SHADEDIF
 70
    70
  9
$TILEMODE
 70
     1
  9
$MAXACTVP
 70
    64
  9
$PLIMCHECK
 70
     0
  9
$PEXTMIN
 10
1.000000000000000E+20
 20
1.000000000000000E+20
 30
1.000000000000000E+20
  9
$PEXTMAX
 10
-1.000000000000000E+20
 20
-1.000000000000000E+20
 30
-1.000000000000000E+20
  9
$PLIMMIN
 10
0.0
 20
0.0
  9
$PLIMMAX
 10
0.0
 20
0.0
  9
$UNITMODE
 70
     0
  9
$VISRETAIN
 70
     1
  9
$PLINEGEN
 70
     0
  9
$PSLTSCALE
 70
     1
  0
ENDSEC
  0
SECTION
  2
TABLES
  0
TABLE
  2
VPORT
 70
     1
  0
VPORT
  2
*ACTIVE
 70
     0
 10
0.0
 20
0.0
 11
1.0
 21
1.0
 12
-116.6110757937285
 22
90.81470093901663
 13
0.0
 23
0.0
 14
10.0
 24
10.0
 15
10.0
 25
10.0
 16
0.5773502691896262
 26
0.5773502691896262
 36
0.5773502691896262
 17
-41.66599977993164
 27
123.2469651304761
 37
-82.93435654674934
 40
770.3645241053097
 41
1.88293897882939
 42
50.0
 43
0.0
 44
0.0
 50
0.0
 51
0.0
 71
    16
 72
  1000
 73
     1
 74
     3
 75
     0
 76
     0
 77
     0
 78
     0
  0
ENDTAB
  0
TABLE
  2
LTYPE
 70
     1
  0
LTYPE
  2
CONTINUOUS
 70
     0
  3
Solid line
 72
    65
 73
     0
 40
0.0
  0
ENDTAB
  0
TABLE
  2
LAYER
 70
     1
  0
LAYER
  2
0
 70
     0
 62
     7
  6
CONTINUOUS
  0
ENDTAB
  0
TABLE
  2
STYLE
 70
     2
  0
STYLE
  2
STANDARD
 70
     0
 40
0.0
 41
1.0
 50
0.0
 71
     0
 42
2.5
  3
arial.ttf
  4

  0
STYLE
  2
ANNOTATIVE
 70
     0
 40
0.0
 41
1.0
 50
0.0
 71
     0
 42
2.5
  3
arial.ttf
  4

  0
ENDTAB
  0
TABLE
  2
VIEW
 70
     0
  0
ENDTAB
  0
TABLE
  2
UCS
 70
     0
  0
ENDTAB
  0
TABLE
  2
APPID
 70
     2
  0
APPID
  2
ACAD
 70
     0
  0
APPID
  2
ACADANNOTATIVE
 70
     0
  0
ENDTAB
  0
TABLE
  2
DIMSTYLE
 70
     2
  0
DIMSTYLE
  2
ISO-25
 70
     0
  3

  4

  5

  6

  7

 40
1.0
 41
2.5
 42
0.625
 43
3.75
 44
1.25
 45
0.0
 46
0.0
 47
0.0
 48
0.0
140
2.5
141
-2.5
142
0.0
143
0.03937007874016
144
1.0
145
0.0
146
1.0
147
0.625
 71
     0
 72
     0
 73
     0
 74
     0
 75
     0
 76
     0
 77
     1
 78
     8
170
     0
171
     3
172
     1
173
     0
174
     0
175
     0
176
     0
177
     0
178
     0
  0
DIMSTYLE
  2
ANNOTATIVE
 70
     0
  3

  4

  5

  6

  7

 40
0.0
 41
2.5
 42
0.625
 43
3.75
 44
1.25
 45
0.0
 46
0.0
 47
0.0
 48
0.0
140
2.5
141
-2.5
142
0.0
143
0.03937007874016
144
1.0
145
0.0
146
1.0
147
0.625
 71
     0
 72
     0
 73
     0
 74
     0
 75
     0
 76
     0
 77
     1
 78
     8
170
     0
171
     3
172
     1
173
     0
174
     0
175
     0
176
     0
177
     0
178
     0
  0
ENDTAB
  0
ENDSEC
  0
SECTION
  2
BLOCKS
  0
BLOCK
  8
0
  2
$MODEL_SPACE
 70
     0
 10
0.0
 20
0.0
 30
0.0
  3
$MODEL_SPACE
  1

  0
ENDBLK
  5
21
  8
0
  0
BLOCK
 67
     1
  8
0
  2
$PAPER_SPACE
 70
     0
 10
0.0
 20
0.0
 30
0.0
  3
$PAPER_SPACE
  1

  0
ENDBLK
  5
1D
 67
     1
  8
0
  0
BLOCK
  8
0
  2
*X1
 70
     1
 10
0.0
 20
0.0
 30
0.0
  3
*X1
  1

  0
POLYLINE
  5
4ACB
  8
0
 66
     1
 10
0.0
 20
0.0
 30
0.0
 70
    64
 71
     8
 72
     6
  0
VERTEX
  5
4ACC
  8
0
 10
286.602540378444
 20
349.9999999999998
 30
0.0
 70
   192
  0
VERTEX
  5
4ACD
  8
0
 10
286.602540378444
 20
349.9999999999998
 30
-25.0
 70
   192
  0
VERTEX
  5
4ACE
  8
0
 10
249.9999999999998
 20
386.602540378444
 30
-25.0
 70
   192
  0
VERTEX
  5
4ACF
  8
0
 10
249.9999999999998
 20
386.602540378444
 30
0.0
 70
   192
  0
VERTEX
  5
4AD0
  8
0
 10
300.0
 20
299.9999999999993
 30
0.0
 70
   192
  0
VERTEX
  5
4AD1
  8
0
 10
300.0000000000001
 20
299.9999999999993
 30
-25.0
 70
   192
  0
VERTEX
  5
4AD2
  8
0
 10
199.9999999999993
 20
400.0000000000001
 30
-25.0
 70
   192
  0
VERTEX
  5
4AD3
  8
0
 10
199.9999999999993
 20
400.0
 30
0.0
 70
   192
  0
VERTEX
  5
4AD4
  8
0
 10
0.0
 20
0.0
 30
0.0
 70
   128
 71
     1
 72
     2
 73
    -3
  0
VERTEX
  5
4AD5
  8
0
 10
0.0
 20
0.0
 30
0.0
 70
   128
 71
    -1
 72
     3
 73
     4
  0
VERTEX
  5
4AD6
  8
0
 10
0.0
 20
0.0
 30
0.0
 70
   128
 71
     5
 72
     6
 73
    -2
  0
VERTEX
  5
4AD7
  8
0
 10
0.0
 20
0.0
 30
0.0
 70
   128
 71
    -5
 72
     2
 73
     1
  0
VERTEX
  5
4AD8
  8
0
 10
0.0
 20
0.0
 30
0.0
 70
   128
 71
     4
 72
     3
 73
    -7
  0
VERTEX
  5
4AD9
  8
0
 10
0.0
 20
0.0
 30
0.0
 70
   128
 71
    -4
 72
     7
 73
     8
  0
SEQEND
  5
5109
  8
0
  0
POLYLINE
  5
4ADA
  8
0
 66
     1
 10
0.0
 20
0.0
 30
0.0
 70
    64
 71
     4
 72
     2
  0
VERTEX
  5
4ADB
  8
0
 10
300.0000000000001
 20
299.9999999999993
 30
0.0
 70
   192
  0
VERTEX
  5
4ADC
  8
0
 10
300.0
 20
-300.0000000000001
 30
0.0
 70
   192
  0
VERTEX
  5
4ADD
  8
0
 10
300.0
 20
-300.0000000000001
 30
-25.0
 70
   192
  0
VERTEX
  5
4ADE
  8
0
 10
300.0000000000001
 20
299.9999999999993
 30
-25.0
 70
   192
  0
VERTEX
  5
4ADF
  8
0
 10
0.0
 20
0.0
 30
0.0
 70
   128
 71
     3
 72
     4
 73
    -1
  0
VERTEX
  5
4AE0
  8
0
 10
0.0
 20
0.0
 30
0.0
 70
   128
 71
     2
 72
    -3
 73
     1
  0
SEQEND
  5
510A
  8
0
  0
POLYLINE
  5
4AE1
  8
0
 66
     1
 10
0.0
 20
0.0
 30
0.0
 70
    64
 71
     8
 72
     6
  0
VERTEX
  5
4AE2
  8
0
 10
249.9999999999996
 20
-386.6025403784441
 30
0.0
 70
   192
  0
VERTEX
  5
4AE3
  8
0
 10
249.9999999999996
 20
-386.6025403784441
 30
-25.0
 70
   192
  0
VERTEX
  5
4AE4
  8
0
 10
286.6025403784437
 20
-350.0000000000003
 30
-25.0
 70
   192
  0
VERTEX
  5
4AE5
  8
0
 10
286.6025403784437
 20
-350.0000000000003
 30
0.0
 70
   192
  0
VERTEX
  5
4AE6
  8
0
 10
199.9999999999993
 20
-400.0
 30
0.0
 70
   192
  0
VERTEX
  5
4AE7
  8
0
 10
199.9999999999993
 20
-400.0
 30
-25.0
 70
   192
  0
VERTEX
  5
4AE8
  8
0
 10
300.0
 20
-300.0000000000001
 30
-25.0
 70
   192
  0
VERTEX
  5
4AE9
  8
0
 10
300.0
 20
-300.0000000000001
 30
0.0
 70
   192
  0
VERTEX
  5
4AEA
  8
0
 10
0.0
 20
0.0
 30
0.0
 70
   128
 71
     1
 72
     2
 73
    -3
  0
VERTEX
  5
4AEB
  8
0
 10
0.0
 20
0.0
 30
0.0
 70
   128
 71
    -1
 72
     3
 73
     4
  0
VERTEX
  5
4AEC
  8
0
 10
0.0
 20
0.0
 30
0.0
 70
   128
 71
     5
 72
     6
 73
    -2
  0
VERTEX
  5
4AED
  8
0
 10
0.0
 20
0.0
 30
0.0
 70
   128
 71
    -5
 72
     2
 73
     1
  0
VERTEX
  5
4AEE
  8
0
 10
0.0
 20
0.0
 30
0.0
 70
   128
 71
     4
 72
     3
 73
    -7
  0
VERTEX
  5
4AEF
  8
0
 10
0.0
 20
0.0
 30
0.0
 70
   128
 71
    -4
 72
     7
 73
     8
  0
SEQEND
  5
510B
  8
0
  0
POLYLINE
  5
4AF0
  8
0
 66
     1
 10
0.0
 20
0.0
 30
0.0
 70
    64
 71
     4
 72
     2
  0
VERTEX
  5
4AF1
  8
0
 10
199.9999999999993
 20
-400.0
 30
0.0
 70
   192
  0
VERTEX
  5
4AF2
  8
0
 10
199.9999999999993
 20
-400.0
 30
-25.0
 70
   192
  0
VERTEX
  5
4AF3
  8
0
 10
-199.9999999999993
 20
-400.0000000000001
 30
-25.0
 70
   192
  0
VERTEX
  5
4AF4
  8
0
 10
-199.9999999999993
 20
-400.0000000000001
 30
0.0
 70
   192
  0
VERTEX
  5
4AF5
  8
0
 10
0.0
 20
0.0
 30
0.0
 70
   128
 71
     1
 72
     4
 73
    -3
  0
VERTEX
  5
4AF6
  8
0
 10
0.0
 20
0.0
 30
0.0
 70
   128
 71
    -1
 72
     3
 73
     2
  0
SEQEND
  5
510C
  8
0
  0
POLYLINE
  5
4AF7
  8
0
 66
     1
 10
0.0
 20
0.0
 30
0.0
 70
    64
 71
     8
 72
     6
  0
VERTEX
  5
4AF8
  8
0
 10
-286.602540378444
 20
-349.9999999999999
 30
0.0
 70
   192
  0
VERTEX
  5
4AF9
  8
0
 10
-286.602540378444
 20
-349.9999999999999
 30
-25.0
 70
   192
  0
VERTEX
  5
4AFA
  8
0
 10
-249.9999999999998
 20
-386.6025403784441
 30
-25.0
 70
   192
  0
VERTEX
  5
4AFB
  8
0
 10
-249.9999999999998
 20
-386.6025403784441
 30
0.0
 70
   192
  0
VERTEX
  5
4AFC
  8
0
 10
-300.0
 20
-299.9999999999994
 30
0.0
 70
   192
  0
VERTEX
  5
4AFD
  8
0
 10
-300.0
 20
-299.9999999999994
 30
-25.0
 70
   192
  0
VERTEX
  5
4AFE
  8
0
 10
-199.9999999999993
 20
-400.0000000000001
 30
-25.0
 70
   192
  0
VERTEX
  5
4AFF
  8
0
 10
-199.9999999999993
 20
-400.0000000000001
 30
0.0
 70
   192
  0
VERTEX
  5
4B00
  8
0
 10
0.0
 20
0.0
 30
0.0
 70
   128
 71
     1
 72
     2
 73
    -3
  0
VERTEX
  5
4B01
  8
0
 10
0.0
 20
0.0
 30
0.0
 70
   128
 71
    -1
 72
     3
 73
     4
  0
VERTEX
  5
4B02
  8
0
 10
0.0
 20
0.0
 30
0.0
 70
   128
 71
     5
 72
     6
 73
    -2
  0
VERTEX
  5
4B03
  8
0
 10
0.0
 20
0.0
 30
0.0
 70
   128
 71
    -5
 72
     2
 73
     1
  0
VERTEX
  5
4B04
  8
0
 10
0.0
 20
0.0
 30
0.0
 70
   128
 71
     4
 72
     3
 73
    -7
  0
VERTEX
  5
4B05
  8
0
 10
0.0
 20
0.0
 30
0.0
 70
   128
 71
    -4
 72
     7
 73
     8
  0
SEQEND
  5
510D
  8
0
  0
POLYLINE
  5
4B06
  8
0
 66
     1
 10
0.0
 20
0.0
 30
0.0
 70
    64
 71
     4
 72
     2
  0
VERTEX
  5
4B07
  8
0
 10
-300.0
 20
-299.9999999999994
 30
0.0
 70
   192
  0
VERTEX
  5
4B08
  8
0
 10
-300.0
 20
-299.9999999999994
 30
-25.0
 70
   192
  0
VERTEX
  5
4B09
  8
0
 10
-300.0
 20
299.9999999999993
 30
-25.0
 70
   192
  0
VERTEX
  5
4B0A
  8
0
 10
-300.0
 20
299.9999999999993
 30
0.0
 70
   192
  0
VERTEX
  5
4B0B
  8
0
 10
0.0
 20
0.0
 30
0.0
 70
   128
 71
     1
 72
     4
 73
    -3
  0
VERTEX
  5
4B0C
  8
0
 10
0.0
 20
0.0
 30
0.0
 70
   128
 71
    -1
 72
     3
 73
     2
  0
SEQEND
  5
510E
  8
0
  0
POLYLINE
  5
4B0D
  8
0
 66
     1
 10
0.0
 20
0.0
 30
0.0
 70
    64
 71
     8
 72
     6
  0
VERTEX
  5
4B0E
  8
0
 10
-249.9999999999998
 20
386.602540378444
 30
0.0
 70
   192
  0
VERTEX
  5
4B0F
  8
0
 10
-249.9999999999998
 20
386.602540378444
 30
-25.0
 70
   192
  0
VERTEX
  5
4B10
  8
0
 10
-286.602540378444
 20
349.9999999999998
 30
-25.0
 70
   192
  0
VERTEX
  5
4B11
  8
0
 10
-286.602540378444
 20
349.9999999999998
 30
0.0
 70
   192
  0
VERTEX
  5
4B12
  8
0
 10
-199.9999999999993
 20
400.0000000000001
 30
0.0
 70
   192
  0
VERTEX
  5
4B13
  8
0
 10
-199.9999999999993
 20
400.0
 30
-25.0
 70
   192
  0
VERTEX
  5
4B14
  8
0
 10
-299.9999999999999
 20
299.9999999999994
 30
-25.0
 70
   192
  0
VERTEX
  5
4B15
  8
0
 10
-300.0
 20
299.9999999999993
 30
0.0
 70
   192
  0
VERTEX
  5
4B16
  8
0
 10
0.0
 20
0.0
 30
0.0
 70
   128
 71
     1
 72
     2
 73
    -3
  0
VERTEX
  5
4B17
  8
0
 10
0.0
 20
0.0
 30
0.0
 70
   128
 71
    -1
 72
     3
 73
     4
  0
VERTEX
  5
4B18
  8
0
 10
0.0
 20
0.0
 30
0.0
 70
   128
 71
     5
 72
     6
 73
    -2
  0
VERTEX
  5
4B19
  8
0
 10
0.0
 20
0.0
 30
0.0
 70
   128
 71
    -5
 72
     2
 73
     1
  0
VERTEX
  5
4B1A
  8
0
 10
0.0
 20
0.0
 30
0.0
 70
   128
 71
     4
 72
     3
 73
    -7
  0
VERTEX
  5
4B1B
  8
0
 10
0.0
 20
0.0
 30
0.0
 70
   128
 71
    -4
 72
     7
 73
     8
  0
SEQEND
  5
510F
  8
0
  0
POLYLINE
  5
4B1C
  8
0
 66
     1
 10
0.0
 20
0.0
 30
0.0
 70
    64
 71
     4
 72
     2
  0
VERTEX
  5
4B1D
  8
0
 10
-199.9999999999993
 20
400.0
 30
0.0
 70
   192
  0
VERTEX
  5
4B1E
  8
0
 10
199.9999999999993
 20
400.0
 30
0.0
 70
   192
  0
VERTEX
  5
4B1F
  8
0
 10
199.9999999999993
 20
400.0
 30
-25.0
 70
   192
  0
VERTEX
  5
4B20
  8
0
 10
-199.9999999999993
 20
400.0
 30
-25.0
 70
   192
  0
VERTEX
  5
4B21
  8
0
 10
0.0
 20
0.0
 30
0.0
 70
   128
 71
     3
 72
     4
 73
    -1
  0
VERTEX
  5
4B22
  8
0
 10
0.0
 20
0.0
 30
0.0
 70
   128
 71
     2
 72
    -3
 73
     1
  0
SEQEND
  5
5110
  8
0
  0
POLYLINE
  5
4B23
  8
0
 66
     1
 10
0.0
 20
0.0
 30
0.0
 70
    64
 71
    32
 72
    32
  0
VERTEX
  5
4B24
  8
0
 10
199.9999999999993
 20
400.0
 30
-25.0
 70
   192
  0
VERTEX
  5
4B25
  8
0
 10
-199.9999999999993
 20
400.0000000000001
 30
-25.0
 70
   192
  0
VERTEX
  5
4B26
  8
0
 10
-249.9999999999998
 20
386.602540378444
 30
-25.0
 70
   192
  0
VERTEX
  5
4B27
  8
0
 10
-286.602540378444
 20
349.9999999999998
 30
-25.0
 70
   192
  0
VERTEX
  5
4B28
  8
0
 10
-300.0
 20
299.9999999999993
 30
-25.0
 70
   192
  0
VERTEX
  5
4B29
  8
0
 10
-300.0
 20
-299.9999999999994
 30
-25.0
 70
   192
  0
VERTEX
  5
4B2A
  8
0
 10
-286.602540378444
 20
-349.9999999999999
 30
-25.0
 70
   192
  0
VERTEX
  5
4B2B
  8
0
 10
-249.9999999999998
 20
-386.6025403784441
 30
-25.0
 70
   192
  0
VERTEX
  5
4B2C
  8
0
 10
-199.9999999999993
 20
-400.0000000000001
 30
-25.0
 70
   192
  0
VERTEX
  5
4B2D
  8
0
 10
199.9999999999993
 20
-400.0
 30
-25.0
 70
   192
  0
VERTEX
  5
4B2E
  8
0
 10
249.9999999999996
 20
-386.6025403784441
 30
-25.0
 70
   192
  0
VERTEX
  5
4B2F
  8
0
 10
286.6025403784437
 20
-350.0000000000003
 30
-25.0
 70
   192
  0
VERTEX
  5
4B30
  8
0
 10
300.0
 20
-300.0000000000001
 30
-25.0
 70
   192
  0
VERTEX
  5
4B31
  8
0
 10
300.0
 20
299.9999999999993
 30
-25.0
 70
   192
  0
VERTEX
  5
4B32
  8
0
 10
286.602540378444
 20
349.9999999999998
 30
-25.0
 70
   192
  0
VERTEX
  5
4B33
  8
0
 10
249.9999999999998
 20
386.602540378444
 30
-25.0
 70
   192
  0
VERTEX
  5
4B34
  8
0
 10
290.0
 20
-300.0000000000001
 30
-25.0
 70
   192
  0
VERTEX
  5
4B35
  8
0
 10
277.9422863405994
 20
-345.0000000000002
 30
-25.0
 70
   192
  0
VERTEX
  5
4B36
  8
0
 10
244.9999999999996
 20
-377.9422863405997
 30
-25.0
 70
   192
  0
VERTEX
  5
4B37
  8
0
 10
199.9999999999993
 20
-390.0
 30
-25.0
 70
   192
  0
VERTEX
  5
4B38
  8
0
 10
-199.9999999999993
 20
-390.0000000000001
 30
-25.0
 70
   192
  0
VERTEX
  5
4B39
  8
0
 10
-244.9999999999997
 20
-377.9422863405997
 30
-25.0
 70
   192
  0
VERTEX
  5
4B3A
  8
0
 10
-277.9422863405996
 20
-344.9999999999999
 30
-25.0
 70
   192
  0
VERTEX
  5
4B3B
  8
0
 10
-289.9999999999999
 20
-299.9999999999995
 30
-25.0
 70
   192
  0
VERTEX
  5
4B3C
  8
0
 10
-290.0
 20
299.9999999999994
 30
-25.0
 70
   192
  0
VERTEX
  5
4B3D
  8
0
 10
-277.9422863405996
 20
344.9999999999998
 30
-25.0
 70
   192
  0
VERTEX
  5
4B3E
  8
0
 10
-244.9999999999998
 20
377.9422863405997
 30
-25.0
 70
   192
  0
VERTEX
  5
4B3F
  8
0
 10
-199.9999999999993
 20
390.0
 30
-25.0
 70
   192
  0
VERTEX
  5
4B40
  8
0
 10
199.9999999999994
 20
390.0000000000001
 30
-25.0
 70
   192
  0
VERTEX
  5
4B41
  8
0
 10
244.9999999999999
 20
377.9422863405996
 30
-25.0
 70
   192
  0
VERTEX
  5
4B42
  8
0
 10
277.9422863405997
 20
344.9999999999998
 30
-25.0
 70
   192
  0
VERTEX
  5
4B43
  8
0
 10
290.0000000000001
 20
299.9999999999994
 30
-25.0
 70
   192
  0
VERTEX
  5
4B44
  8
0
 10
0.0
 20
0.0
 30
0.0
 70
   128
 71
    18
 72
   -17
 73
   -13
  0
VERTEX
  5
4B45
  8
0
 10
0.0
 20
0.0
 30
0.0
 70
   128
 71
   -18
 72
    13
 73
   -12
  0
VERTEX
  5
4B46
  8
0
 10
0.0
 20
0.0
 30
0.0
 70
   128
 71
    12
 72
   -11
 73
   -19
  0
VERTEX
  5
4B47
  8
0
 10
0.0
 20
0.0
 30
0.0
 70
   128
 71
   -12
 72
    19
 73
   -18
  0
VERTEX
  5
4B48
  8
0
 10
0.0
 20
0.0
 30
0.0
 70
   128
 71
    11
 72
   -10
 73
   -20
  0
VERTEX
  5
4B49
  8
0
 10
0.0
 20
0.0
 30
0.0
 70
   128
 71
   -11
 72
    20
 73
   -19
  0
VERTEX
  5
4B4A
  8
0
 10
0.0
 20
0.0
 30
0.0
 70
   128
 71
    10
 72
    -9
 73
   -21
  0
VERTEX
  5
4B4B
  8
0
 10
0.0
 20
0.0
 30
0.0
 70
   128
 71
   -10
 72
    21
 73
   -20
  0
VERTEX
  5
4B4C
  8
0
 10
0.0
 20
0.0
 30
0.0
 70
   128
 71
     9
 72
    -8
 73
   -22
  0
VERTEX
  5
4B4D
  8
0
 10
0.0
 20
0.0
 30
0.0
 70
   128
 71
    -9
 72
    22
 73
   -21
  0
VERTEX
  5
4B4E
  8
0
 10
0.0
 20
0.0
 30
0.0
 70
   128
 71
     8
 72
    -7
 73
   -23
  0
VERTEX
  5
4B4F
  8
0
 10
0.0
 20
0.0
 30
0.0
 70
   128
 71
    -8
 72
    23
 73
   -22
  0
VERTEX
  5
4B50
  8
0
 10
0.0
 20
0.0
 30
0.0
 70
   128
 71
     7
 72
    -6
 73
   -24
  0
VERTEX
  5
4B51
  8
0
 10
0.0
 20
0.0
 30
0.0
 70
   128
 71
    -7
 72
    24
 73
   -23
  0
VERTEX
  5
4B52
  8
0
 10
0.0
 20
0.0
 30
0.0
 70
   128
 71
     6
 72
    -5
 73
   -25
  0
VERTEX
  5
4B53
  8
0
 10
0.0
 20
0.0
 30
0.0
 70
   128
 71
    -6
 72
    25
 73
   -24
  0
VERTEX
  5
4B54
  8
0
 10
0.0
 20
0.0
 30
0.0
 70
   128
 71
     5
 72
    -4
 73
   -26
  0
VERTEX
  5
4B55
  8
0
 10
0.0
 20
0.0
 30
0.0
 70
   128
 71
    -5
 72
    26
 73
   -25
  0
VERTEX
  5
4B56
  8
0
 10
0.0
 20
0.0
 30
0.0
 70
   128
 71
     4
 72
    -3
 73
   -27
  0
VERTEX
  5
4B57
  8
0
 10
0.0
 20
0.0
 30
0.0
 70
   128
 71
    -4
 72
    27
 73
   -26
  0
VERTEX
  5
4B58
  8
0
 10
0.0
 20
0.0
 30
0.0
 70
   128
 71
     3
 72
    -2
 73
   -28
  0
VERTEX
  5
4B59
  8
0
 10
0.0
 20
0.0
 30
0.0
 70
   128
 71
    -3
 72
    28
 73
   -27
  0
VERTEX
  5
4B5A
  8
0
 10
0.0
 20
0.0
 30
0.0
 70
   128
 71
     2
 72
    -1
 73
   -29
  0
VERTEX
  5
4B5B
  8
0
 10
0.0
 20
0.0
 30
0.0
 70
   128
 71
    -2
 72
    29
 73
   -28
  0
VERTEX
  5
4B5C
  8
0
 10
0.0
 20
0.0
 30
0.0
 70
   128
 71
     1
 72
   -16
 73
   -30
  0
VERTEX
  5
4B5D
  8
0
 10
0.0
 20
0.0
 30
0.0
 70
   128
 71
    -1
 72
    30
 73
   -29
  0
VERTEX
  5
4B5E
  8
0
 10
0.0
 20
0.0
 30
0.0
 70
   128
 71
    16
 72
   -15
 73
   -31
  0
VERTEX
  5
4B5F
  8
0
 10
0.0
 20
0.0
 30
0.0
 70
   128
 71
   -16
 72
    31
 73
   -30
  0
VERTEX
  5
4B60
  8
0
 10
0.0
 20
0.0
 30
0.0
 70
   128
 71
    15
 72
   -14
 73
   -32
  0
VERTEX
  5
4B61
  8
0
 10
0.0
 20
0.0
 30
0.0
 70
   128
 71
   -15
 72
    32
 73
   -31
  0
VERTEX
  5
4B62
  8
0
 10
0.0
 20
0.0
 30
0.0
 70
   128
 71
    14
 72
   -13
 73
   -17
  0
VERTEX
  5
4B63
  8
0
 10
0.0
 20
0.0
 30
0.0
 70
   128
 71
   -14
 72
    17
 73
   -32
  0
SEQEND
  5
5111
  8
0
  0
POLYLINE
  5
4B64
  8
0
 66
     1
 10
0.0
 20
0.0
 30
0.0
 70
    64
 71
    32
 72
    32
  0
VERTEX
  5
4B65
  8
0
 10
300.0
 20
299.9999999999993
 30
0.0
 70
   192
  0
VERTEX
  5
4B66
  8
0
 10
286.602540378444
 20
349.9999999999998
 30
0.0
 70
   192
  0
VERTEX
  5
4B67
  8
0
 10
249.9999999999998
 20
386.602540378444
 30
0.0
 70
   192
  0
VERTEX
  5
4B68
  8
0
 10
199.9999999999993
 20
400.0000000000001
 30
0.0
 70
   192
  0
VERTEX
  5
4B69
  8
0
 10
-199.9999999999993
 20
400.0
 30
0.0
 70
   192
  0
VERTEX
  5
4B6A
  8
0
 10
-249.9999999999998
 20
386.602540378444
 30
0.0
 70
   192
  0
VERTEX
  5
4B6B
  8
0
 10
-286.602540378444
 20
349.9999999999998
 30
0.0
 70
   192
  0
VERTEX
  5
4B6C
  8
0
 10
-299.9999999999999
 20
299.9999999999994
 30
0.0
 70
   192
  0
VERTEX
  5
4B6D
  8
0
 10
-300.0
 20
-299.9999999999994
 30
0.0
 70
   192
  0
VERTEX
  5
4B6E
  8
0
 10
-286.602540378444
 20
-349.9999999999999
 30
0.0
 70
   192
  0
VERTEX
  5
4B6F
  8
0
 10
-249.9999999999998
 20
-386.6025403784441
 30
0.0
 70
   192
  0
VERTEX
  5
4B70
  8
0
 10
-199.9999999999993
 20
-400.0000000000001
 30
0.0
 70
   192
  0
VERTEX
  5
4B71
  8
0
 10
199.9999999999993
 20
-400.0
 30
0.0
 70
   192
  0
VERTEX
  5
4B72
  8
0
 10
249.9999999999996
 20
-386.6025403784441
 30
0.0
 70
   192
  0
VERTEX
  5
4B73
  8
0
 10
286.6025403784437
 20
-350.0000000000003
 30
0.0
 70
   192
  0
VERTEX
  5
4B74
  8
0
 10
300.0
 20
-300.0000000000001
 30
0.0
 70
   192
  0
VERTEX
  5
4B75
  8
0
 10
290.0
 20
300.0000000000001
 30
0.0
 70
   192
  0
VERTEX
  5
4B76
  8
0
 10
290.0
 20
-299.9999999999994
 30
0.0
 70
   192
  0
VERTEX
  5
4B77
  8
0
 10
277.9422863405995
 20
-344.9999999999999
 30
0.0
 70
   192
  0
VERTEX
  5
4B78
  8
0
 10
244.9999999999998
 20
-377.9422863405997
 30
0.0
 70
   192
  0
VERTEX
  5
4B79
  8
0
 10
199.9999999999993
 20
-390.0
 30
0.0
 70
   192
  0
VERTEX
  5
4B7A
  8
0
 10
-199.9999999999994
 20
-390.0
 30
0.0
 70
   192
  0
VERTEX
  5
4B7B
  8
0
 10
-244.9999999999998
 20
-377.9422863405996
 30
0.0
 70
   192
  0
VERTEX
  5
4B7C
  8
0
 10
-277.9422863405996
 20
-344.9999999999998
 30
0.0
 70
   192
  0
VERTEX
  5
4B7D
  8
0
 10
-289.9999999999999
 20
-299.9999999999994
 30
0.0
 70
   192
  0
VERTEX
  5
4B7E
  8
0
 10
-290.0
 20
299.9999999999994
 30
0.0
 70
   192
  0
VERTEX
  5
4B7F
  8
0
 10
-277.9422863405995
 20
344.9999999999999
 30
0.0
 70
   192
  0
VERTEX
  5
4B80
  8
0
 10
-244.9999999999998
 20
377.9422863405996
 30
0.0
 70
   192
  0
VERTEX
  5
4B81
  8
0
 10
-199.9999999999993
 20
390.0000000000001
 30
0.0
 70
   192
  0
VERTEX
  5
4B82
  8
0
 10
199.9999999999994
 20
390.0
 30
0.0
 70
   192
  0
VERTEX
  5
4B83
  8
0
 10
244.9999999999996
 20
377.9422863405997
 30
0.0
 70
   192
  0
VERTEX
  5
4B84
  8
0
 10
277.9422863405994
 20
345.0000000000002
 30
0.0
 70
   192
  0
VERTEX
  5
4B85
  8
0
 10
0.0
 20
0.0
 30
0.0
 70
   128
 71
    -1
 72
    17
 73
   -18
  0
VERTEX
  5
4B86
  8
0
 10
0.0
 20
0.0
 30
0.0
 70
   128
 71
    16
 72
    -1
 73
   -18
  0
VERTEX
  5
4B87
  8
0
 10
0.0
 20
0.0
 30
0.0
 70
   128
 71
   -19
 72
    15
 73
   -16
  0
VERTEX
  5
4B88
  8
0
 10
0.0
 20
0.0
 30
0.0
 70
   128
 71
    18
 72
   -19
 73
   -16
  0
VERTEX
  5
4B89
  8
0
 10
0.0
 20
0.0
 30
0.0
 70
   128
 71
   -20
 72
    14
 73
   -15
  0
VERTEX
  5
4B8A
  8
0
 10
0.0
 20
0.0
 30
0.0
 70
   128
 71
    19
 72
   -20
 73
   -15
  0
VERTEX
  5
4B8B
  8
0
 10
0.0
 20
0.0
 30
0.0
 70
   128
 71
   -21
 72
    13
 73
   -14
  0
VERTEX
  5
4B8C
  8
0
 10
0.0
 20
0.0
 30
0.0
 70
   128
 71
    20
 72
   -21
 73
   -14
  0
VERTEX
  5
4B8D
  8
0
 10
0.0
 20
0.0
 30
0.0
 70
   128
 71
   -22
 72
    12
 73
   -13
  0
VERTEX
  5
4B8E
  8
0
 10
0.0
 20
0.0
 30
0.0
 70
   128
 71
    21
 72
   -22
 73
   -13
  0
VERTEX
  5
4B8F
  8
0
 10
0.0
 20
0.0
 30
0.0
 70
   128
 71
   -23
 72
    11
 73
   -12
  0
VERTEX
  5
4B90
  8
0
 10
0.0
 20
0.0
 30
0.0
 70
   128
 71
    22
 72
   -23
 73
   -12
  0
VERTEX
  5
4B91
  8
0
 10
0.0
 20
0.0
 30
0.0
 70
   128
 71
   -24
 72
    10
 73
   -11
  0
VERTEX
  5
4B92
  8
0
 10
0.0
 20
0.0
 30
0.0
 70
   128
 71
    23
 72
   -24
 73
   -11
  0
VERTEX
  5
4B93
  8
0
 10
0.0
 20
0.0
 30
0.0
 70
   128
 71
   -25
 72
     9
 73
   -10
  0
VERTEX
  5
4B94
  8
0
 10
0.0
 20
0.0
 30
0.0
 70
   128
 71
    24
 72
   -25
 73
   -10
  0
VERTEX
  5
4B95
  8
0
 10
0.0
 20
0.0
 30
0.0
 70
   128
 71
   -26
 72
     8
 73
    -9
  0
VERTEX
  5
4B96
  8
0
 10
0.0
 20
0.0
 30
0.0
 70
   128
 71
    25
 72
   -26
 73
    -9
  0
VERTEX
  5
4B97
  8
0
 10
0.0
 20
0.0
 30
0.0
 70
   128
 71
   -27
 72
     7
 73
    -8
  0
VERTEX
  5
4B98
  8
0
 10
0.0
 20
0.0
 30
0.0
 70
   128
 71
    26
 72
   -27
 73
    -8
  0
VERTEX
  5
4B99
  8
0
 10
0.0
 20
0.0
 30
0.0
 70
   128
 71
   -28
 72
     6
 73
    -7
  0
VERTEX
  5
4B9A
  8
0
 10
0.0
 20
0.0
 30
0.0
 70
   128
 71
    27
 72
   -28
 73
    -7
  0
VERTEX
  5
4B9B
  8
0
 10
0.0
 20
0.0
 30
0.0
 70
   128
 71
   -29
 72
     5
 73
    -6
  0
VERTEX
  5
4B9C
  8
0
 10
0.0
 20
0.0
 30
0.0
 70
   128
 71
    28
 72
   -29
 73
    -6
  0
VERTEX
  5
4B9D
  8
0
 10
0.0
 20
0.0
 30
0.0
 70
   128
 71
   -30
 72
     4
 73
    -5
  0
VERTEX
  5
4B9E
  8
0
 10
0.0
 20
0.0
 30
0.0
 70
   128
 71
    29
 72
   -30
 73
    -5
  0
VERTEX
  5
4B9F
  8
0
 10
0.0
 20
0.0
 30
0.0
 70
   128
 71
   -31
 72
     3
 73
    -4
  0
VERTEX
  5
4BA0
  8
0
 10
0.0
 20
0.0
 30
0.0
 70
   128
 71
    30
 72
   -31
 73
    -4
  0
VERTEX
  5
4BA1
  8
0
 10
0.0
 20
0.0
 30
0.0
 70
   128
 71
   -32
 72
     2
 73
    -3
  0
VERTEX
  5
4BA2
  8
0
 10
0.0
 20
0.0
 30
0.0
 70
   128
 71
    31
 72
   -32
 73
    -3
  0
VERTEX
  5
4BA3
  8
0
 10
0.0
 20
0.0
 30
0.0
 70
   128
 71
   -17
 72
     1
 73
    -2
  0
VERTEX
  5
4BA4
  8
0
 10
0.0
 20
0.0
 30
0.0
 70
   128
 71
    32
 72
   -17
 73
    -2
  0
SEQEND
  5
5112
  8
0
  0
POLYLINE
  5
4BA5
  8
0
 66
     1
 10
0.0
 20
0.0
 30
0.0
 70
    64
 71
     8
 72
     6
  0
VERTEX
  5
4BA6
  8
0
 10
244.9999999999999
 20
377.9422863405996
 30
-25.0
 70
   192
  0
VERTEX
  5
4BA7
  8
0
 10
277.9422863405997
 20
344.9999999999998
 30
-25.0
 70
   192
  0
VERTEX
  5
4BA8
  8
0
 10
277.9422863405997
 20
344.9999999999998
 30
-10.0
 70
   192
  0
VERTEX
  5
4BA9
  8
0
 10
244.9999999999999
 20
377.9422863405997
 30
-10.0
 70
   192
  0
VERTEX
  5
4BAA
  8
0
 10
290.0
 20
299.9999999999993
 30
-25.0
 70
   192
  0
VERTEX
  5
4BAB
  8
0
 10
290.0
 20
299.9999999999993
 30
-10.0
 70
   192
  0
VERTEX
  5
4BAC
  8
0
 10
199.9999999999994
 20
390.0
 30
-25.0
 70
   192
  0
VERTEX
  5
4BAD
  8
0
 10
199.9999999999994
 20
390.0000000000001
 30
-10.0
 70
   192
  0
VERTEX
  5
4BAE
  8
0
 10
0.0
 20
0.0
 30
0.0
 70
   128
 71
     1
 72
     2
 73
    -3
  0
VERTEX
  5
4BAF
  8
0
 10
0.0
 20
0.0
 30
0.0
 70
   128
 71
     4
 72
    -1
 73
     3
  0
VERTEX
  5
4BB0
  8
0
 10
0.0
 20
0.0
 30
0.0
 70
   128
 71
     2
 72
     5
 73
    -6
  0
VERTEX
  5
4BB1
  8
0
 10
0.0
 20
0.0
 30
0.0
 70
   128
 71
     3
 72
    -2
 73
     6
  0
VERTEX
  5
4BB2
  8
0
 10
0.0
 20
0.0
 30
0.0
 70
   128
 71
     7
 72
     1
 73
    -4
  0
VERTEX
  5
4BB3
  8
0
 10
0.0
 20
0.0
 30
0.0
 70
   128
 71
     8
 72
    -7
 73
     4
  0
SEQEND
  5
5113
  8
0
  0
POLYLINE
  5
4BB4
  8
0
 66
     1
 10
0.0
 20
0.0
 30
0.0
 70
    64
 71
     4
 72
     2
  0
VERTEX
  5
4BB5
  8
0
 10
290.0
 20
-300.0000000000001
 30
-10.0
 70
   192
  0
VERTEX
  5
4BB6
  8
0
 10
290.0
 20
-300.0000000000001
 30
-25.0
 70
   192
  0
VERTEX
  5
4BB7
  8
0
 10
290.0000000000001
 20
299.9999999999993
 30
-25.0
 70
   192
  0
VERTEX
  5
4BB8
  8
0
 10
290.0000000000001
 20
299.9999999999993
 30
-10.0
 70
   192
  0
VERTEX
  5
4BB9
  8
0
 10
0.0
 20
0.0
 30
0.0
 70
   128
 71
     1
 72
     4
 73
    -3
  0
VERTEX
  5
4BBA
  8
0
 10
0.0
 20
0.0
 30
0.0
 70
   128
 71
    -1
 72
     3
 73
     2
  0
SEQEND
  5
5114
  8
0
  0
POLYLINE
  5
4BBB
  8
0
 66
     1
 10
0.0
 20
0.0
 30
0.0
 70
    64
 71
     8
 72
     6
  0
VERTEX
  5
4BBC
  8
0
 10
277.9422863405994
 20
-345.0000000000002
 30
-25.0
 70
   192
  0
VERTEX
  5
4BBD
  8
0
 10
244.9999999999996
 20
-377.9422863405997
 30
-25.0
 70
   192
  0
VERTEX
  5
4BBE
  8
0
 10
244.9999999999995
 20
-377.9422863405998
 30
-10.0
 70
   192
  0
VERTEX
  5
4BBF
  8
0
 10
277.9422863405993
 20
-345.0000000000003
 30
-10.0
 70
   192
  0
VERTEX
  5
4BC0
  8
0
 10
199.9999999999993
 20
-390.0
 30
-25.0
 70
   192
  0
VERTEX
  5
4BC1
  8
0
 10
199.9999999999993
 20
-390.0
 30
-10.0
 70
   192
  0
VERTEX
  5
4BC2
  8
0
 10
290.0
 20
-300.0000000000001
 30
-25.0
 70
   192
  0
VERTEX
  5
4BC3
  8
0
 10
290.0
 20
-300.0000000000001
 30
-10.0
 70
   192
  0
VERTEX
  5
4BC4
  8
0
 10
0.0
 20
0.0
 30
0.0
 70
   128
 71
     1
 72
     2
 73
    -3
  0
VERTEX
  5
4BC5
  8
0
 10
0.0
 20
0.0
 30
0.0
 70
   128
 71
     4
 72
    -1
 73
     3
  0
VERTEX
  5
4BC6
  8
0
 10
0.0
 20
0.0
 30
0.0
 70
   128
 71
     2
 72
     5
 73
    -6
  0
VERTEX
  5
4BC7
  8
0
 10
0.0
 20
0.0
 30
0.0
 70
   128
 71
     3
 72
    -2
 73
     6
  0
VERTEX
  5
4BC8
  8
0
 10
0.0
 20
0.0
 30
0.0
 70
   128
 71
     7
 72
     1
 73
    -4
  0
VERTEX
  5
4BC9
  8
0
 10
0.0
 20
0.0
 30
0.0
 70
   128
 71
     8
 72
    -7
 73
     4
  0
SEQEND
  5
5115
  8
0
  0
POLYLINE
  5
4BCA
  8
0
 66
     1
 10
0.0
 20
0.0
 30
0.0
 70
    64
 71
     4
 72
     2
  0
VERTEX
  5
4BCB
  8
0
 10
-199.9999999999994
 20
-390.0000000000001
 30
-10.0
 70
   192
  0
VERTEX
  5
4BCC
  8
0
 10
199.9999999999993
 20
-390.0
 30
-10.0
 70
   192
  0
VERTEX
  5
4BCD
  8
0
 10
199.9999999999993
 20
-390.0
 30
-25.0
 70
   192
  0
VERTEX
  5
4BCE
  8
0
 10
-199.9999999999993
 20
-390.0000000000001
 30
-25.0
 70
   192
  0
VERTEX
  5
4BCF
  8
0
 10
0.0
 20
0.0
 30
0.0
 70
   128
 71
     3
 72
     4
 73
    -1
  0
VERTEX
  5
4BD0
  8
0
 10
0.0
 20
0.0
 30
0.0
 70
   128
 71
     2
 72
    -3
 73
     1
  0
SEQEND
  5
5116
  8
0
  0
POLYLINE
  5
4BD1
  8
0
 66
     1
 10
0.0
 20
0.0
 30
0.0
 70
    64
 71
     8
 72
     6
  0
VERTEX
  5
4BD2
  8
0
 10
-244.9999999999997
 20
-377.9422863405997
 30
-25.0
 70
   192
  0
VERTEX
  5
4BD3
  8
0
 10
-277.9422863405996
 20
-344.9999999999999
 30
-25.0
 70
   192
  0
VERTEX
  5
4BD4
  8
0
 10
-277.9422863405996
 20
-344.9999999999999
 30
-10.0
 70
   192
  0
VERTEX
  5
4BD5
  8
0
 10
-244.9999999999998
 20
-377.9422863405996
 30
-10.0
 70
   192
  0
VERTEX
  5
4BD6
  8
0
 10
-290.0
 20
-299.9999999999995
 30
-25.0
 70
   192
  0
VERTEX
  5
4BD7
  8
0
 10
-290.0
 20
-299.9999999999994
 30
-10.0
 70
   192
  0
VERTEX
  5
4BD8
  8
0
 10
-199.9999999999994
 20
-390.0000000000001
 30
-25.0
 70
   192
  0
VERTEX
  5
4BD9
  8
0
 10
-199.9999999999994
 20
-390.0000000000001
 30
-10.0
 70
   192
  0
VERTEX
  5
4BDA
  8
0
 10
0.0
 20
0.0
 30
0.0
 70
   128
 71
     1
 72
     2
 73
    -3
  0
VERTEX
  5
4BDB
  8
0
 10
0.0
 20
0.0
 30
0.0
 70
   128
 71
     4
 72
    -1
 73
     3
  0
VERTEX
  5
4BDC
  8
0
 10
0.0
 20
0.0
 30
0.0
 70
   128
 71
     2
 72
     5
 73
    -6
  0
VERTEX
  5
4BDD
  8
0
 10
0.0
 20
0.0
 30
0.0
 70
   128
 71
     3
 72
    -2
 73
     6
  0
VERTEX
  5
4BDE
  8
0
 10
0.0
 20
0.0
 30
0.0
 70
   128
 71
     7
 72
     1
 73
    -4
  0
VERTEX
  5
4BDF
  8
0
 10
0.0
 20
0.0
 30
0.0
 70
   128
 71
     8
 72
    -7
 73
     4
  0
SEQEND
  5
5117
  8
0
  0
POLYLINE
  5
4BE0
  8
0
 66
     1
 10
0.0
 20
0.0
 30
0.0
 70
    64
 71
     4
 72
     2
  0
VERTEX
  5
4BE1
  8
0
 10
-289.9999999999999
 20
299.9999999999994
 30
-10.0
 70
   192
  0
VERTEX
  5
4BE2
  8
0
 10
-289.9999999999999
 20
-299.9999999999994
 30
-10.0
 70
   192
  0
VERTEX
  5
4BE3
  8
0
 10
-290.0
 20
-299.9999999999994
 30
-25.0
 70
   192
  0
VERTEX
  5
4BE4
  8
0
 10
-289.9999999999999
 20
299.9999999999994
 30
-25.0
 70
   192
  0
VERTEX
  5
4BE5
  8
0
 10
0.0
 20
0.0
 30
0.0
 70
   128
 71
     3
 72
     4
 73
    -1
  0
VERTEX
  5
4BE6
  8
0
 10
0.0
 20
0.0
 30
0.0
 70
   128
 71
     2
 72
    -3
 73
     1
  0
SEQEND
  5
5118
  8
0
  0
POLYLINE
  5
4BE7
  8
0
 66
     1
 10
0.0
 20
0.0
 30
0.0
 70
    64
 71
     8
 72
     6
  0
VERTEX
  5
4BE8
  8
0
 10
-277.9422863405996
 20
344.9999999999998
 30
-25.0
 70
   192
  0
VERTEX
  5
4BE9
  8
0
 10
-244.9999999999998
 20
377.9422863405997
 30
-25.0
 70
   192
  0
VERTEX
  5
4BEA
  8
0
 10
-244.9999999999997
 20
377.9422863405997
 30
-10.0
 70
   192
  0
VERTEX
  5
4BEB
  8
0
 10
-277.9422863405995
 20
344.9999999999999
 30
-10.0
 70
   192
  0
VERTEX
  5
4BEC
  8
0
 10
-199.9999999999993
 20
390.0000000000001
 30
-25.0
 70
   192
  0
VERTEX
  5
4BED
  8
0
 10
-199.9999999999993
 20
390.0000000000001
 30
-10.0
 70
   192
  0
VERTEX
  5
4BEE
  8
0
 10
-290.0
 20
299.9999999999994
 30
-25.0
 70
   192
  0
VERTEX
  5
4BEF
  8
0
 10
-289.9999999999999
 20
299.9999999999995
 30
-10.0
 70
   192
  0
VERTEX
  5
4BF0
  8
0
 10
0.0
 20
0.0
 30
0.0
 70
   128
 71
     1
 72
     2
 73
    -3
  0
VERTEX
  5
4BF1
  8
0
 10
0.0
 20
0.0
 30
0.0
 70
   128
 71
     4
 72
    -1
 73
     3
  0
VERTEX
  5
4BF2
  8
0
 10
0.0
 20
0.0
 30
0.0
 70
   128
 71
     2
 72
     5
 73
    -6
  0
VERTEX
  5
4BF3
  8
0
 10
0.0
 20
0.0
 30
0.0
 70
   128
 71
     3
 72
    -2
 73
     6
  0
VERTEX
  5
4BF4
  8
0
 10
0.0
 20
0.0
 30
0.0
 70
   128
 71
     7
 72
     1
 73
    -4
  0
VERTEX
  5
4BF5
  8
0
 10
0.0
 20
0.0
 30
0.0
 70
   128
 71
     8
 72
    -7
 73
     4
  0
SEQEND
  5
5119
  8
0
  0
POLYLINE
  5
4BF6
  8
0
 66
     1
 10
0.0
 20
0.0
 30
0.0
 70
    64
 71
     4
 72
     2
  0
VERTEX
  5
4BF7
  8
0
 10
199.9999999999994
 20
390.0
 30
-10.0
 70
   192
  0
VERTEX
  5
4BF8
  8
0
 10
199.9999999999993
 20
390.0
 30
-25.0
 70
   192
  0
VERTEX
  5
4BF9
  8
0
 10
-199.9999999999993
 20
390.0
 30
-25.0
 70
   192
  0
VERTEX
  5
4BFA
  8
0
 10
-199.9999999999993
 20
390.0
 30
-10.0
 70
   192
  0
VERTEX
  5
4BFB
  8
0
 10
0.0
 20
0.0
 30
0.0
 70
   128
 71
     1
 72
     4
 73
    -3
  0
VERTEX
  5
4BFC
  8
0
 10
0.0
 20
0.0
 30
0.0
 70
   128
 71
    -1
 72
     3
 73
     2
  0
SEQEND
  5
511A
  8
0
  0
POLYLINE
  5
4BFD
  8
0
 66
     1
 10
0.0
 20
0.0
 30
0.0
 70
    64
 71
    16
 72
    14
  0
VERTEX
  5
4BFE
  8
0
 10
199.9999999999994
 20
390.0
 30
-10.0
 70
   192
  0
VERTEX
  5
4BFF
  8
0
 10
-199.9999999999993
 20
390.0000000000001
 30
-10.0
 70
   192
  0
VERTEX
  5
4C00
  8
0
 10
-244.9999999999997
 20
377.9422863405997
 30
-10.0
 70
   192
  0
VERTEX
  5
4C01
  8
0
 10
-277.9422863405995
 20
344.9999999999999
 30
-10.0
 70
   192
  0
VERTEX
  5
4C02
  8
0
 10
-289.9999999999999
 20
299.9999999999994
 30
-10.0
 70
   192
  0
VERTEX
  5
4C03
  8
0
 10
-290.0
 20
-299.9999999999994
 30
-10.0
 70
   192
  0
VERTEX
  5
4C04
  8
0
 10
-277.9422863405996
 20
-344.9999999999999
 30
-10.0
 70
   192
  0
VERTEX
  5
4C05
  8
0
 10
-244.9999999999998
 20
-377.9422863405996
 30
-10.0
 70
   192
  0
VERTEX
  5
4C06
  8
0
 10
-199.9999999999994
 20
-390.0000000000001
 30
-10.0
 70
   192
  0
VERTEX
  5
4C07
  8
0
 10
199.9999999999993
 20
-390.0
 30
-10.0
 70
   192
  0
VERTEX
  5
4C08
  8
0
 10
244.9999999999995
 20
-377.9422863405998
 30
-10.0
 70
   192
  0
VERTEX
  5
4C09
  8
0
 10
277.9422863405993
 20
-345.0000000000003
 30
-10.0
 70
   192
  0
VERTEX
  5
4C0A
  8
0
 10
290.0
 20
-300.0000000000001
 30
-10.0
 70
   192
  0
VERTEX
  5
4C0B
  8
0
 10
290.0
 20
299.9999999999993
 30
-10.0
 70
   192
  0
VERTEX
  5
4C0C
  8
0
 10
277.9422863405997
 20
344.9999999999998
 30
-10.0
 70
   192
  0
VERTEX
  5
4C0D
  8
0
 10
244.9999999999999
 20
377.9422863405997
 30
-10.0
 70
   192
  0
VERTEX
  5
4C0E
  8
0
 10
0.0
 20
0.0
 30
0.0
 70
   128
 71
     1
 72
    16
 73
   -15
  0
VERTEX
  5
4C0F
  8
0
 10
0.0
 20
0.0
 30
0.0
 70
   128
 71
    -1
 72
    15
 73
   -14
  0
VERTEX
  5
4C10
  8
0
 10
0.0
 20
0.0
 30
0.0
 70
   128
 71
    -1
 72
    14
 73
   -13
  0
VERTEX
  5
4C11
  8
0
 10
0.0
 20
0.0
 30
0.0
 70
   128
 71
    -1
 72
    13
 73
   -12
  0
VERTEX
  5
4C12
  8
0
 10
0.0
 20
0.0
 30
0.0
 70
   128
 71
    -1
 72
    12
 73
   -11
  0
VERTEX
  5
4C13
  8
0
 10
0.0
 20
0.0
 30
0.0
 70
   128
 71
    -1
 72
    11
 73
   -10
  0
VERTEX
  5
4C14
  8
0
 10
0.0
 20
0.0
 30
0.0
 70
   128
 71
    -1
 72
    10
 73
    -9
  0
VERTEX
  5
4C15
  8
0
 10
0.0
 20
0.0
 30
0.0
 70
   128
 71
    -1
 72
     9
 73
    -8
  0
VERTEX
  5
4C16
  8
0
 10
0.0
 20
0.0
 30
0.0
 70
   128
 71
    -1
 72
     8
 73
    -7
  0
VERTEX
  5
4C17
  8
0
 10
0.0
 20
0.0
 30
0.0
 70
   128
 71
    -1
 72
     7
 73
    -6
  0
VERTEX
  5
4C18
  8
0
 10
0.0
 20
0.0
 30
0.0
 70
   128
 71
    -1
 72
     6
 73
    -5
  0
VERTEX
  5
4C19
  8
0
 10
0.0
 20
0.0
 30
0.0
 70
   128
 71
    -1
 72
     5
 73
    -4
  0
VERTEX
  5
4C1A
  8
0
 10
0.0
 20
0.0
 30
0.0
 70
   128
 71
    -1
 72
     4
 73
    -3
  0
VERTEX
  5
4C1B
  8
0
 10
0.0
 20
0.0
 30
0.0
 70
   128
 71
    -1
 72
     3
 73
     2
  0
SEQEND
  5
511B
  8
0
  0
POLYLINE
  5
4C1C
  8
0
 66
     1
 10
0.0
 20
0.0
 30
0.0
 70
    64
 71
     4
 72
     2
  0
VERTEX
  5
4C1D
  8
0
 10
290.0
 20
-299.9999999999994
 30
0.0
 70
   192
  0
VERTEX
  5
4C1E
  8
0
 10
290.0
 20
-299.9999999999994
 30
-0.5
 70
   192
  0
VERTEX
  5
4C1F
  8
0
 10
290.0
 20
299.9999999999993
 30
-0.5
 70
   192
  0
VERTEX
  5
4C20
  8
0
 10
290.0
 20
300.0000000000001
 30
0.0
 70
   192
  0
VERTEX
  5
4C21
  8
0
 10
0.0
 20
0.0
 30
0.0
 70
   128
 71
     1
 72
     4
 73
    -3
  0
VERTEX
  5
4C22
  8
0
 10
0.0
 20
0.0
 30
0.0
 70
   128
 71
    -1
 72
     3
 73
     2
  0
SEQEND
  5
511C
  8
0
  0
POLYLINE
  5
4C23
  8
0
 66
     1
 10
0.0
 20
0.0
 30
0.0
 70
    64
 71
     8
 72
     6
  0
VERTEX
  5
4C24
  8
0
 10
277.9422863405995
 20
-344.9999999999999
 30
-0.5
 70
   192
  0
VERTEX
  5
4C25
  8
0
 10
244.9999999999998
 20
-377.9422863405997
 30
-0.5
 70
   192
  0
VERTEX
  5
4C26
  8
0
 10
244.9999999999998
 20
-377.9422863405997
 30
0.0
 70
   192
  0
VERTEX
  5
4C27
  8
0
 10
277.9422863405995
 20
-344.9999999999999
 30
0.0
 70
   192
  0
VERTEX
  5
4C28
  8
0
 10
199.9999999999993
 20
-390.0
 30
-0.5
 70
   192
  0
VERTEX
  5
4C29
  8
0
 10
199.9999999999993
 20
-390.0
 30
0.0
 70
   192
  0
VERTEX
  5
4C2A
  8
0
 10
290.0
 20
-299.9999999999994
 30
-0.5
 70
   192
  0
VERTEX
  5
4C2B
  8
0
 10
290.0
 20
-299.9999999999994
 30
0.0
 70
   192
  0
VERTEX
  5
4C2C
  8
0
 10
0.0
 20
0.0
 30
0.0
 70
   128
 71
     1
 72
     2
 73
    -3
  0
VERTEX
  5
4C2D
  8
0
 10
0.0
 20
0.0
 30
0.0
 70
   128
 71
     4
 72
    -1
 73
     3
  0
VERTEX
  5
4C2E
  8
0
 10
0.0
 20
0.0
 30
0.0
 70
   128
 71
     2
 72
     5
 73
    -6
  0
VERTEX
  5
4C2F
  8
0
 10
0.0
 20
0.0
 30
0.0
 70
   128
 71
     3
 72
    -2
 73
     6
  0
VERTEX
  5
4C30
  8
0
 10
0.0
 20
0.0
 30
0.0
 70
   128
 71
     7
 72
     1
 73
    -4
  0
VERTEX
  5
4C31
  8
0
 10
0.0
 20
0.0
 30
0.0
 70
   128
 71
     8
 72
    -7
 73
     4
  0
SEQEND
  5
511D
  8
0
  0
POLYLINE
  5
4C32
  8
0
 66
     1
 10
0.0
 20
0.0
 30
0.0
 70
    64
 71
     4
 72
     2
  0
VERTEX
  5
4C33
  8
0
 10
-199.9999999999994
 20
-390.0
 30
0.0
 70
   192
  0
VERTEX
  5
4C34
  8
0
 10
199.9999999999993
 20
-390.0
 30
0.0
 70
   192
  0
VERTEX
  5
4C35
  8
0
 10
199.9999999999993
 20
-390.0
 30
-0.5
 70
   192
  0
VERTEX
  5
4C36
  8
0
 10
-199.9999999999994
 20
-390.0
 30
-0.5
 70
   192
  0
VERTEX
  5
4C37
  8
0
 10
0.0
 20
0.0
 30
0.0
 70
   128
 71
     3
 72
     4
 73
    -1
  0
VERTEX
  5
4C38
  8
0
 10
0.0
 20
0.0
 30
0.0
 70
   128
 71
     2
 72
    -3
 73
     1
  0
SEQEND
  5
511E
  8
0
  0
POLYLINE
  5
4C39
  8
0
 66
     1
 10
0.0
 20
0.0
 30
0.0
 70
    64
 71
     8
 72
     6
  0
VERTEX
  5
4C3A
  8
0
 10
-244.9999999999998
 20
-377.9422863405996
 30
-0.5
 70
   192
  0
VERTEX
  5
4C3B
  8
0
 10
-277.9422863405996
 20
-344.9999999999998
 30
-0.5
 70
   192
  0
VERTEX
  5
4C3C
  8
0
 10
-277.9422863405996
 20
-344.9999999999998
 30
0.0
 70
   192
  0
VERTEX
  5
4C3D
  8
0
 10
-244.9999999999998
 20
-377.9422863405996
 30
0.0
 70
   192
  0
VERTEX
  5
4C3E
  8
0
 10
-289.9999999999999
 20
-299.9999999999994
 30
-0.5
 70
   192
  0
VERTEX
  5
4C3F
  8
0
 10
-289.9999999999999
 20
-299.9999999999994
 30
0.0
 70
   192
  0
VERTEX
  5
4C40
  8
0
 10
-199.9999999999994
 20
-390.0000000000001
 30
-0.5
 70
   192
  0
VERTEX
  5
4C41
  8
0
 10
-199.9999999999994
 20
-390.0000000000001
 30
0.0
 70
   192
  0
VERTEX
  5
4C42
  8
0
 10
0.0
 20
0.0
 30
0.0
 70
   128
 71
     1
 72
     2
 73
    -3
  0
VERTEX
  5
4C43
  8
0
 10
0.0
 20
0.0
 30
0.0
 70
   128
 71
     4
 72
    -1
 73
     3
  0
VERTEX
  5
4C44
  8
0
 10
0.0
 20
0.0
 30
0.0
 70
   128
 71
     2
 72
     5
 73
    -6
  0
VERTEX
  5
4C45
  8
0
 10
0.0
 20
0.0
 30
0.0
 70
   128
 71
     3
 72
    -2
 73
     6
  0
VERTEX
  5
4C46
  8
0
 10
0.0
 20
0.0
 30
0.0
 70
   128
 71
     7
 72
     1
 73
    -4
  0
VERTEX
  5
4C47
  8
0
 10
0.0
 20
0.0
 30
0.0
 70
   128
 71
     8
 72
    -7
 73
     4
  0
SEQEND
  5
511F
  8
0
  0
POLYLINE
  5
4C48
  8
0
 66
     1
 10
0.0
 20
0.0
 30
0.0
 70
    64
 71
     4
 72
     2
  0
VERTEX
  5
4C49
  8
0
 10
-290.0
 20
299.9999999999994
 30
0.0
 70
   192
  0
VERTEX
  5
4C4A
  8
0
 10
-290.0
 20
-299.9999999999994
 30
0.0
 70
   192
  0
VERTEX
  5
4C4B
  8
0
 10
-290.0
 20
-299.9999999999994
 30
-0.5
 70
   192
  0
VERTEX
  5
4C4C
  8
0
 10
-290.0
 20
299.9999999999994
 30
-0.5
 70
   192
  0
VERTEX
  5
4C4D
  8
0
 10
0.0
 20
0.0
 30
0.0
 70
   128
 71
     3
 72
     4
 73
    -1
  0
VERTEX
  5
4C4E
  8
0
 10
0.0
 20
0.0
 30
0.0
 70
   128
 71
     2
 72
    -3
 73
     1
  0
SEQEND
  5
5120
  8
0
  0
POLYLINE
  5
4C4F
  8
0
 66
     1
 10
0.0
 20
0.0
 30
0.0
 70
    64
 71
     8
 72
     6
  0
VERTEX
  5
4C50
  8
0
 10
-277.9422863405995
 20
344.9999999999999
 30
-0.5
 70
   192
  0
VERTEX
  5
4C51
  8
0
 10
-244.9999999999998
 20
377.9422863405996
 30
-0.5
 70
   192
  0
VERTEX
  5
4C52
  8
0
 10
-244.9999999999998
 20
377.9422863405996
 30
0.0
 70
   192
  0
VERTEX
  5
4C53
  8
0
 10
-277.9422863405995
 20
344.9999999999999
 30
0.0
 70
   192
  0
VERTEX
  5
4C54
  8
0
 10
-199.9999999999993
 20
390.0000000000001
 30
-0.5
 70
   192
  0
VERTEX
  5
4C55
  8
0
 10
-199.9999999999993
 20
390.0000000000001
 30
0.0
 70
   192
  0
VERTEX
  5
4C56
  8
0
 10
-290.0
 20
299.9999999999994
 30
-0.5
 70
   192
  0
VERTEX
  5
4C57
  8
0
 10
-289.9999999999999
 20
299.9999999999994
 30
0.0
 70
   192
  0
VERTEX
  5
4C58
  8
0
 10
0.0
 20
0.0
 30
0.0
 70
   128
 71
     1
 72
     2
 73
    -3
  0
VERTEX
  5
4C59
  8
0
 10
0.0
 20
0.0
 30
0.0
 70
   128
 71
     4
 72
    -1
 73
     3
  0
VERTEX
  5
4C5A
  8
0
 10
0.0
 20
0.0
 30
0.0
 70
   128
 71
     2
 72
     5
 73
    -6
  0
VERTEX
  5
4C5B
  8
0
 10
0.0
 20
0.0
 30
0.0
 70
   128
 71
     3
 72
    -2
 73
     6
  0
VERTEX
  5
4C5C
  8
0
 10
0.0
 20
0.0
 30
0.0
 70
   128
 71
     7
 72
     1
 73
    -4
  0
VERTEX
  5
4C5D
  8
0
 10
0.0
 20
0.0
 30
0.0
 70
   128
 71
     8
 72
    -7
 73
     4
  0
SEQEND
  5
5121
  8
0
  0
POLYLINE
  5
4C5E
  8
0
 66
     1
 10
0.0
 20
0.0
 30
0.0
 70
    64
 71
     4
 72
     2
  0
VERTEX
  5
4C5F
  8
0
 10
199.9999999999994
 20
390.0
 30
0.0
 70
   192
  0
VERTEX
  5
4C60
  8
0
 10
199.9999999999994
 20
390.0
 30
-0.5
 70
   192
  0
VERTEX
  5
4C61
  8
0
 10
-199.9999999999993
 20
390.0
 30
-0.5
 70
   192
  0
VERTEX
  5
4C62
  8
0
 10
-199.9999999999994
 20
390.0
 30
0.0
 70
   192
  0
VERTEX
  5
4C63
  8
0
 10
0.0
 20
0.0
 30
0.0
 70
   128
 71
     1
 72
     4
 73
    -3
  0
VERTEX
  5
4C64
  8
0
 10
0.0
 20
0.0
 30
0.0
 70
   128
 71
    -1
 72
     3
 73
     2
  0
SEQEND
  5
5122
  8
0
  0
POLYLINE
  5
4C65
  8
0
 66
     1
 10
0.0
 20
0.0
 30
0.0
 70
    64
 71
     8
 72
     6
  0
VERTEX
  5
4C66
  8
0
 10
269.2820323027552
 20
339.9999999999998
 30
0.0
 70
   192
  0
VERTEX
  5
4C67
  8
0
 10
269.2820323027552
 20
339.9999999999998
 30
-0.5
 70
   192
  0
VERTEX
  5
4C68
  8
0
 10
239.9999999999998
 20
369.2820323027552
 30
-0.5
 70
   192
  0
VERTEX
  5
4C69
  8
0
 10
239.9999999999998
 20
369.2820323027552
 30
0.0
 70
   192
  0
VERTEX
  5
4C6A
  8
0
 10
279.9999999999999
 20
299.9999999999994
 30
0.0
 70
   192
  0
VERTEX
  5
4C6B
  8
0
 10
279.9999999999999
 20
299.9999999999993
 30
-0.5
 70
   192
  0
VERTEX
  5
4C6C
  8
0
 10
199.9999999999994
 20
380.0
 30
-0.5
 70
   192
  0
VERTEX
  5
4C6D
  8
0
 10
199.9999999999994
 20
380.0
 30
0.0
 70
   192
  0
VERTEX
  5
4C6E
  8
0
 10
0.0
 20
0.0
 30
0.0
 70
   128
 71
     1
 72
     2
 73
    -3
  0
VERTEX
  5
4C6F
  8
0
 10
0.0
 20
0.0
 30
0.0
 70
   128
 71
    -1
 72
     3
 73
     4
  0
VERTEX
  5
4C70
  8
0
 10
0.0
 20
0.0
 30
0.0
 70
   128
 71
     5
 72
     6
 73
    -2
  0
VERTEX
  5
4C71
  8
0
 10
0.0
 20
0.0
 30
0.0
 70
   128
 71
    -5
 72
     2
 73
     1
  0
VERTEX
  5
4C72
  8
0
 10
0.0
 20
0.0
 30
0.0
 70
   128
 71
     4
 72
     3
 73
    -7
  0
VERTEX
  5
4C73
  8
0
 10
0.0
 20
0.0
 30
0.0
 70
   128
 71
    -4
 72
     7
 73
     8
  0
SEQEND
  5
5123
  8
0
  0
POLYLINE
  5
4C74
  8
0
 66
     1
 10
0.0
 20
0.0
 30
0.0
 70
    64
 71
     4
 72
     2
  0
VERTEX
  5
4C75
  8
0
 10
-199.9999999999994
 20
380.0
 30
0.0
 70
   192
  0
VERTEX
  5
4C76
  8
0
 10
199.9999999999994
 20
380.0
 30
0.0
 70
   192
  0
VERTEX
  5
4C77
  8
0
 10
199.9999999999994
 20
380.0
 30
-0.5
 70
   192
  0
VERTEX
  5
4C78
  8
0
 10
-199.9999999999994
 20
380.0
 30
-0.5
 70
   192
  0
VERTEX
  5
4C79
  8
0
 10
0.0
 20
0.0
 30
0.0
 70
   128
 71
     3
 72
     4
 73
    -1
  0
VERTEX
  5
4C7A
  8
0
 10
0.0
 20
0.0
 30
0.0
 70
   128
 71
     2
 72
    -3
 73
     1
  0
SEQEND
  5
5124
  8
0
  0
POLYLINE
  5
4C7B
  8
0
 66
     1
 10
0.0
 20
0.0
 30
0.0
 70
    64
 71
     8
 72
     6
  0
VERTEX
  5
4C7C
  8
0
 10
-239.9999999999997
 20
369.2820323027553
 30
0.0
 70
   192
  0
VERTEX
  5
4C7D
  8
0
 10
-239.9999999999997
 20
369.2820323027553
 30
-0.5
 70
   192
  0
VERTEX
  5
4C7E
  8
0
 10
-269.2820323027551
 20
339.9999999999999
 30
-0.5
 70
   192
  0
VERTEX
  5
4C7F
  8
0
 10
-269.2820323027551
 20
339.9999999999999
 30
0.0
 70
   192
  0
VERTEX
  5
4C80
  8
0
 10
-199.9999999999993
 20
380.0
 30
0.0
 70
   192
  0
VERTEX
  5
4C81
  8
0
 10
-199.9999999999993
 20
380.0
 30
-0.5
 70
   192
  0
VERTEX
  5
4C82
  8
0
 10
-279.9999999999999
 20
299.9999999999996
 30
-0.5
 70
   192
  0
VERTEX
  5
4C83
  8
0
 10
-279.9999999999999
 20
299.9999999999995
 30
0.0
 70
   192
  0
VERTEX
  5
4C84
  8
0
 10
0.0
 20
0.0
 30
0.0
 70
   128
 71
     1
 72
     2
 73
    -3
  0
VERTEX
  5
4C85
  8
0
 10
0.0
 20
0.0
 30
0.0
 70
   128
 71
    -1
 72
     3
 73
     4
  0
VERTEX
  5
4C86
  8
0
 10
0.0
 20
0.0
 30
0.0
 70
   128
 71
     5
 72
     6
 73
    -2
  0
VERTEX
  5
4C87
  8
0
 10
0.0
 20
0.0
 30
0.0
 70
   128
 71
    -5
 72
     2
 73
     1
  0
VERTEX
  5
4C88
  8
0
 10
0.0
 20
0.0
 30
0.0
 70
   128
 71
     4
 72
     3
 73
    -7
  0
VERTEX
  5
4C89
  8
0
 10
0.0
 20
0.0
 30
0.0
 70
   128
 71
    -4
 72
     7
 73
     8
  0
SEQEND
  5
5125
  8
0
  0
POLYLINE
  5
4C8A
  8
0
 66
     1
 10
0.0
 20
0.0
 30
0.0
 70
    64
 71
     4
 72
     2
  0
VERTEX
  5
4C8B
  8
0
 10
-279.9999999999999
 20
-299.9999999999994
 30
0.0
 70
   192
  0
VERTEX
  5
4C8C
  8
0
 10
-279.9999999999999
 20
-299.9999999999994
 30
-0.5
 70
   192
  0
VERTEX
  5
4C8D
  8
0
 10
-279.9999999999999
 20
299.9999999999995
 30
-0.5
 70
   192
  0
VERTEX
  5
4C8E
  8
0
 10
-279.9999999999999
 20
299.9999999999995
 30
0.0
 70
   192
  0
VERTEX
  5
4C8F
  8
0
 10
0.0
 20
0.0
 30
0.0
 70
   128
 71
     1
 72
     4
 73
    -3
  0
VERTEX
  5
4C90
  8
0
 10
0.0
 20
0.0
 30
0.0
 70
   128
 71
    -1
 72
     3
 73
     2
  0
SEQEND
  5
5126
  8
0
  0
POLYLINE
  5
4C91
  8
0
 66
     1
 10
0.0
 20
0.0
 30
0.0
 70
    64
 71
     8
 72
     6
  0
VERTEX
  5
4C92
  8
0
 10
-269.2820323027552
 20
-339.9999999999998
 30
0.0
 70
   192
  0
VERTEX
  5
4C93
  8
0
 10
-269.2820323027552
 20
-339.9999999999998
 30
-0.5
 70
   192
  0
VERTEX
  5
4C94
  8
0
 10
-239.9999999999999
 20
-369.2820323027553
 30
-0.5
 70
   192
  0
VERTEX
  5
4C95
  8
0
 10
-239.9999999999999
 20
-369.2820323027553
 30
0.0
 70
   192
  0
VERTEX
  5
4C96
  8
0
 10
-280.0
 20
-299.9999999999994
 30
0.0
 70
   192
  0
VERTEX
  5
4C97
  8
0
 10
-279.9999999999999
 20
-299.9999999999994
 30
-0.5
 70
   192
  0
VERTEX
  5
4C98
  8
0
 10
-199.9999999999995
 20
-380.0000000000001
 30
-0.5
 70
   192
  0
VERTEX
  5
4C99
  8
0
 10
-199.9999999999995
 20
-380.0000000000001
 30
0.0
 70
   192
  0
VERTEX
  5
4C9A
  8
0
 10
0.0
 20
0.0
 30
0.0
 70
   128
 71
     1
 72
     2
 73
    -3
  0
VERTEX
  5
4C9B
  8
0
 10
0.0
 20
0.0
 30
0.0
 70
   128
 71
    -1
 72
     3
 73
     4
  0
VERTEX
  5
4C9C
  8
0
 10
0.0
 20
0.0
 30
0.0
 70
   128
 71
     5
 72
     6
 73
    -2
  0
VERTEX
  5
4C9D
  8
0
 10
0.0
 20
0.0
 30
0.0
 70
   128
 71
    -5
 72
     2
 73
     1
  0
VERTEX
  5
4C9E
  8
0
 10
0.0
 20
0.0
 30
0.0
 70
   128
 71
     4
 72
     3
 73
    -7
  0
VERTEX
  5
4C9F
  8
0
 10
0.0
 20
0.0
 30
0.0
 70
   128
 71
    -4
 72
     7
 73
     8
  0
SEQEND
  5
5127
  8
0
  0
POLYLINE
  5
4CA0
  8
0
 66
     1
 10
0.0
 20
0.0
 30
0.0
 70
    64
 71
     4
 72
     2
  0
VERTEX
  5
4CA1
  8
0
 10
199.9999999999993
 20
-380.0
 30
0.0
 70
   192
  0
VERTEX
  5
4CA2
  8
0
 10
199.9999999999993
 20
-380.0
 30
-0.5
 70
   192
  0
VERTEX
  5
4CA3
  8
0
 10
-199.9999999999995
 20
-380.0000000000001
 30
-0.5
 70
   192
  0
VERTEX
  5
4CA4
  8
0
 10
-199.9999999999995
 20
-380.0000000000001
 30
0.0
 70
   192
  0
VERTEX
  5
4CA5
  8
0
 10
0.0
 20
0.0
 30
0.0
 70
   128
 71
     1
 72
     4
 73
    -3
  0
VERTEX
  5
4CA6
  8
0
 10
0.0
 20
0.0
 30
0.0
 70
   128
 71
    -1
 72
     3
 73
     2
  0
SEQEND
  5
5128
  8
0
  0
POLYLINE
  5
4CA7
  8
0
 66
     1
 10
0.0
 20
0.0
 30
0.0
 70
    64
 71
     8
 72
     6
  0
VERTEX
  5
4CA8
  8
0
 10
239.9999999999998
 20
-369.2820323027553
 30
0.0
 70
   192
  0
VERTEX
  5
4CA9
  8
0
 10
239.9999999999998
 20
-369.2820323027553
 30
-0.5
 70
   192
  0
VERTEX
  5
4CAA
  8
0
 10
269.2820323027552
 20
-339.9999999999999
 30
-0.5
 70
   192
  0
VERTEX
  5
4CAB
  8
0
 10
269.2820323027552
 20
-339.9999999999999
 30
0.0
 70
   192
  0
VERTEX
  5
4CAC
  8
0
 10
199.9999999999993
 20
-380.0000000000001
 30
0.0
 70
   192
  0
VERTEX
  5
4CAD
  8
0
 10
199.9999999999993
 20
-380.0
 30
-0.5
 70
   192
  0
VERTEX
  5
4CAE
  8
0
 10
280.0
 20
-299.9999999999995
 30
-0.5
 70
   192
  0
VERTEX
  5
4CAF
  8
0
 10
280.0
 20
-299.9999999999995
 30
0.0
 70
   192
  0
VERTEX
  5
4CB0
  8
0
 10
0.0
 20
0.0
 30
0.0
 70
   128
 71
     1
 72
     2
 73
    -3
  0
VERTEX
  5
4CB1
  8
0
 10
0.0
 20
0.0
 30
0.0
 70
   128
 71
    -1
 72
     3
 73
     4
  0
VERTEX
  5
4CB2
  8
0
 10
0.0
 20
0.0
 30
0.0
 70
   128
 71
     5
 72
     6
 73
    -2
  0
VERTEX
  5
4CB3
  8
0
 10
0.0
 20
0.0
 30
0.0
 70
   128
 71
    -5
 72
     2
 73
     1
  0
VERTEX
  5
4CB4
  8
0
 10
0.0
 20
0.0
 30
0.0
 70
   128
 71
     4
 72
     3
 73
    -7
  0
VERTEX
  5
4CB5
  8
0
 10
0.0
 20
0.0
 30
0.0
 70
   128
 71
    -4
 72
     7
 73
     8
  0
SEQEND
  5
5129
  8
0
  0
POLYLINE
  5
4CB6
  8
0
 66
     1
 10
0.0
 20
0.0
 30
0.0
 70
    64
 71
     4
 72
     2
  0
VERTEX
  5
4CB7
  8
0
 10
279.9999999999999
 20
299.9999999999993
 30
0.0
 70
   192
  0
VERTEX
  5
4CB8
  8
0
 10
279.9999999999999
 20
-299.9999999999995
 30
0.0
 70
   192
  0
VERTEX
  5
4CB9
  8
0
 10
280.0
 20
-299.9999999999995
 30
-0.5
 70
   192
  0
VERTEX
  5
4CBA
  8
0
 10
279.9999999999999
 20
299.9999999999993
 30
-0.5
 70
   192
  0
VERTEX
  5
4CBB
  8
0
 10
0.0
 20
0.0
 30
0.0
 70
   128
 71
     3
 72
     4
 73
    -1
  0
VERTEX
  5
4CBC
  8
0
 10
0.0
 20
0.0
 30
0.0
 70
   128
 71
     2
 72
    -3
 73
     1
  0
SEQEND
  5
512A
  8
0
  0
POLYLINE
  5
4CBD
  8
0
 66
     1
 10
0.0
 20
0.0
 30
0.0
 70
    64
 71
     8
 72
     6
  0
VERTEX
  5
4CBE
  8
0
 10
244.9999999999998
 20
377.9422863405996
 30
-0.5
 70
   192
  0
VERTEX
  5
4CBF
  8
0
 10
277.9422863405996
 20
344.9999999999998
 30
-0.5
 70
   192
  0
VERTEX
  5
4CC0
  8
0
 10
277.9422863405994
 20
345.0000000000002
 30
0.0
 70
   192
  0
VERTEX
  5
4CC1
  8
0
 10
244.9999999999996
 20
377.9422863405997
 30
0.0
 70
   192
  0
VERTEX
  5
4CC2
  8
0
 10
290.0
 20
299.9999999999993
 30
-0.5
 70
   192
  0
VERTEX
  5
4CC3
  8
0
 10
290.0
 20
300.0000000000001
 30
0.0
 70
   192
  0
VERTEX
  5
4CC4
  8
0
 10
199.9999999999994
 20
390.0
 30
-0.5
 70
   192
  0
VERTEX
  5
4CC5
  8
0
 10
199.9999999999994
 20
390.0
 30
0.0
 70
   192
  0
VERTEX
  5
4CC6
  8
0
 10
0.0
 20
0.0
 30
0.0
 70
   128
 71
     1
 72
     2
 73
    -3
  0
VERTEX
  5
4CC7
  8
0
 10
0.0
 20
0.0
 30
0.0
 70
   128
 71
     4
 72
    -1
 73
     3
  0
VERTEX
  5
4CC8
  8
0
 10
0.0
 20
0.0
 30
0.0
 70
   128
 71
     2
 72
     5
 73
    -6
  0
VERTEX
  5
4CC9
  8
0
 10
0.0
 20
0.0
 30
0.0
 70
   128
 71
     3
 72
    -2
 73
     6
  0
VERTEX
  5
4CCA
  8
0
 10
0.0
 20
0.0
 30
0.0
 70
   128
 71
     7
 72
     1
 73
    -4
  0
VERTEX
  5
4CCB
  8
0
 10
0.0
 20
0.0
 30
0.0
 70
   128
 71
     8
 72
    -7
 73
     4
  0
SEQEND
  5
512B
  8
0
  0
POLYLINE
  5
4CCC
  8
0
 66
     1
 10
0.0
 20
0.0
 30
0.0
 70
    64
 71
    32
 72
    32
  0
VERTEX
  5
4CCD
  8
0
 10
290.0
 20
-299.9999999999994
 30
-0.5
 70
   192
  0
VERTEX
  5
4CCE
  8
0
 10
290.0
 20
299.9999999999993
 30
-0.5
 70
   192
  0
VERTEX
  5
4CCF
  8
0
 10
277.9422863405996
 20
344.9999999999998
 30
-0.5
 70
   192
  0
VERTEX
  5
4CD0
  8
0
 10
244.9999999999998
 20
377.9422863405996
 30
-0.5
 70
   192
  0
VERTEX
  5
4CD1
  8
0
 10
199.9999999999994
 20
390.0
 30
-0.5
 70
   192
  0
VERTEX
  5
4CD2
  8
0
 10
-199.9999999999994
 20
390.0
 30
-0.5
 70
   192
  0
VERTEX
  5
4CD3
  8
0
 10
-244.9999999999998
 20
377.9422863405996
 30
-0.5
 70
   192
  0
VERTEX
  5
4CD4
  8
0
 10
-277.9422863405995
 20
344.9999999999999
 30
-0.5
 70
   192
  0
VERTEX
  5
4CD5
  8
0
 10
-289.9999999999999
 20
299.9999999999994
 30
-0.5
 70
   192
  0
VERTEX
  5
4CD6
  8
0
 10
-290.0
 20
-299.9999999999994
 30
-0.5
 70
   192
  0
VERTEX
  5
4CD7
  8
0
 10
-277.9422863405996
 20
-344.9999999999998
 30
-0.5
 70
   192
  0
VERTEX
  5
4CD8
  8
0
 10
-244.9999999999998
 20
-377.9422863405996
 30
-0.5
 70
   192
  0
VERTEX
  5
4CD9
  8
0
 10
-199.9999999999994
 20
-390.0000000000001
 30
-0.5
 70
   192
  0
VERTEX
  5
4CDA
  8
0
 10
199.9999999999993
 20
-390.0
 30
-0.5
 70
   192
  0
VERTEX
  5
4CDB
  8
0
 10
244.9999999999998
 20
-377.9422863405997
 30
-0.5
 70
   192
  0
VERTEX
  5
4CDC
  8
0
 10
277.9422863405995
 20
-344.9999999999999
 30
-0.5
 70
   192
  0
VERTEX
  5
4CDD
  8
0
 10
199.9999999999994
 20
380.0
 30
-0.5
 70
   192
  0
VERTEX
  5
4CDE
  8
0
 10
239.9999999999998
 20
369.2820323027552
 30
-0.5
 70
   192
  0
VERTEX
  5
4CDF
  8
0
 10
269.2820323027552
 20
339.9999999999998
 30
-0.5
 70
   192
  0
VERTEX
  5
4CE0
  8
0
 10
279.9999999999999
 20
299.9999999999994
 30
-0.5
 70
   192
  0
VERTEX
  5
4CE1
  8
0
 10
279.9999999999999
 20
-299.9999999999995
 30
-0.5
 70
   192
  0
VERTEX
  5
4CE2
  8
0
 10
269.2820323027552
 20
-339.9999999999999
 30
-0.5
 70
   192
  0
VERTEX
  5
4CE3
  8
0
 10
239.9999999999998
 20
-369.2820323027553
 30
-0.5
 70
   192
  0
VERTEX
  5
4CE4
  8
0
 10
199.9999999999993
 20
-380.0000000000001
 30
-0.5
 70
   192
  0
VERTEX
  5
4CE5
  8
0
 10
-199.9999999999995
 20
-380.0000000000001
 30
-0.5
 70
   192
  0
VERTEX
  5
4CE6
  8
0
 10
-239.9999999999999
 20
-369.2820323027553
 30
-0.5
 70
   192
  0
VERTEX
  5
4CE7
  8
0
 10
-269.2820323027552
 20
-339.9999999999998
 30
-0.5
 70
   192
  0
VERTEX
  5
4CE8
  8
0
 10
-280.0
 20
-299.9999999999994
 30
-0.5
 70
   192
  0
VERTEX
  5
4CE9
  8
0
 10
-279.9999999999999
 20
299.9999999999995
 30
-0.5
 70
   192
  0
VERTEX
  5
4CEA
  8
0
 10
-269.2820323027551
 20
339.9999999999999
 30
-0.5
 70
   192
  0
VERTEX
  5
4CEB
  8
0
 10
-239.9999999999997
 20
369.2820323027553
 30
-0.5
 70
   192
  0
VERTEX
  5
4CEC
  8
0
 10
-199.9999999999993
 20
380.0
 30
-0.5
 70
   192
  0
VERTEX
  5
4CED
  8
0
 10
0.0
 20
0.0
 30
0.0
 70
   128
 71
    -5
 72
    17
 73
   -18
  0
VERTEX
  5
4CEE
  8
0
 10
0.0
 20
0.0
 30
0.0
 70
   128
 71
     4
 72
    -5
 73
   -18
  0
VERTEX
  5
4CEF
  8
0
 10
0.0
 20
0.0
 30
0.0
 70
   128
 71
   -19
 72
     3
 73
    -4
  0
VERTEX
  5
4CF0
  8
0
 10
0.0
 20
0.0
 30
0.0
 70
   128
 71
    18
 72
   -19
 73
    -4
  0
VERTEX
  5
4CF1
  8
0
 10
0.0
 20
0.0
 30
0.0
 70
   128
 71
   -20
 72
     2
 73
    -3
  0
VERTEX
  5
4CF2
  8
0
 10
0.0
 20
0.0
 30
0.0
 70
   128
 71
    19
 72
   -20
 73
    -3
  0
VERTEX
  5
4CF3
  8
0
 10
0.0
 20
0.0
 30
0.0
 70
   128
 71
   -21
 72
     1
 73
    -2
  0
VERTEX
  5
4CF4
  8
0
 10
0.0
 20
0.0
 30
0.0
 70
   128
 71
    20
 72
   -21
 73
    -2
  0
VERTEX
  5
4CF5
  8
0
 10
0.0
 20
0.0
 30
0.0
 70
   128
 71
   -22
 72
    16
 73
    -1
  0
VERTEX
  5
4CF6
  8
0
 10
0.0
 20
0.0
 30
0.0
 70
   128
 71
    21
 72
   -22
 73
    -1
  0
VERTEX
  5
4CF7
  8
0
 10
0.0
 20
0.0
 30
0.0
 70
   128
 71
   -23
 72
    15
 73
   -16
  0
VERTEX
  5
4CF8
  8
0
 10
0.0
 20
0.0
 30
0.0
 70
   128
 71
    22
 72
   -23
 73
   -16
  0
VERTEX
  5
4CF9
  8
0
 10
0.0
 20
0.0
 30
0.0
 70
   128
 71
   -24
 72
    14
 73
   -15
  0
VERTEX
  5
4CFA
  8
0
 10
0.0
 20
0.0
 30
0.0
 70
   128
 71
    23
 72
   -24
 73
   -15
  0
VERTEX
  5
4CFB
  8
0
 10
0.0
 20
0.0
 30
0.0
 70
   128
 71
   -25
 72
    13
 73
   -14
  0
VERTEX
  5
4CFC
  8
0
 10
0.0
 20
0.0
 30
0.0
 70
   128
 71
    24
 72
   -25
 73
   -14
  0
VERTEX
  5
4CFD
  8
0
 10
0.0
 20
0.0
 30
0.0
 70
   128
 71
   -26
 72
    12
 73
   -13
  0
VERTEX
  5
4CFE
  8
0
 10
0.0
 20
0.0
 30
0.0
 70
   128
 71
    25
 72
   -26
 73
   -13
  0
VERTEX
  5
4CFF
  8
0
 10
0.0
 20
0.0
 30
0.0
 70
   128
 71
   -27
 72
    11
 73
   -12
  0
VERTEX
  5
4D00
  8
0
 10
0.0
 20
0.0
 30
0.0
 70
   128
 71
    26
 72
   -27
 73
   -12
  0
VERTEX
  5
4D01
  8
0
 10
0.0
 20
0.0
 30
0.0
 70
   128
 71
   -28
 72
    10
 73
   -11
  0
VERTEX
  5
4D02
  8
0
 10
0.0
 20
0.0
 30
0.0
 70
   128
 71
    27
 72
   -28
 73
   -11
  0
VERTEX
  5
4D03
  8
0
 10
0.0
 20
0.0
 30
0.0
 70
   128
 71
   -29
 72
     9
 73
   -10
  0
VERTEX
  5
4D04
  8
0
 10
0.0
 20
0.0
 30
0.0
 70
   128
 71
    28
 72
   -29
 73
   -10
  0
VERTEX
  5
4D05
  8
0
 10
0.0
 20
0.0
 30
0.0
 70
   128
 71
   -30
 72
     8
 73
    -9
  0
VERTEX
  5
4D06
  8
0
 10
0.0
 20
0.0
 30
0.0
 70
   128
 71
    29
 72
   -30
 73
    -9
  0
VERTEX
  5
4D07
  8
0
 10
0.0
 20
0.0
 30
0.0
 70
   128
 71
   -31
 72
     7
 73
    -8
  0
VERTEX
  5
4D08
  8
0
 10
0.0
 20
0.0
 30
0.0
 70
   128
 71
    30
 72
   -31
 73
    -8
  0
VERTEX
  5
4D09
  8
0
 10
0.0
 20
0.0
 30
0.0
 70
   128
 71
   -32
 72
     6
 73
    -7
  0
VERTEX
  5
4D0A
  8
0
 10
0.0
 20
0.0
 30
0.0
 70
   128
 71
    31
 72
   -32
 73
    -7
  0
VERTEX
  5
4D0B
  8
0
 10
0.0
 20
0.0
 30
0.0
 70
   128
 71
   -17
 72
     5
 73
    -6
  0
VERTEX
  5
4D0C
  8
0
 10
0.0
 20
0.0
 30
0.0
 70
   128
 71
    32
 72
   -17
 73
    -6
  0
SEQEND
  5
512C
  8
0
  0
POLYLINE
  5
4D0D
  8
0
 66
     1
 10
0.0
 20
0.0
 30
0.0
 70
    64
 71
    32
 72
    32
  0
VERTEX
  5
4D0E
  8
0
 10
279.9999999999999
 20
-299.9999999999995
 30
0.0
 70
   192
  0
VERTEX
  5
4D0F
  8
0
 10
279.9999999999999
 20
299.9999999999993
 30
0.0
 70
   192
  0
VERTEX
  5
4D10
  8
0
 10
269.2820323027552
 20
339.9999999999998
 30
0.0
 70
   192
  0
VERTEX
  5
4D11
  8
0
 10
239.9999999999998
 20
369.2820323027552
 30
0.0
 70
   192
  0
VERTEX
  5
4D12
  8
0
 10
199.9999999999994
 20
380.0
 30
0.0
 70
   192
  0
VERTEX
  5
4D13
  8
0
 10
-199.9999999999994
 20
380.0
 30
0.0
 70
   192
  0
VERTEX
  5
4D14
  8
0
 10
-239.9999999999997
 20
369.2820323027553
 30
0.0
 70
   192
  0
VERTEX
  5
4D15
  8
0
 10
-269.2820323027551
 20
339.9999999999999
 30
0.0
 70
   192
  0
VERTEX
  5
4D16
  8
0
 10
-279.9999999999999
 20
299.9999999999996
 30
0.0
 70
   192
  0
VERTEX
  5
4D17
  8
0
 10
-279.9999999999999
 20
-299.9999999999994
 30
0.0
 70
   192
  0
VERTEX
  5
4D18
  8
0
 10
-269.2820323027552
 20
-339.9999999999998
 30
0.0
 70
   192
  0
VERTEX
  5
4D19
  8
0
 10
-239.9999999999999
 20
-369.2820323027553
 30
0.0
 70
   192
  0
VERTEX
  5
4D1A
  8
0
 10
-199.9999999999995
 20
-380.0000000000001
 30
0.0
 70
   192
  0
VERTEX
  5
4D1B
  8
0
 10
199.9999999999993
 20
-380.0
 30
0.0
 70
   192
  0
VERTEX
  5
4D1C
  8
0
 10
239.9999999999998
 20
-369.2820323027553
 30
0.0
 70
   192
  0
VERTEX
  5
4D1D
  8
0
 10
269.2820323027552
 20
-339.9999999999999
 30
0.0
 70
   192
  0
VERTEX
  5
4D1E
  8
0
 10
264.9999999999999
 20
299.9999999999999
 30
0.0
 70
   192
  0
VERTEX
  5
4D1F
  8
0
 10
264.9999999999999
 20
-300.0000000000001
 30
0.0
 70
   192
  0
VERTEX
  5
4D20
  8
0
 10
256.2916512459884
 20
-332.5000000000001
 30
0.0
 70
   192
  0
VERTEX
  5
4D21
  8
0
 10
232.5
 20
-356.2916512459885
 30
0.0
 70
   192
  0
VERTEX
  5
4D22
  8
0
 10
200.0
 20
-365.0
 30
0.0
 70
   192
  0
VERTEX
  5
4D23
  8
0
 10
-200.0
 20
-365.0000000000001
 30
0.0
 70
   192
  0
VERTEX
  5
4D24
  8
0
 10
-232.4999999999999
 20
-356.2916512459886
 30
0.0
 70
   192
  0
VERTEX
  5
4D25
  8
0
 10
-256.2916512459884
 20
-332.5000000000001
 30
0.0
 70
   192
  0
VERTEX
  5
4D26
  8
0
 10
-264.9999999999999
 20
-300.0000000000001
 30
0.0
 70
   192
  0
VERTEX
  5
4D27
  8
0
 10
-265.0
 20
299.9999999999999
 30
0.0
 70
   192
  0
VERTEX
  5
4D28
  8
0
 10
-256.2916512459885
 20
332.4999999999999
 30
0.0
 70
   192
  0
VERTEX
  5
4D29
  8
0
 10
-232.5
 20
356.2916512459884
 30
0.0
 70
   192
  0
VERTEX
  5
4D2A
  8
0
 10
-200.0
 20
364.9999999999999
 30
0.0
 70
   192
  0
VERTEX
  5
4D2B
  8
0
 10
200.0
 20
364.9999999999999
 30
0.0
 70
   192
  0
VERTEX
  5
4D2C
  8
0
 10
232.5
 20
356.2916512459884
 30
0.0
 70
   192
  0
VERTEX
  5
4D2D
  8
0
 10
256.2916512459885
 20
332.4999999999999
 30
0.0
 70
   192
  0
VERTEX
  5
4D2E
  8
0
 10
0.0
 20
0.0
 30
0.0
 70
   128
 71
    -3
 72
    17
 73
   -18
  0
VERTEX
  5
4D2F
  8
0
 10
0.0
 20
0.0
 30
0.0
 70
   128
 71
     2
 72
    -3
 73
   -18
  0
VERTEX
  5
4D30
  8
0
 10
0.0
 20
0.0
 30
0.0
 70
   128
 71
     1
 72
    -2
 73
   -18
  0
VERTEX
  5
4D31
  8
0
 10
0.0
 20
0.0
 30
0.0
 70
   128
 71
    16
 72
    -1
 73
   -18
  0
VERTEX
  5
4D32
  8
0
 10
0.0
 20
0.0
 30
0.0
 70
   128
 71
    18
 72
   -19
 73
   -16
  0
VERTEX
  5
4D33
  8
0
 10
0.0
 20
0.0
 30
0.0
 70
   128
 71
   -20
 72
    15
 73
   -16
  0
VERTEX
  5
4D34
  8
0
 10
0.0
 20
0.0
 30
0.0
 70
   128
 71
    19
 72
   -20
 73
   -16
  0
VERTEX
  5
4D35
  8
0
 10
0.0
 20
0.0
 30
0.0
 70
   128
 71
    20
 72
   -21
 73
   -15
  0
VERTEX
  5
4D36
  8
0
 10
0.0
 20
0.0
 30
0.0
 70
   128
 71
    13
 72
    14
 73
   -15
  0
VERTEX
  5
4D37
  8
0
 10
0.0
 20
0.0
 30
0.0
 70
   128
 71
    12
 72
   -13
 73
   -15
  0
VERTEX
  5
4D38
  8
0
 10
0.0
 20
0.0
 30
0.0
 70
   128
 71
   -22
 72
   -12
 73
   -15
  0
VERTEX
  5
4D39
  8
0
 10
0.0
 20
0.0
 30
0.0
 70
   128
 71
    21
 72
   -22
 73
   -15
  0
VERTEX
  5
4D3A
  8
0
 10
0.0
 20
0.0
 30
0.0
 70
   128
 71
    22
 72
   -23
 73
   -12
  0
VERTEX
  5
4D3B
  8
0
 10
0.0
 20
0.0
 30
0.0
 70
   128
 71
   -24
 72
    11
 73
   -12
  0
VERTEX
  5
4D3C
  8
0
 10
0.0
 20
0.0
 30
0.0
 70
   128
 71
    23
 72
   -24
 73
   -12
  0
VERTEX
  5
4D3D
  8
0
 10
0.0
 20
0.0
 30
0.0
 70
   128
 71
    24
 72
   -25
 73
   -11
  0
VERTEX
  5
4D3E
  8
0
 10
0.0
 20
0.0
 30
0.0
 70
   128
 71
     9
 72
    10
 73
   -11
  0
VERTEX
  5
4D3F
  8
0
 10
0.0
 20
0.0
 30
0.0
 70
   128
 71
     8
 72
    -9
 73
   -11
  0
VERTEX
  5
4D40
  8
0
 10
0.0
 20
0.0
 30
0.0
 70
   128
 71
   -26
 72
    -8
 73
   -11
  0
VERTEX
  5
4D41
  8
0
 10
0.0
 20
0.0
 30
0.0
 70
   128
 71
    25
 72
   -26
 73
   -11
  0
VERTEX
  5
4D42
  8
0
 10
0.0
 20
0.0
 30
0.0
 70
   128
 71
    26
 72
   -27
 73
    -8
  0
VERTEX
  5
4D43
  8
0
 10
0.0
 20
0.0
 30
0.0
 70
   128
 71
   -28
 72
     7
 73
    -8
  0
VERTEX
  5
4D44
  8
0
 10
0.0
 20
0.0
 30
0.0
 70
   128
 71
    27
 72
   -28
 73
    -8
  0
VERTEX
  5
4D45
  8
0
 10
0.0
 20
0.0
 30
0.0
 70
   128
 71
    28
 72
   -29
 73
    -7
  0
VERTEX
  5
4D46
  8
0
 10
0.0
 20
0.0
 30
0.0
 70
   128
 71
     5
 72
     6
 73
    -7
  0
VERTEX
  5
4D47
  8
0
 10
0.0
 20
0.0
 30
0.0
 70
   128
 71
     4
 72
    -5
 73
    -7
  0
VERTEX
  5
4D48
  8
0
 10
0.0
 20
0.0
 30
0.0
 70
   128
 71
   -30
 72
    -4
 73
    -7
  0
VERTEX
  5
4D49
  8
0
 10
0.0
 20
0.0
 30
0.0
 70
   128
 71
    29
 72
   -30
 73
    -7
  0
VERTEX
  5
4D4A
  8
0
 10
0.0
 20
0.0
 30
0.0
 70
   128
 71
    30
 72
   -31
 73
    -4
  0
VERTEX
  5
4D4B
  8
0
 10
0.0
 20
0.0
 30
0.0
 70
   128
 71
   -32
 72
     3
 73
    -4
  0
VERTEX
  5
4D4C
  8
0
 10
0.0
 20
0.0
 30
0.0
 70
   128
 71
    31
 72
   -32
 73
    -4
  0
VERTEX
  5
4D4D
  8
0
 10
0.0
 20
0.0
 30
0.0
 70
   128
 71
    32
 72
   -17
 73
    -3
  0
SEQEND
  5
512D
  8
0
  0
POLYLINE
  5
4D4E
  8
0
 66
     1
 10
0.0
 20
0.0
 30
0.0
 70
    64
 71
     4
 72
     2
  0
VERTEX
  5
4D4F
  8
0
 10
265.0
 20
-300.0000000000001
 30
0.0
 70
   192
  0
VERTEX
  5
4D50
  8
0
 10
264.9999999999999
 20
-300.0000000000001
 30
-0.5
 70
   192
  0
VERTEX
  5
4D51
  8
0
 10
264.9999999999999
 20
299.9999999999999
 30
-0.5
 70
   192
  0
VERTEX
  5
4D52
  8
0
 10
264.9999999999999
 20
299.9999999999999
 30
0.0
 70
   192
  0
VERTEX
  5
4D53
  8
0
 10
0.0
 20
0.0
 30
0.0
 70
   128
 71
     1
 72
     4
 73
    -3
  0
VERTEX
  5
4D54
  8
0
 10
0.0
 20
0.0
 30
0.0
 70
   128
 71
    -1
 72
     3
 73
     2
  0
SEQEND
  5
512E
  8
0
  0
POLYLINE
  5
4D55
  8
0
 66
     1
 10
0.0
 20
0.0
 30
0.0
 70
    64
 71
     8
 72
     6
  0
VERTEX
  5
4D56
  8
0
 10
256.2916512459884
 20
-332.5000000000001
 30
-0.5
 70
   192
  0
VERTEX
  5
4D57
  8
0
 10
232.5
 20
-356.2916512459885
 30
-0.5
 70
   192
  0
VERTEX
  5
4D58
  8
0
 10
232.5
 20
-356.2916512459885
 30
0.0
 70
   192
  0
VERTEX
  5
4D59
  8
0
 10
256.2916512459884
 20
-332.5000000000001
 30
0.0
 70
   192
  0
VERTEX
  5
4D5A
  8
0
 10
200.0
 20
-365.0
 30
-0.5
 70
   192
  0
VERTEX
  5
4D5B
  8
0
 10
200.0
 20
-365.0
 30
0.0
 70
   192
  0
VERTEX
  5
4D5C
  8
0
 10
265.0
 20
-300.0000000000001
 30
-0.5
 70
   192
  0
VERTEX
  5
4D5D
  8
0
 10
264.9999999999999
 20
-300.0000000000001
 30
0.0
 70
   192
  0
VERTEX
  5
4D5E
  8
0
 10
0.0
 20
0.0
 30
0.0
 70
   128
 71
     1
 72
     2
 73
    -3
  0
VERTEX
  5
4D5F
  8
0
 10
0.0
 20
0.0
 30
0.0
 70
   128
 71
     4
 72
    -1
 73
     3
  0
VERTEX
  5
4D60
  8
0
 10
0.0
 20
0.0
 30
0.0
 70
   128
 71
     2
 72
     5
 73
    -6
  0
VERTEX
  5
4D61
  8
0
 10
0.0
 20
0.0
 30
0.0
 70
   128
 71
     3
 72
    -2
 73
     6
  0
VERTEX
  5
4D62
  8
0
 10
0.0
 20
0.0
 30
0.0
 70
   128
 71
     7
 72
     1
 73
    -4
  0
VERTEX
  5
4D63
  8
0
 10
0.0
 20
0.0
 30
0.0
 70
   128
 71
     8
 72
    -7
 73
     4
  0
SEQEND
  5
512F
  8
0
  0
POLYLINE
  5
4D64
  8
0
 66
     1
 10
0.0
 20
0.0
 30
0.0
 70
    64
 71
     4
 72
     2
  0
VERTEX
  5
4D65
  8
0
 10
-200.0
 20
-365.0000000000001
 30
0.0
 70
   192
  0
VERTEX
  5
4D66
  8
0
 10
200.0
 20
-365.0
 30
0.0
 70
   192
  0
VERTEX
  5
4D67
  8
0
 10
200.0
 20
-365.0
 30
-0.5
 70
   192
  0
VERTEX
  5
4D68
  8
0
 10
-200.0
 20
-365.0000000000001
 30
-0.5
 70
   192
  0
VERTEX
  5
4D69
  8
0
 10
0.0
 20
0.0
 30
0.0
 70
   128
 71
     3
 72
     4
 73
    -1
  0
VERTEX
  5
4D6A
  8
0
 10
0.0
 20
0.0
 30
0.0
 70
   128
 71
     2
 72
    -3
 73
     1
  0
SEQEND
  5
5130
  8
0
  0
POLYLINE
  5
4D6B
  8
0
 66
     1
 10
0.0
 20
0.0
 30
0.0
 70
    64
 71
     8
 72
     6
  0
VERTEX
  5
4D6C
  8
0
 10
-232.4999999999999
 20
-356.2916512459886
 30
-0.5
 70
   192
  0
VERTEX
  5
4D6D
  8
0
 10
-256.2916512459884
 20
-332.5000000000001
 30
-0.5
 70
   192
  0
VERTEX
  5
4D6E
  8
0
 10
-256.2916512459884
 20
-332.5000000000001
 30
0.0
 70
   192
  0
VERTEX
  5
4D6F
  8
0
 10
-232.4999999999999
 20
-356.2916512459886
 30
0.0
 70
   192
  0
VERTEX
  5
4D70
  8
0
 10
-264.9999999999999
 20
-300.0000000000001
 30
-0.5
 70
   192
  0
VERTEX
  5
4D71
  8
0
 10
-264.9999999999999
 20
-300.0000000000001
 30
0.0
 70
   192
  0
VERTEX
  5
4D72
  8
0
 10
-200.0
 20
-365.0000000000001
 30
-0.5
 70
   192
  0
VERTEX
  5
4D73
  8
0
 10
-200.0
 20
-365.0000000000001
 30
0.0
 70
   192
  0
VERTEX
  5
4D74
  8
0
 10
0.0
 20
0.0
 30
0.0
 70
   128
 71
     1
 72
     2
 73
    -3
  0
VERTEX
  5
4D75
  8
0
 10
0.0
 20
0.0
 30
0.0
 70
   128
 71
     4
 72
    -1
 73
     3
  0
VERTEX
  5
4D76
  8
0
 10
0.0
 20
0.0
 30
0.0
 70
   128
 71
     2
 72
     5
 73
    -6
  0
VERTEX
  5
4D77
  8
0
 10
0.0
 20
0.0
 30
0.0
 70
   128
 71
     3
 72
    -2
 73
     6
  0
VERTEX
  5
4D78
  8
0
 10
0.0
 20
0.0
 30
0.0
 70
   128
 71
     7
 72
     1
 73
    -4
  0
VERTEX
  5
4D79
  8
0
 10
0.0
 20
0.0
 30
0.0
 70
   128
 71
     8
 72
    -7
 73
     4
  0
SEQEND
  5
5131
  8
0
  0
POLYLINE
  5
4D7A
  8
0
 66
     1
 10
0.0
 20
0.0
 30
0.0
 70
    64
 71
     4
 72
     2
  0
VERTEX
  5
4D7B
  8
0
 10
-265.0
 20
299.9999999999999
 30
0.0
 70
   192
  0
VERTEX
  5
4D7C
  8
0
 10
-265.0
 20
-300.0000000000001
 30
0.0
 70
   192
  0
VERTEX
  5
4D7D
  8
0
 10
-264.9999999999999
 20
-300.0000000000001
 30
-0.5
 70
   192
  0
VERTEX
  5
4D7E
  8
0
 10
-265.0
 20
299.9999999999999
 30
-0.5
 70
   192
  0
VERTEX
  5
4D7F
  8
0
 10
0.0
 20
0.0
 30
0.0
 70
   128
 71
     3
 72
     4
 73
    -1
  0
VERTEX
  5
4D80
  8
0
 10
0.0
 20
0.0
 30
0.0
 70
   128
 71
     2
 72
    -3
 73
     1
  0
SEQEND
  5
5132
  8
0
  0
POLYLINE
  5
4D81
  8
0
 66
     1
 10
0.0
 20
0.0
 30
0.0
 70
    64
 71
     8
 72
     6
  0
VERTEX
  5
4D82
  8
0
 10
-256.2916512459885
 20
332.4999999999999
 30
-0.5
 70
   192
  0
VERTEX
  5
4D83
  8
0
 10
-232.5
 20
356.2916512459884
 30
-0.5
 70
   192
  0
VERTEX
  5
4D84
  8
0
 10
-232.5
 20
356.2916512459884
 30
0.0
 70
   192
  0
VERTEX
  5
4D85
  8
0
 10
-256.2916512459885
 20
332.4999999999999
 30
0.0
 70
   192
  0
VERTEX
  5
4D86
  8
0
 10
-200.0
 20
364.9999999999999
 30
-0.5
 70
   192
  0
VERTEX
  5
4D87
  8
0
 10
-200.0
 20
364.9999999999999
 30
0.0
 70
   192
  0
VERTEX
  5
4D88
  8
0
 10
-265.0
 20
299.9999999999999
 30
-0.5
 70
   192
  0
VERTEX
  5
4D89
  8
0
 10
-265.0
 20
299.9999999999999
 30
0.0
 70
   192
  0
VERTEX
  5
4D8A
  8
0
 10
0.0
 20
0.0
 30
0.0
 70
   128
 71
     1
 72
     2
 73
    -3
  0
VERTEX
  5
4D8B
  8
0
 10
0.0
 20
0.0
 30
0.0
 70
   128
 71
     4
 72
    -1
 73
     3
  0
VERTEX
  5
4D8C
  8
0
 10
0.0
 20
0.0
 30
0.0
 70
   128
 71
     2
 72
     5
 73
    -6
  0
VERTEX
  5
4D8D
  8
0
 10
0.0
 20
0.0
 30
0.0
 70
   128
 71
     3
 72
    -2
 73
     6
  0
VERTEX
  5
4D8E
  8
0
 10
0.0
 20
0.0
 30
0.0
 70
   128
 71
     7
 72
     1
 73
    -4
  0
VERTEX
  5
4D8F
  8
0
 10
0.0
 20
0.0
 30
0.0
 70
   128
 71
     8
 72
    -7
 73
     4
  0
SEQEND
  5
5133
  8
0
  0
POLYLINE
  5
4D90
  8
0
 66
     1
 10
0.0
 20
0.0
 30
0.0
 70
    64
 71
     4
 72
     2
  0
VERTEX
  5
4D91
  8
0
 10
200.0
 20
365.0
 30
0.0
 70
   192
  0
VERTEX
  5
4D92
  8
0
 10
200.0
 20
364.9999999999999
 30
-0.5
 70
   192
  0
VERTEX
  5
4D93
  8
0
 10
-200.0
 20
364.9999999999999
 30
-0.5
 70
   192
  0
VERTEX
  5
4D94
  8
0
 10
-200.0
 20
364.9999999999999
 30
0.0
 70
   192
  0
VERTEX
  5
4D95
  8
0
 10
0.0
 20
0.0
 30
0.0
 70
   128
 71
     1
 72
     4
 73
    -3
  0
VERTEX
  5
4D96
  8
0
 10
0.0
 20
0.0
 30
0.0
 70
   128
 71
    -1
 72
     3
 73
     2
  0
SEQEND
  5
5134
  8
0
  0
POLYLINE
  5
4D97
  8
0
 66
     1
 10
0.0
 20
0.0
 30
0.0
 70
    64
 71
     8
 72
     6
  0
VERTEX
  5
4D98
  8
0
 10
232.5
 20
356.2916512459884
 30
-0.5
 70
   192
  0
VERTEX
  5
4D99
  8
0
 10
256.2916512459885
 20
332.4999999999999
 30
-0.5
 70
   192
  0
VERTEX
  5
4D9A
  8
0
 10
256.2916512459885
 20
332.4999999999999
 30
0.0
 70
   192
  0
VERTEX
  5
4D9B
  8
0
 10
232.5
 20
356.2916512459884
 30
0.0
 70
   192
  0
VERTEX
  5
4D9C
  8
0
 10
264.9999999999999
 20
299.9999999999999
 30
-0.5
 70
   192
  0
VERTEX
  5
4D9D
  8
0
 10
264.9999999999999
 20
299.9999999999999
 30
0.0
 70
   192
  0
VERTEX
  5
4D9E
  8
0
 10
200.0
 20
365.0
 30
-0.5
 70
   192
  0
VERTEX
  5
4D9F
  8
0
 10
200.0
 20
364.9999999999999
 30
0.0
 70
   192
  0
VERTEX
  5
4DA0
  8
0
 10
0.0
 20
0.0
 30
0.0
 70
   128
 71
     1
 72
     2
 73
    -3
  0
VERTEX
  5
4DA1
  8
0
 10
0.0
 20
0.0
 30
0.0
 70
   128
 71
     4
 72
    -1
 73
     3
  0
VERTEX
  5
4DA2
  8
0
 10
0.0
 20
0.0
 30
0.0
 70
   128
 71
     2
 72
     5
 73
    -6
  0
VERTEX
  5
4DA3
  8
0
 10
0.0
 20
0.0
 30
0.0
 70
   128
 71
     3
 72
    -2
 73
     6
  0
VERTEX
  5
4DA4
  8
0
 10
0.0
 20
0.0
 30
0.0
 70
   128
 71
     7
 72
     1
 73
    -4
  0
VERTEX
  5
4DA5
  8
0
 10
0.0
 20
0.0
 30
0.0
 70
   128
 71
     8
 72
    -7
 73
     4
  0
SEQEND
  5
5135
  8
0
  0
POLYLINE
  5
4DA6
  8
0
 66
     1
 10
0.0
 20
0.0
 30
0.0
 70
    64
 71
    16
 72
    14
  0
VERTEX
  5
4DA7
  8
0
 10
264.9999999999999
 20
-300.0000000000001
 30
-0.5
 70
   192
  0
VERTEX
  5
4DA8
  8
0
 10
264.9999999999999
 20
299.9999999999999
 30
-0.5
 70
   192
  0
VERTEX
  5
4DA9
  8
0
 10
256.2916512459885
 20
332.4999999999999
 30
-0.5
 70
   192
  0
VERTEX
  5
4DAA
  8
0
 10
232.5
 20
356.2916512459884
 30
-0.5
 70
   192
  0
VERTEX
  5
4DAB
  8
0
 10
200.0
 20
364.9999999999999
 30
-0.5
 70
   192
  0
VERTEX
  5
4DAC
  8
0
 10
-200.0
 20
364.9999999999999
 30
-0.5
 70
   192
  0
VERTEX
  5
4DAD
  8
0
 10
-232.5
 20
356.2916512459884
 30
-0.5
 70
   192
  0
VERTEX
  5
4DAE
  8
0
 10
-256.2916512459885
 20
332.4999999999999
 30
-0.5
 70
   192
  0
VERTEX
  5
4DAF
  8
0
 10
-265.0
 20
299.9999999999999
 30
-0.5
 70
   192
  0
VERTEX
  5
4DB0
  8
0
 10
-265.0
 20
-300.0000000000001
 30
-0.5
 70
   192
  0
VERTEX
  5
4DB1
  8
0
 10
-256.2916512459884
 20
-332.5000000000001
 30
-0.5
 70
   192
  0
VERTEX
  5
4DB2
  8
0
 10
-232.4999999999999
 20
-356.2916512459886
 30
-0.5
 70
   192
  0
VERTEX
  5
4DB3
  8
0
 10
-200.0
 20
-365.0000000000001
 30
-0.5
 70
   192
  0
VERTEX
  5
4DB4
  8
0
 10
200.0
 20
-365.0
 30
-0.5
 70
   192
  0
VERTEX
  5
4DB5
  8
0
 10
232.5
 20
-356.2916512459885
 30
-0.5
 70
   192
  0
VERTEX
  5
4DB6
  8
0
 10
256.2916512459884
 20
-332.5000000000001
 30
-0.5
 70
   192
  0
VERTEX
  5
4DB7
  8
0
 10
0.0
 20
0.0
 30
0.0
 70
   128
 71
    15
 72
    16
 73
    -1
  0
VERTEX
  5
4DB8
  8
0
 10
0.0
 20
0.0
 30
0.0
 70
   128
 71
    14
 72
   -15
 73
    -1
  0
VERTEX
  5
4DB9
  8
0
 10
0.0
 20
0.0
 30
0.0
 70
   128
 71
    13
 72
   -14
 73
    -1
  0
VERTEX
  5
4DBA
  8
0
 10
0.0
 20
0.0
 30
0.0
 70
   128
 71
    12
 72
   -13
 73
    -1
  0
VERTEX
  5
4DBB
  8
0
 10
0.0
 20
0.0
 30
0.0
 70
   128
 71
    11
 72
   -12
 73
    -1
  0
VERTEX
  5
4DBC
  8
0
 10
0.0
 20
0.0
 30
0.0
 70
   128
 71
    10
 72
   -11
 73
    -1
  0
VERTEX
  5
4DBD
  8
0
 10
0.0
 20
0.0
 30
0.0
 70
   128
 71
     9
 72
   -10
 73
    -1
  0
VERTEX
  5
4DBE
  8
0
 10
0.0
 20
0.0
 30
0.0
 70
   128
 71
     8
 72
    -9
 73
    -1
  0
VERTEX
  5
4DBF
  8
0
 10
0.0
 20
0.0
 30
0.0
 70
   128
 71
     7
 72
    -8
 73
    -1
  0
VERTEX
  5
4DC0
  8
0
 10
0.0
 20
0.0
 30
0.0
 70
   128
 71
     6
 72
    -7
 73
    -1
  0
VERTEX
  5
4DC1
  8
0
 10
0.0
 20
0.0
 30
0.0
 70
   128
 71
     5
 72
    -6
 73
    -1
  0
VERTEX
  5
4DC2
  8
0
 10
0.0
 20
0.0
 30
0.0
 70
   128
 71
     4
 72
    -5
 73
    -1
  0
VERTEX
  5
4DC3
  8
0
 10
0.0
 20
0.0
 30
0.0
 70
   128
 71
     3
 72
    -4
 73
    -1
  0
VERTEX
  5
4DC4
  8
0
 10
0.0
 20
0.0
 30
0.0
 70
   128
 71
     2
 72
    -3
 73
     1
  0
SEQEND
  5
5136
  8
0
  0
ENDBLK
  5
5108
  8
0
  0
BLOCK
  8
0
  2
*X2
 70
     1
 10
0.0
 20
0.0
 30
0.0
  3
*X2
  1

  0
POLYLINE
  5
4DC6
  8
0
 66
     1
 10
0.0
 20
0.0
 30
0.0
 70
    64
 71
     6
 72
     4
  0
VERTEX
  5
4DC7
  8
0
 10
173.0
 20
-192.9999999999999
 30
-13.0
 70
   192
  0
VERTEX
  5
4DC8
  8
0
 10
173.0000000000001
 20
-195.9999999999999
 30
-13.0
 70
   192
  0
VERTEX
  5
4DC9
  8
0
 10
173.0
 20
-195.9999999999999
 30
-23.0
 70
   192
  0
VERTEX
  5
4DCA
  8
0
 10
173.0
 20
-158.9999999999999
 30
-23.0
 70
   192
  0
VERTEX
  5
4DCB
  8
0
 10
173.0
 20
-158.9999999999999
 30
-20.0
 70
   192
  0
VERTEX
  5
4DCC
  8
0
 10
173.0
 20
-192.9999999999999
 30
-20.0
 70
   192
  0
VERTEX
  5
4DCD
  8
0
 10
0.0
 20
0.0
 30
0.0
 70
   128
 71
     6
 72
     5
 73
    -4
  0
VERTEX
  5
4DCE
  8
0
 10
0.0
 20
0.0
 30
0.0
 70
   128
 71
    -6
 72
     4
 73
    -3
  0
VERTEX
  5
4DCF
  8
0
 10
0.0
 20
0.0
 30
0.0
 70
   128
 71
     3
 72
     2
 73
    -1
  0
VERTEX
  5
4DD0
  8
0
 10
0.0
 20
0.0
 30
0.0
 70
   128
 71
    -3
 72
     1
 73
    -6
  0
SEQEND
  5
5139
  8
0
  0
POLYLINE
  5
4DD1
  8
0
 66
     1
 10
0.0
 20
0.0
 30
0.0
 70
    64
 71
     6
 72
     4
  0
VERTEX
  5
4DD2
  8
0
 10
198.0
 20
-195.9999999999999
 30
-10.0
 70
   192
  0
VERTEX
  5
4DD3
  8
0
 10
198.0
 20
-195.9999999999999
 30
-23.0
 70
   192
  0
VERTEX
  5
4DD4
  8
0
 10
173.0000000000001
 20
-195.9999999999999
 30
-23.0
 70
   192
  0
VERTEX
  5
4DD5
  8
0
 10
173.0
 20
-195.9999999999999
 30
-13.0
 70
   192
  0
VERTEX
  5
4DD6
  8
0
 10
138.0
 20
-195.9999999999999
 30
-13.0
 70
   192
  0
VERTEX
  5
4DD7
  8
0
 10
138.0
 20
-195.9999999999999
 30
-10.0
 70
   192
  0
VERTEX
  5
4DD8
  8
0
 10
0.0
 20
0.0
 30
0.0
 70
   128
 71
     4
 72
     3
 73
    -2
  0
VERTEX
  5
4DD9
  8
0
 10
0.0
 20
0.0
 30
0.0
 70
   128
 71
    -4
 72
     2
 73
    -1
  0
VERTEX
  5
4DDA
  8
0
 10
0.0
 20
0.0
 30
0.0
 70
   128
 71
     1
 72
     6
 73
    -5
  0
VERTEX
  5
4DDB
  8
0
 10
0.0
 20
0.0
 30
0.0
 70
   128
 71
    -1
 72
     5
 73
    -4
  0
SEQEND
  5
513A
  8
0
  0
POLYLINE
  5
4DDC
  8
0
 66
     1
 10
0.0
 20
0.0
 30
0.0
 70
    64
 71
     4
 72
     2
  0
VERTEX
  5
4DDD
  8
0
 10
138.0
 20
-195.9999999999999
 30
-10.0
 70
   192
  0
VERTEX
  5
4DDE
  8
0
 10
138.0
 20
-195.9999999999999
 30
-13.0
 70
   192
  0
VERTEX
  5
4DDF
  8
0
 10
138.0
 20
-116.0199999999999
 30
-13.0
 70
   192
  0
VERTEX
  5
4DE0
  8
0
 10
138.0
 20
-116.0199999999999
 30
-10.0
 70
   192
  0
VERTEX
  5
4DE1
  8
0
 10
0.0
 20
0.0
 30
0.0
 70
   128
 71
     1
 72
     4
 73
    -3
  0
VERTEX
  5
4DE2
  8
0
 10
0.0
 20
0.0
 30
0.0
 70
   128
 71
    -1
 72
     3
 73
     2
  0
SEQEND
  5
513B
  8
0
  0
POLYLINE
  5
4DE3
  8
0
 66
     1
 10
0.0
 20
0.0
 30
0.0
 70
    64
 71
     6
 72
     4
  0
VERTEX
  5
4DE4
  8
0
 10
138.0
 20
-116.0199999999999
 30
-10.0
 70
   192
  0
VERTEX
  5
4DE5
  8
0
 10
198.0
 20
-116.0199999999999
 30
-10.0
 70
   192
  0
VERTEX
  5
4DE6
  8
0
 10
198.0
 20
-116.0199999999999
 30
-23.0
 70
   192
  0
VERTEX
  5
4DE7
  8
0
 10
173.0000000000001
 20
-116.0199999999999
 30
-23.0
 70
   192
  0
VERTEX
  5
4DE8
  8
0
 10
173.0
 20
-116.0199999999999
 30
-13.0
 70
   192
  0
VERTEX
  5
4DE9
  8
0
 10
138.0
 20
-116.0199999999999
 30
-13.0
 70
   192
  0
VERTEX
  5
4DEA
  8
0
 10
0.0
 20
0.0
 30
0.0
 70
   128
 71
     3
 72
     4
 73
    -5
  0
VERTEX
  5
4DEB
  8
0
 10
0.0
 20
0.0
 30
0.0
 70
   128
 71
     2
 72
    -3
 73
    -5
  0
VERTEX
  5
4DEC
  8
0
 10
0.0
 20
0.0
 30
0.0
 70
   128
 71
     6
 72
     1
 73
    -2
  0
VERTEX
  5
4DED
  8
0
 10
0.0
 20
0.0
 30
0.0
 70
   128
 71
     5
 72
    -6
 73
    -2
  0
SEQEND
  5
513C
  8
0
  0
POLYLINE
  5
4DEE
  8
0
 66
     1
 10
0.0
 20
0.0
 30
0.0
 70
    64
 71
     4
 72
     2
  0
VERTEX
  5
4DEF
  8
0
 10
198.0
 20
-116.0199999999999
 30
-10.0
 70
   192
  0
VERTEX
  5
4DF0
  8
0
 10
198.0
 20
-195.9999999999999
 30
-10.0
 70
   192
  0
VERTEX
  5
4DF1
  8
0
 10
198.0
 20
-195.9999999999999
 30
-23.0
 70
   192
  0
VERTEX
  5
4DF2
  8
0
 10
198.0
 20
-116.0199999999999
 30
-23.0
 70
   192
  0
VERTEX
  5
4DF3
  8
0
 10
0.0
 20
0.0
 30
0.0
 70
   128
 71
     3
 72
     4
 73
    -1
  0
VERTEX
  5
4DF4
  8
0
 10
0.0
 20
0.0
 30
0.0
 70
   128
 71
     2
 72
    -3
 73
     1
  0
SEQEND
  5
513D
  8
0
  0
POLYLINE
  5
4DF5
  8
0
 66
     1
 10
0.0
 20
0.0
 30
0.0
 70
    64
 71
     8
 72
     6
  0
VERTEX
  5
4DF6
  8
0
 10
173.0
 20
-116.0199999999999
 30
-13.0
 70
   192
  0
VERTEX
  5
4DF7
  8
0
 10
173.0
 20
-119.0199999999999
 30
-13.0
 70
   192
  0
VERTEX
  5
4DF8
  8
0
 10
195.0
 20
-119.0199999999999
 30
-13.0
 70
   192
  0
VERTEX
  5
4DF9
  8
0
 10
195.0
 20
-192.9999999999999
 30
-13.0
 70
   192
  0
VERTEX
  5
4DFA
  8
0
 10
173.0
 20
-192.9999999999999
 30
-13.0
 70
   192
  0
VERTEX
  5
4DFB
  8
0
 10
173.0
 20
-195.9999999999999
 30
-13.0
 70
   192
  0
VERTEX
  5
4DFC
  8
0
 10
138.0
 20
-195.9999999999999
 30
-13.0
 70
   192
  0
VERTEX
  5
4DFD
  8
0
 10
138.0
 20
-116.0199999999999
 30
-13.0
 70
   192
  0
VERTEX
  5
4DFE
  8
0
 10
0.0
 20
0.0
 30
0.0
 70
   128
 71
     8
 72
     1
 73
    -2
  0
VERTEX
  5
4DFF
  8
0
 10
0.0
 20
0.0
 30
0.0
 70
   128
 71
    -5
 72
    -8
 73
    -2
  0
VERTEX
  5
4E00
  8
0
 10
0.0
 20
0.0
 30
0.0
 70
   128
 71
     3
 72
     4
 73
    -5
  0
VERTEX
  5
4E01
  8
0
 10
0.0
 20
0.0
 30
0.0
 70
   128
 71
     2
 72
    -3
 73
    -5
  0
VERTEX
  5
4E02
  8
0
 10
0.0
 20
0.0
 30
0.0
 70
   128
 71
    -5
 72
     7
 73
    -8
  0
VERTEX
  5
4E03
  8
0
 10
0.0
 20
0.0
 30
0.0
 70
   128
 71
     5
 72
     6
 73
    -7
  0
SEQEND
  5
513E
  8
0
  0
POLYLINE
  5
4E04
  8
0
 66
     1
 10
0.0
 20
0.0
 30
0.0
 70
    64
 71
     4
 72
     2
  0
VERTEX
  5
4E05
  8
0
 10
138.0
 20
-195.9999999999999
 30
-10.0
 70
   192
  0
VERTEX
  5
4E06
  8
0
 10
138.0
 20
-116.0199999999999
 30
-10.0
 70
   192
  0
VERTEX
  5
4E07
  8
0
 10
198.0
 20
-116.0199999999999
 30
-10.0
 70
   192
  0
VERTEX
  5
4E08
  8
0
 10
198.0
 20
-195.9999999999999
 30
-10.0
 70
   192
  0
VERTEX
  5
4E09
  8
0
 10
0.0
 20
0.0
 30
0.0
 70
   128
 71
     1
 72
     4
 73
    -3
  0
VERTEX
  5
4E0A
  8
0
 10
0.0
 20
0.0
 30
0.0
 70
   128
 71
    -1
 72
     3
 73
     2
  0
SEQEND
  5
513F
  8
0
  0
POLYLINE
  5
4E0B
  8
0
 66
     1
 10
0.0
 20
0.0
 30
0.0
 70
    64
 71
     4
 72
     2
  0
VERTEX
  5
4E0C
  8
0
 10
193.0
 20
-153.02
 30
-23.0
 70
   192
  0
VERTEX
  5
4E0D
  8
0
 10
173.0
 20
-153.0199999999999
 30
-23.0
 70
   192
  0
VERTEX
  5
4E0E
  8
0
 10
173.0
 20
-153.0199999999999
 30
-20.0
 70
   192
  0
VERTEX
  5
4E0F
  8
0
 10
193.0
 20
-153.02
 30
-20.0
 70
   192
  0
VERTEX
  5
4E10
  8
0
 10
0.0
 20
0.0
 30
0.0
 70
   128
 71
     1
 72
     4
 73
    -3
  0
VERTEX
  5
4E11
  8
0
 10
0.0
 20
0.0
 30
0.0
 70
   128
 71
    -1
 72
     3
 73
     2
  0
SEQEND
  5
5140
  8
0
  0
POLYLINE
  5
4E12
  8
0
 66
     1
 10
0.0
 20
0.0
 30
0.0
 70
    64
 71
     6
 72
     4
  0
VERTEX
  5
4E13
  8
0
 10
173.0
 20
-153.0199999999999
 30
-20.0
 70
   192
  0
VERTEX
  5
4E14
  8
0
 10
173.0
 20
-153.0199999999999
 30
-23.0
 70
   192
  0
VERTEX
  5
4E15
  8
0
 10
173.0
 20
-116.0199999999999
 30
-23.0
 70
   192
  0
VERTEX
  5
4E16
  8
0
 10
173.0
 20
-116.0199999999999
 30
-13.0
 70
   192
  0
VERTEX
  5
4E17
  8
0
 10
173.0
 20
-119.0199999999999
 30
-13.0
 70
   192
  0
VERTEX
  5
4E18
  8
0
 10
173.0
 20
-119.0199999999999
 30
-20.0
 70
   192
  0
VERTEX
  5
4E19
  8
0
 10
0.0
 20
0.0
 30
0.0
 70
   128
 71
     6
 72
     5
 73
    -4
  0
VERTEX
  5
4E1A
  8
0
 10
0.0
 20
0.0
 30
0.0
 70
   128
 71
    -6
 72
     4
 73
    -3
  0
VERTEX
  5
4E1B
  8
0
 10
0.0
 20
0.0
 30
0.0
 70
   128
 71
     3
 72
     2
 73
    -1
  0
VERTEX
  5
4E1C
  8
0
 10
0.0
 20
0.0
 30
0.0
 70
   128
 71
    -3
 72
     1
 73
    -6
  0
SEQEND
  5
5141
  8
0
  0
POLYLINE
  5
4E1D
  8
0
 66
     1
 10
0.0
 20
0.0
 30
0.0
 70
    64
 71
     4
 72
     2
  0
VERTEX
  5
4E1E
  8
0
 10
173.0
 20
-158.9999999999998
 30
-23.0
 70
   192
  0
VERTEX
  5
4E1F
  8
0
 10
193.0
 20
-158.9999999999999
 30
-23.0
 70
   192
  0
VERTEX
  5
4E20
  8
0
 10
193.0
 20
-158.9999999999999
 30
-20.0
 70
   192
  0
VERTEX
  5
4E21
  8
0
 10
173.0
 20
-158.9999999999999
 30
-20.0
 70
   192
  0
VERTEX
  5
4E22
  8
0
 10
0.0
 20
0.0
 30
0.0
 70
   128
 71
     1
 72
     4
 73
    -3
  0
VERTEX
  5
4E23
  8
0
 10
0.0
 20
0.0
 30
0.0
 70
   128
 71
    -1
 72
     3
 73
     2
  0
SEQEND
  5
5142
  8
0
  0
POLYLINE
  5
4E24
  8
0
 66
     1
 10
0.0
 20
0.0
 30
0.0
 70
    64
 71
     4
 72
     2
  0
VERTEX
  5
4E25
  8
0
 10
193.0
 20
-158.9999999999999
 30
-23.0
 70
   192
  0
VERTEX
  5
4E26
  8
0
 10
193.0
 20
-153.02
 30
-23.0
 70
   192
  0
VERTEX
  5
4E27
  8
0
 10
193.0
 20
-153.0199999999999
 30
-20.0
 70
   192
  0
VERTEX
  5
4E28
  8
0
 10
193.0
 20
-158.9999999999999
 30
-20.0
 70
   192
  0
VERTEX
  5
4E29
  8
0
 10
0.0
 20
0.0
 30
0.0
 70
   128
 71
     1
 72
     4
 73
    -3
  0
VERTEX
  5
4E2A
  8
0
 10
0.0
 20
0.0
 30
0.0
 70
   128
 71
    -1
 72
     3
 73
     2
  0
SEQEND
  5
5143
  8
0
  0
POLYLINE
  5
4E2B
  8
0
 66
     1
 10
0.0
 20
0.0
 30
0.0
 70
    64
 71
     8
 72
     6
  0
VERTEX
  5
4E2C
  8
0
 10
193.0
 20
-153.02
 30
-23.0
 70
   192
  0
VERTEX
  5
4E2D
  8
0
 10
173.0
 20
-153.0199999999999
 30
-23.0
 70
   192
  0
VERTEX
  5
4E2E
  8
0
 10
173.0
 20
-116.0199999999999
 30
-23.0
 70
   192
  0
VERTEX
  5
4E2F
  8
0
 10
198.0
 20
-116.0199999999999
 30
-23.0
 70
   192
  0
VERTEX
  5
4E30
  8
0
 10
198.0
 20
-195.9999999999999
 30
-23.0
 70
   192
  0
VERTEX
  5
4E31
  8
0
 10
173.0000000000001
 20
-195.9999999999999
 30
-23.0
 70
   192
  0
VERTEX
  5
4E32
  8
0
 10
173.0
 20
-158.9999999999999
 30
-23.0
 70
   192
  0
VERTEX
  5
4E33
  8
0
 10
193.0
 20
-158.9999999999999
 30
-23.0
 70
   192
  0
VERTEX
  5
4E34
  8
0
 10
0.0
 20
0.0
 30
0.0
 70
   128
 71
     6
 72
     7
 73
    -8
  0
VERTEX
  5
4E35
  8
0
 10
0.0
 20
0.0
 30
0.0
 70
   128
 71
     5
 72
    -6
 73
    -8
  0
VERTEX
  5
4E36
  8
0
 10
0.0
 20
0.0
 30
0.0
 70
   128
 71
    -1
 72
     4
 73
    -5
  0
VERTEX
  5
4E37
  8
0
 10
0.0
 20
0.0
 30
0.0
 70
   128
 71
     8
 72
    -1
 73
    -5
  0
VERTEX
  5
4E38
  8
0
 10
0.0
 20
0.0
 30
0.0
 70
   128
 71
     2
 72
     3
 73
    -4
  0
VERTEX
  5
4E39
  8
0
 10
0.0
 20
0.0
 30
0.0
 70
   128
 71
     1
 72
    -2
 73
    -4
  0
SEQEND
  5
5144
  8
0
  0
POLYLINE
  5
4E3A
  8
0
 66
     1
 10
0.0
 20
0.0
 30
0.0
 70
    64
 71
     4
 72
     2
  0
VERTEX
  5
4E3B
  8
0
 10
173.0
 20
-192.9999999999999
 30
-13.0
 70
   192
  0
VERTEX
  5
4E3C
  8
0
 10
195.0
 20
-192.9999999999999
 30
-13.0
 70
   192
  0
VERTEX
  5
4E3D
  8
0
 10
195.0
 20
-192.9999999999999
 30
-20.0
 70
   192
  0
VERTEX
  5
4E3E
  8
0
 10
173.0000000000001
 20
-192.9999999999999
 30
-20.0
 70
   192
  0
VERTEX
  5
4E3F
  8
0
 10
0.0
 20
0.0
 30
0.0
 70
   128
 71
     3
 72
     4
 73
    -1
  0
VERTEX
  5
4E40
  8
0
 10
0.0
 20
0.0
 30
0.0
 70
   128
 71
     2
 72
    -3
 73
     1
  0
SEQEND
  5
5145
  8
0
  0
POLYLINE
  5
4E41
  8
0
 66
     1
 10
0.0
 20
0.0
 30
0.0
 70
    64
 71
     4
 72
     2
  0
VERTEX
  5
4E42
  8
0
 10
173.0
 20
-119.0199999999999
 30
-13.0
 70
   192
  0
VERTEX
  5
4E43
  8
0
 10
195.0
 20
-119.0199999999999
 30
-13.0
 70
   192
  0
VERTEX
  5
4E44
  8
0
 10
195.0
 20
-119.0199999999999
 30
-20.0
 70
   192
  0
VERTEX
  5
4E45
  8
0
 10
173.0
 20
-119.0199999999999
 30
-20.0
 70
   192
  0
VERTEX
  5
4E46
  8
0
 10
0.0
 20
0.0
 30
0.0
 70
   128
 71
     1
 72
     4
 73
    -3
  0
VERTEX
  5
4E47
  8
0
 10
0.0
 20
0.0
 30
0.0
 70
   128
 71
    -1
 72
     3
 73
     2
  0
SEQEND
  5
5146
  8
0
  0
POLYLINE
  5
4E48
  8
0
 66
     1
 10
0.0
 20
0.0
 30
0.0
 70
    64
 71
     4
 72
     2
  0
VERTEX
  5
4E49
  8
0
 10
195.0
 20
-192.9999999999999
 30
-13.0
 70
   192
  0
VERTEX
  5
4E4A
  8
0
 10
195.0
 20
-192.9999999999999
 30
-20.0
 70
   192
  0
VERTEX
  5
4E4B
  8
0
 10
195.0
 20
-119.0199999999999
 30
-20.0
 70
   192
  0
VERTEX
  5
4E4C
  8
0
 10
195.0
 20
-119.0199999999999
 30
-13.0
 70
   192
  0
VERTEX
  5
4E4D
  8
0
 10
0.0
 20
0.0
 30
0.0
 70
   128
 71
     1
 72
     4
 73
    -3
  0
VERTEX
  5
4E4E
  8
0
 10
0.0
 20
0.0
 30
0.0
 70
   128
 71
    -1
 72
     3
 73
     2
  0
SEQEND
  5
5147
  8
0
  0
POLYLINE
  5
4E4F
  8
0
 66
     1
 10
0.0
 20
0.0
 30
0.0
 70
    64
 71
     8
 72
     6
  0
VERTEX
  5
4E50
  8
0
 10
173.0
 20
-153.0199999999999
 30
-20.0
 70
   192
  0
VERTEX
  5
4E51
  8
0
 10
173.0000000000001
 20
-119.0199999999999
 30
-20.0
 70
   192
  0
VERTEX
  5
4E52
  8
0
 10
195.0
 20
-119.0199999999999
 30
-20.0
 70
   192
  0
VERTEX
  5
4E53
  8
0
 10
195.0
 20
-192.9999999999999
 30
-20.0
 70
   192
  0
VERTEX
  5
4E54
  8
0
 10
173.0
 20
-192.9999999999999
 30
-20.0
 70
   192
  0
VERTEX
  5
4E55
  8
0
 10
173.0
 20
-158.9999999999998
 30
-20.0
 70
   192
  0
VERTEX
  5
4E56
  8
0
 10
193.0
 20
-158.9999999999999
 30
-20.0
 70
   192
  0
VERTEX
  5
4E57
  8
0
 10
193.0
 20
-153.02
 30
-20.0
 70
   192
  0
VERTEX
  5
4E58
  8
0
 10
0.0
 20
0.0
 30
0.0
 70
   128
 71
     7
 72
     6
 73
    -5
  0
VERTEX
  5
4E59
  8
0
 10
0.0
 20
0.0
 30
0.0
 70
   128
 71
    -7
 72
     5
 73
    -4
  0
VERTEX
  5
4E5A
  8
0
 10
0.0
 20
0.0
 30
0.0
 70
   128
 71
    -4
 72
     8
 73
    -7
  0
VERTEX
  5
4E5B
  8
0
 10
0.0
 20
0.0
 30
0.0
 70
   128
 71
     4
 72
    -3
 73
    -8
  0
VERTEX
  5
4E5C
  8
0
 10
0.0
 20
0.0
 30
0.0
 70
   128
 71
     3
 72
     2
 73
    -1
  0
VERTEX
  5
4E5D
  8
0
 10
0.0
 20
0.0
 30
0.0
 70
   128
 71
    -3
 72
     1
 73
    -8
  0
SEQEND
  5
5148
  8
0
  0
ENDBLK
  5
5138
  8
0
  0
BLOCK
  8
0
  2
*X3
 70
     1
 10
0.0
 20
0.0
 30
0.0
  3
*X3
  1

  0
POLYLINE
  5
4E5F
  8
0
 66
     1
 10
0.0
 20
0.0
 30
0.0
 70
    64
 71
     6
 72
     4
  0
VERTEX
  5
4E60
  8
0
 10
155.0000000000001
 20
275.0
 30
-20.0
 70
   192
  0
VERTEX
  5
4E61
  8
0
 10
121.0
 20
275.0
 30
-20.0
 70
   192
  0
VERTEX
  5
4E62
  8
0
 10
121.0
 20
275.0
 30
-13.0
 70
   192
  0
VERTEX
  5
4E63
  8
0
 10
118.0
 20
275.0
 30
-13.0
 70
   192
  0
VERTEX
  5
4E64
  8
0
 10
118.0
 20
275.0
 30
-23.0
 70
   192
  0
VERTEX
  5
4E65
  8
0
 10
155.0000000000001
 20
275.0
 30
-23.0
 70
   192
  0
VERTEX
  5
4E66
  8
0
 10
0.0
 20
0.0
 30
0.0
 70
   128
 71
     6
 72
     1
 73
    -2
  0
VERTEX
  5
4E67
  8
0
 10
0.0
 20
0.0
 30
0.0
 70
   128
 71
     5
 72
    -6
 73
    -2
  0
VERTEX
  5
4E68
  8
0
 10
0.0
 20
0.0
 30
0.0
 70
   128
 71
     3
 72
     4
 73
    -5
  0
VERTEX
  5
4E69
  8
0
 10
0.0
 20
0.0
 30
0.0
 70
   128
 71
     2
 72
    -3
 73
    -5
  0
SEQEND
  5
514B
  8
0
  0
POLYLINE
  5
4E6A
  8
0
 66
     1
 10
0.0
 20
0.0
 30
0.0
 70
    64
 71
     8
 72
     6
  0
VERTEX
  5
4E6B
  8
0
 10
118.0
 20
275.0
 30
-13.0
 70
   192
  0
VERTEX
  5
4E6C
  8
0
 10
121.0
 20
275.0
 30
-13.0
 70
   192
  0
VERTEX
  5
4E6D
  8
0
 10
121.0
 20
297.0000000000001
 30
-13.0
 70
   192
  0
VERTEX
  5
4E6E
  8
0
 10
195.0
 20
297.0000000000001
 30
-13.0
 70
   192
  0
VERTEX
  5
4E6F
  8
0
 10
195.0
 20
275.0
 30
-13.0
 70
   192
  0
VERTEX
  5
4E70
  8
0
 10
198.0
 20
275.0
 30
-13.0
 70
   192
  0
VERTEX
  5
4E71
  8
0
 10
198.0
 20
240.0
 30
-13.0
 70
   192
  0
VERTEX
  5
4E72
  8
0
 10
118.0
 20
240.0
 30
-13.0
 70
   192
  0
VERTEX
  5
4E73
  8
0
 10
0.0
 20
0.0
 30
0.0
 70
   128
 71
     8
 72
     1
 73
    -2
  0
VERTEX
  5
4E74
  8
0
 10
0.0
 20
0.0
 30
0.0
 70
   128
 71
    -5
 72
    -8
 73
    -2
  0
VERTEX
  5
4E75
  8
0
 10
0.0
 20
0.0
 30
0.0
 70
   128
 71
     3
 72
     4
 73
    -5
  0
VERTEX
  5
4E76
  8
0
 10
0.0
 20
0.0
 30
0.0
 70
   128
 71
     2
 72
    -3
 73
    -5
  0
VERTEX
  5
4E77
  8
0
 10
0.0
 20
0.0
 30
0.0
 70
   128
 71
    -5
 72
     7
 73
    -8
  0
VERTEX
  5
4E78
  8
0
 10
0.0
 20
0.0
 30
0.0
 70
   128
 71
     5
 72
     6
 73
    -7
  0
SEQEND
  5
514C
  8
0
  0
POLYLINE
  5
4E79
  8
0
 66
     1
 10
0.0
 20
0.0
 30
0.0
 70
    64
 71
     6
 72
     4
  0
VERTEX
  5
4E7A
  8
0
 10
198.0
 20
300.0000000000001
 30
-10.0
 70
   192
  0
VERTEX
  5
4E7B
  8
0
 10
198.0
 20
300.0000000000001
 30
-23.0
 70
   192
  0
VERTEX
  5
4E7C
  8
0
 10
198.0
 20
275.0
 30
-23.0
 70
   192
  0
VERTEX
  5
4E7D
  8
0
 10
198.0
 20
275.0
 30
-13.0
 70
   192
  0
VERTEX
  5
4E7E
  8
0
 10
198.0
 20
240.0
 30
-13.0
 70
   192
  0
VERTEX
  5
4E7F
  8
0
 10
198.0
 20
240.0
 30
-10.0
 70
   192
  0
VERTEX
  5
4E80
  8
0
 10
0.0
 20
0.0
 30
0.0
 70
   128
 71
     4
 72
     3
 73
    -2
  0
VERTEX
  5
4E81
  8
0
 10
0.0
 20
0.0
 30
0.0
 70
   128
 71
    -4
 72
     2
 73
    -1
  0
VERTEX
  5
4E82
  8
0
 10
0.0
 20
0.0
 30
0.0
 70
   128
 71
     1
 72
     6
 73
    -5
  0
VERTEX
  5
4E83
  8
0
 10
0.0
 20
0.0
 30
0.0
 70
   128
 71
    -1
 72
     5
 73
    -4
  0
SEQEND
  5
514D
  8
0
  0
POLYLINE
  5
4E84
  8
0
 66
     1
 10
0.0
 20
0.0
 30
0.0
 70
    64
 71
     4
 72
     2
  0
VERTEX
  5
4E85
  8
0
 10
198.0
 20
240.0
 30
-10.0
 70
   192
  0
VERTEX
  5
4E86
  8
0
 10
198.0
 20
240.0
 30
-13.0
 70
   192
  0
VERTEX
  5
4E87
  8
0
 10
118.0
 20
240.0
 30
-13.0
 70
   192
  0
VERTEX
  5
4E88
  8
0
 10
118.0
 20
240.0
 30
-10.0
 70
   192
  0
VERTEX
  5
4E89
  8
0
 10
0.0
 20
0.0
 30
0.0
 70
   128
 71
     1
 72
     4
 73
    -3
  0
VERTEX
  5
4E8A
  8
0
 10
0.0
 20
0.0
 30
0.0
 70
   128
 71
    -1
 72
     3
 73
     2
  0
SEQEND
  5
514E
  8
0
  0
POLYLINE
  5
4E8B
  8
0
 66
     1
 10
0.0
 20
0.0
 30
0.0
 70
    64
 71
     6
 72
     4
  0
VERTEX
  5
4E8C
  8
0
 10
118.0
 20
240.0
 30
-10.0
 70
   192
  0
VERTEX
  5
4E8D
  8
0
 10
118.0
 20
300.0000000000001
 30
-10.0
 70
   192
  0
VERTEX
  5
4E8E
  8
0
 10
118.0
 20
300.0000000000001
 30
-23.0
 70
   192
  0
VERTEX
  5
4E8F
  8
0
 10
118.0
 20
275.0
 30
-23.0
 70
   192
  0
VERTEX
  5
4E90
  8
0
 10
118.0
 20
275.0
 30
-13.0
 70
   192
  0
VERTEX
  5
4E91
  8
0
 10
118.0
 20
240.0
 30
-13.0
 70
   192
  0
VERTEX
  5
4E92
  8
0
 10
0.0
 20
0.0
 30
0.0
 70
   128
 71
     3
 72
     4
 73
    -5
  0
VERTEX
  5
4E93
  8
0
 10
0.0
 20
0.0
 30
0.0
 70
   128
 71
     2
 72
    -3
 73
    -5
  0
VERTEX
  5
4E94
  8
0
 10
0.0
 20
0.0
 30
0.0
 70
   128
 71
     6
 72
     1
 73
    -2
  0
VERTEX
  5
4E95
  8
0
 10
0.0
 20
0.0
 30
0.0
 70
   128
 71
     5
 72
    -6
 73
    -2
  0
SEQEND
  5
514F
  8
0
  0
POLYLINE
  5
4E96
  8
0
 66
     1
 10
0.0
 20
0.0
 30
0.0
 70
    64
 71
     4
 72
     2
  0
VERTEX
  5
4E97
  8
0
 10
118.0
 20
300.0000000000001
 30
-10.0
 70
   192
  0
VERTEX
  5
4E98
  8
0
 10
198.0
 20
300.0000000000001
 30
-10.0
 70
   192
  0
VERTEX
  5
4E99
  8
0
 10
198.0
 20
300.0000000000001
 30
-23.0
 70
   192
  0
VERTEX
  5
4E9A
  8
0
 10
118.0
 20
300.0000000000001
 30
-23.0
 70
   192
  0
VERTEX
  5
4E9B
  8
0
 10
0.0
 20
0.0
 30
0.0
 70
   128
 71
     3
 72
     4
 73
    -1
  0
VERTEX
  5
4E9C
  8
0
 10
0.0
 20
0.0
 30
0.0
 70
   128
 71
     2
 72
    -3
 73
     1
  0
SEQEND
  5
5150
  8
0
  0
POLYLINE
  5
4E9D
  8
0
 66
     1
 10
0.0
 20
0.0
 30
0.0
 70
    64
 71
     4
 72
     2
  0
VERTEX
  5
4E9E
  8
0
 10
198.0
 20
240.0
 30
-10.0
 70
   192
  0
VERTEX
  5
4E9F
  8
0
 10
118.0
 20
240.0
 30
-10.0
 70
   192
  0
VERTEX
  5
4EA0
  8
0
 10
118.0
 20
300.0000000000001
 30
-10.0
 70
   192
  0
VERTEX
  5
4EA1
  8
0
 10
198.0
 20
300.0000000000001
 30
-10.0
 70
   192
  0
VERTEX
  5
4EA2
  8
0
 10
0.0
 20
0.0
 30
0.0
 70
   128
 71
     1
 72
     4
 73
    -3
  0
VERTEX
  5
4EA3
  8
0
 10
0.0
 20
0.0
 30
0.0
 70
   128
 71
    -1
 72
     3
 73
     2
  0
SEQEND
  5
5151
  8
0
  0
POLYLINE
  5
4EA4
  8
0
 66
     1
 10
0.0
 20
0.0
 30
0.0
 70
    64
 71
     4
 72
     2
  0
VERTEX
  5
4EA5
  8
0
 10
161.0
 20
295.0000000000001
 30
-20.0
 70
   192
  0
VERTEX
  5
4EA6
  8
0
 10
155.0
 20
295.0000000000001
 30
-20.0
 70
   192
  0
VERTEX
  5
4EA7
  8
0
 10
155.0
 20
295.0000000000001
 30
-23.0
 70
   192
  0
VERTEX
  5
4EA8
  8
0
 10
161.0
 20
295.0000000000001
 30
-23.0
 70
   192
  0
VERTEX
  5
4EA9
  8
0
 10
0.0
 20
0.0
 30
0.0
 70
   128
 71
     3
 72
     4
 73
    -1
  0
VERTEX
  5
4EAA
  8
0
 10
0.0
 20
0.0
 30
0.0
 70
   128
 71
     2
 72
    -3
 73
     1
  0
SEQEND
  5
5152
  8
0
  0
POLYLINE
  5
4EAB
  8
0
 66
     1
 10
0.0
 20
0.0
 30
0.0
 70
    64
 71
     4
 72
     2
  0
VERTEX
  5
4EAC
  8
0
 10
155.0000000000001
 20
295.0000000000001
 30
-20.0
 70
   192
  0
VERTEX
  5
4EAD
  8
0
 10
155.0000000000001
 20
275.0
 30
-20.0
 70
   192
  0
VERTEX
  5
4EAE
  8
0
 10
155.0000000000001
 20
275.0
 30
-23.0
 70
   192
  0
VERTEX
  5
4EAF
  8
0
 10
155.0000000000001
 20
295.0000000000001
 30
-23.0
 70
   192
  0
VERTEX
  5
4EB0
  8
0
 10
0.0
 20
0.0
 30
0.0
 70
   128
 71
     3
 72
     4
 73
    -1
  0
VERTEX
  5
4EB1
  8
0
 10
0.0
 20
0.0
 30
0.0
 70
   128
 71
     2
 72
    -3
 73
     1
  0
SEQEND
  5
5153
  8
0
  0
POLYLINE
  5
4EB2
  8
0
 66
     1
 10
0.0
 20
0.0
 30
0.0
 70
    64
 71
     6
 72
     4
  0
VERTEX
  5
4EB3
  8
0
 10
195.0
 20
275.0
 30
-20.0
 70
   192
  0
VERTEX
  5
4EB4
  8
0
 10
161.0
 20
275.0
 30
-20.0
 70
   192
  0
VERTEX
  5
4EB5
  8
0
 10
161.0
 20
275.0
 30
-23.0
 70
   192
  0
VERTEX
  5
4EB6
  8
0
 10
198.0
 20
275.0
 30
-23.0
 70
   192
  0
VERTEX
  5
4EB7
  8
0
 10
198.0
 20
275.0
 30
-13.0
 70
   192
  0
VERTEX
  5
4EB8
  8
0
 10
195.0
 20
275.0
 30
-13.0
 70
   192
  0
VERTEX
  5
4EB9
  8
0
 10
0.0
 20
0.0
 30
0.0
 70
   128
 71
     5
 72
     6
 73
    -1
  0
VERTEX
  5
4EBA
  8
0
 10
0.0
 20
0.0
 30
0.0
 70
   128
 71
     4
 72
    -5
 73
    -1
  0
VERTEX
  5
4EBB
  8
0
 10
0.0
 20
0.0
 30
0.0
 70
   128
 71
     2
 72
     3
 73
    -4
  0
VERTEX
  5
4EBC
  8
0
 10
0.0
 20
0.0
 30
0.0
 70
   128
 71
     1
 72
    -2
 73
    -4
  0
SEQEND
  5
5154
  8
0
  0
POLYLINE
  5
4EBD
  8
0
 66
     1
 10
0.0
 20
0.0
 30
0.0
 70
    64
 71
     4
 72
     2
  0
VERTEX
  5
4EBE
  8
0
 10
161.0
 20
275.0
 30
-20.0
 70
   192
  0
VERTEX
  5
4EBF
  8
0
 10
161.0
 20
295.0000000000001
 30
-20.0
 70
   192
  0
VERTEX
  5
4EC0
  8
0
 10
161.0
 20
295.0000000000001
 30
-23.0
 70
   192
  0
VERTEX
  5
4EC1
  8
0
 10
161.0
 20
275.0
 30
-23.0
 70
   192
  0
VERTEX
  5
4EC2
  8
0
 10
0.0
 20
0.0
 30
0.0
 70
   128
 71
     3
 72
     4
 73
    -1
  0
VERTEX
  5
4EC3
  8
0
 10
0.0
 20
0.0
 30
0.0
 70
   128
 71
     2
 72
    -3
 73
     1
  0
SEQEND
  5
5155
  8
0
  0
POLYLINE
  5
4EC4
  8
0
 66
     1
 10
0.0
 20
0.0
 30
0.0
 70
    64
 71
     8
 72
     6
  0
VERTEX
  5
4EC5
  8
0
 10
161.0
 20
295.0000000000001
 30
-23.0
 70
   192
  0
VERTEX
  5
4EC6
  8
0
 10
155.0
 20
295.0000000000001
 30
-23.0
 70
   192
  0
VERTEX
  5
4EC7
  8
0
 10
155.0000000000001
 20
275.0
 30
-23.0
 70
   192
  0
VERTEX
  5
4EC8
  8
0
 10
118.0
 20
275.0
 30
-23.0
 70
   192
  0
VERTEX
  5
4EC9
  8
0
 10
118.0
 20
300.0000000000001
 30
-23.0
 70
   192
  0
VERTEX
  5
4ECA
  8
0
 10
198.0
 20
300.0000000000001
 30
-23.0
 70
   192
  0
VERTEX
  5
4ECB
  8
0
 10
198.0
 20
275.0
 30
-23.0
 70
   192
  0
VERTEX
  5
4ECC
  8
0
 10
161.0
 20
275.0
 30
-23.0
 70
   192
  0
VERTEX
  5
4ECD
  8
0
 10
0.0
 20
0.0
 30
0.0
 70
   128
 71
     7
 72
     8
 73
    -1
  0
VERTEX
  5
4ECE
  8
0
 10
0.0
 20
0.0
 30
0.0
 70
   128
 71
     6
 72
    -7
 73
    -1
  0
VERTEX
  5
4ECF
  8
0
 10
0.0
 20
0.0
 30
0.0
 70
   128
 71
    -6
 72
     1
 73
    -2
  0
VERTEX
  5
4ED0
  8
0
 10
0.0
 20
0.0
 30
0.0
 70
   128
 71
     5
 72
    -6
 73
    -2
  0
VERTEX
  5
4ED1
  8
0
 10
0.0
 20
0.0
 30
0.0
 70
   128
 71
     3
 72
     4
 73
    -5
  0
VERTEX
  5
4ED2
  8
0
 10
0.0
 20
0.0
 30
0.0
 70
   128
 71
     2
 72
    -3
 73
    -5
  0
SEQEND
  5
5156
  8
0
  0
POLYLINE
  5
4ED3
  8
0
 66
     1
 10
0.0
 20
0.0
 30
0.0
 70
    64
 71
     4
 72
     2
  0
VERTEX
  5
4ED4
  8
0
 10
195.0
 20
275.0
 30
-13.0
 70
   192
  0
VERTEX
  5
4ED5
  8
0
 10
195.0
 20
297.0000000000001
 30
-13.0
 70
   192
  0
VERTEX
  5
4ED6
  8
0
 10
195.0
 20
297.0000000000001
 30
-20.0
 70
   192
  0
VERTEX
  5
4ED7
  8
0
 10
195.0
 20
275.0
 30
-20.0
 70
   192
  0
VERTEX
  5
4ED8
  8
0
 10
0.0
 20
0.0
 30
0.0
 70
   128
 71
     3
 72
     4
 73
    -1
  0
VERTEX
  5
4ED9
  8
0
 10
0.0
 20
0.0
 30
0.0
 70
   128
 71
     2
 72
    -3
 73
     1
  0
SEQEND
  5
5157
  8
0
  0
POLYLINE
  5
4EDA
  8
0
 66
     1
 10
0.0
 20
0.0
 30
0.0
 70
    64
 71
     4
 72
     2
  0
VERTEX
  5
4EDB
  8
0
 10
121.0
 20
275.0
 30
-13.0
 70
   192
  0
VERTEX
  5
4EDC
  8
0
 10
121.0
 20
297.0000000000001
 30
-13.0
 70
   192
  0
VERTEX
  5
4EDD
  8
0
 10
121.0
 20
297.0000000000001
 30
-20.0
 70
   192
  0
VERTEX
  5
4EDE
  8
0
 10
121.0
 20
275.0
 30
-20.0
 70
   192
  0
VERTEX
  5
4EDF
  8
0
 10
0.0
 20
0.0
 30
0.0
 70
   128
 71
     1
 72
     4
 73
    -3
  0
VERTEX
  5
4EE0
  8
0
 10
0.0
 20
0.0
 30
0.0
 70
   128
 71
    -1
 72
     3
 73
     2
  0
SEQEND
  5
5158
  8
0
  0
POLYLINE
  5
4EE1
  8
0
 66
     1
 10
0.0
 20
0.0
 30
0.0
 70
    64
 71
     4
 72
     2
  0
VERTEX
  5
4EE2
  8
0
 10
195.0
 20
297.0000000000001
 30
-13.0
 70
   192
  0
VERTEX
  5
4EE3
  8
0
 10
195.0
 20
297.0000000000001
 30
-20.0
 70
   192
  0
VERTEX
  5
4EE4
  8
0
 10
121.0
 20
297.0000000000001
 30
-20.0
 70
   192
  0
VERTEX
  5
4EE5
  8
0
 10
121.0
 20
297.0000000000001
 30
-13.0
 70
   192
  0
VERTEX
  5
4EE6
  8
0
 10
0.0
 20
0.0
 30
0.0
 70
   128
 71
     1
 72
     4
 73
    -3
  0
VERTEX
  5
4EE7
  8
0
 10
0.0
 20
0.0
 30
0.0
 70
   128
 71
    -1
 72
     3
 73
     2
  0
SEQEND
  5
5159
  8
0
  0
POLYLINE
  5
4EE8
  8
0
 66
     1
 10
0.0
 20
0.0
 30
0.0
 70
    64
 71
     8
 72
     6
  0
VERTEX
  5
4EE9
  8
0
 10
155.0000000000001
 20
295.0000000000001
 30
-20.0
 70
   192
  0
VERTEX
  5
4EEA
  8
0
 10
155.0000000000001
 20
275.0
 30
-20.0
 70
   192
  0
VERTEX
  5
4EEB
  8
0
 10
121.0
 20
275.0
 30
-20.0
 70
   192
  0
VERTEX
  5
4EEC
  8
0
 10
121.0
 20
297.0000000000001
 30
-20.0
 70
   192
  0
VERTEX
  5
4EED
  8
0
 10
195.0
 20
297.0000000000001
 30
-20.0
 70
   192
  0
VERTEX
  5
4EEE
  8
0
 10
195.0
 20
275.0
 30
-20.0
 70
   192
  0
VERTEX
  5
4EEF
  8
0
 10
161.0
 20
275.0
 30
-20.0
 70
   192
  0
VERTEX
  5
4EF0
  8
0
 10
161.0
 20
295.0000000000001
 30
-20.0
 70
   192
  0
VERTEX
  5
4EF1
  8
0
 10
0.0
 20
0.0
 30
0.0
 70
   128
 71
     8
 72
     7
 73
    -6
  0
VERTEX
  5
4EF2
  8
0
 10
0.0
 20
0.0
 30
0.0
 70
   128
 71
    -8
 72
     6
 73
    -5
  0
VERTEX
  5
4EF3
  8
0
 10
0.0
 20
0.0
 30
0.0
 70
   128
 71
    -5
 72
     1
 73
    -8
  0
VERTEX
  5
4EF4
  8
0
 10
0.0
 20
0.0
 30
0.0
 70
   128
 71
     5
 72
    -4
 73
    -1
  0
VERTEX
  5
4EF5
  8
0
 10
0.0
 20
0.0
 30
0.0
 70
   128
 71
     4
 72
     3
 73
    -2
  0
VERTEX
  5
4EF6
  8
0
 10
0.0
 20
0.0
 30
0.0
 70
   128
 71
    -4
 72
     2
 73
    -1
  0
SEQEND
  5
515A
  8
0
  0
ENDBLK
  5
514A
  8
0
  0
BLOCK
  8
0
  2
*X4
 70
     1
 10
0.0
 20
0.0
 30
0.0
  3
*X4
  1

  0
POLYLINE
  5
4EF8
  8
0
 66
     1
 10
0.0
 20
0.0
 30
0.0
 70
    64
 71
     6
 72
     4
  0
VERTEX
  5
4EF9
  8
0
 10
173.0
 20
202.98
 30
-20.0
 70
   192
  0
VERTEX
  5
4EFA
  8
0
 10
173.0000000000001
 20
236.98
 30
-20.0
 70
   192
  0
VERTEX
  5
4EFB
  8
0
 10
173.0000000000001
 20
236.98
 30
-13.0
 70
   192
  0
VERTEX
  5
4EFC
  8
0
 10
173.0000000000001
 20
239.98
 30
-13.0
 70
   192
  0
VERTEX
  5
4EFD
  8
0
 10
173.0000000000001
 20
239.98
 30
-23.0
 70
   192
  0
VERTEX
  5
4EFE
  8
0
 10
173.0
 20
202.98
 30
-23.0
 70
   192
  0
VERTEX
  5
4EFF
  8
0
 10
0.0
 20
0.0
 30
0.0
 70
   128
 71
     6
 72
     1
 73
    -2
  0
VERTEX
  5
4F00
  8
0
 10
0.0
 20
0.0
 30
0.0
 70
   128
 71
     5
 72
    -6
 73
    -2
  0
VERTEX
  5
4F01
  8
0
 10
0.0
 20
0.0
 30
0.0
 70
   128
 71
     3
 72
     4
 73
    -5
  0
VERTEX
  5
4F02
  8
0
 10
0.0
 20
0.0
 30
0.0
 70
   128
 71
     2
 72
    -3
 73
    -5
  0
SEQEND
  5
515D
  8
0
  0
POLYLINE
  5
4F03
  8
0
 66
     1
 10
0.0
 20
0.0
 30
0.0
 70
    64
 71
     6
 72
     4
  0
VERTEX
  5
4F04
  8
0
 10
138.0
 20
239.98
 30
-10.0
 70
   192
  0
VERTEX
  5
4F05
  8
0
 10
198.0
 20
239.98
 30
-10.0
 70
   192
  0
VERTEX
  5
4F06
  8
0
 10
198.0
 20
239.98
 30
-23.0
 70
   192
  0
VERTEX
  5
4F07
  8
0
 10
173.0000000000001
 20
239.98
 30
-23.0
 70
   192
  0
VERTEX
  5
4F08
  8
0
 10
173.0000000000001
 20
239.98
 30
-13.0
 70
   192
  0
VERTEX
  5
4F09
  8
0
 10
138.0
 20
239.98
 30
-13.0
 70
   192
  0
VERTEX
  5
4F0A
  8
0
 10
0.0
 20
0.0
 30
0.0
 70
   128
 71
     3
 72
     4
 73
    -5
  0
VERTEX
  5
4F0B
  8
0
 10
0.0
 20
0.0
 30
0.0
 70
   128
 71
     2
 72
    -3
 73
    -5
  0
VERTEX
  5
4F0C
  8
0
 10
0.0
 20
0.0
 30
0.0
 70
   128
 71
     6
 72
     1
 73
    -2
  0
VERTEX
  5
4F0D
  8
0
 10
0.0
 20
0.0
 30
0.0
 70
   128
 71
     5
 72
    -6
 73
    -2
  0
SEQEND
  5
515E
  8
0
  0
POLYLINE
  5
4F0E
  8
0
 66
     1
 10
0.0
 20
0.0
 30
0.0
 70
    64
 71
     4
 72
     2
  0
VERTEX
  5
4F0F
  8
0
 10
198.0
 20
239.98
 30
-10.0
 70
   192
  0
VERTEX
  5
4F10
  8
0
 10
198.0
 20
239.98
 30
-23.0
 70
   192
  0
VERTEX
  5
4F11
  8
0
 10
198.0
 20
160.0
 30
-23.0
 70
   192
  0
VERTEX
  5
4F12
  8
0
 10
198.0
 20
160.0
 30
-10.0
 70
   192
  0
VERTEX
  5
4F13
  8
0
 10
0.0
 20
0.0
 30
0.0
 70
   128
 71
     1
 72
     4
 73
    -3
  0
VERTEX
  5
4F14
  8
0
 10
0.0
 20
0.0
 30
0.0
 70
   128
 71
    -1
 72
     3
 73
     2
  0
SEQEND
  5
515F
  8
0
  0
POLYLINE
  5
4F15
  8
0
 66
     1
 10
0.0
 20
0.0
 30
0.0
 70
    64
 71
     6
 72
     4
  0
VERTEX
  5
4F16
  8
0
 10
198.0
 20
160.0
 30
-10.0
 70
   192
  0
VERTEX
  5
4F17
  8
0
 10
198.0
 20
160.0
 30
-23.0
 70
   192
  0
VERTEX
  5
4F18
  8
0
 10
173.0
 20
160.0
 30
-23.0
 70
   192
  0
VERTEX
  5
4F19
  8
0
 10
173.0
 20
160.0
 30
-13.0
 70
   192
  0
VERTEX
  5
4F1A
  8
0
 10
138.0
 20
160.0
 30
-13.0
 70
   192
  0
VERTEX
  5
4F1B
  8
0
 10
138.0
 20
160.0
 30
-10.0
 70
   192
  0
VERTEX
  5
4F1C
  8
0
 10
0.0
 20
0.0
 30
0.0
 70
   128
 71
     4
 72
     3
 73
    -2
  0
VERTEX
  5
4F1D
  8
0
 10
0.0
 20
0.0
 30
0.0
 70
   128
 71
    -4
 72
     2
 73
    -1
  0
VERTEX
  5
4F1E
  8
0
 10
0.0
 20
0.0
 30
0.0
 70
   128
 71
     1
 72
     6
 73
    -5
  0
VERTEX
  5
4F1F
  8
0
 10
0.0
 20
0.0
 30
0.0
 70
   128
 71
    -1
 72
     5
 73
    -4
  0
SEQEND
  5
5160
  8
0
  0
POLYLINE
  5
4F20
  8
0
 66
     1
 10
0.0
 20
0.0
 30
0.0
 70
    64
 71
     4
 72
     2
  0
VERTEX
  5
4F21
  8
0
 10
138.0
 20
160.0
 30
-10.0
 70
   192
  0
VERTEX
  5
4F22
  8
0
 10
138.0
 20
239.98
 30
-10.0
 70
   192
  0
VERTEX
  5
4F23
  8
0
 10
138.0
 20
239.98
 30
-13.0
 70
   192
  0
VERTEX
  5
4F24
  8
0
 10
138.0
 20
160.0
 30
-13.0
 70
   192
  0
VERTEX
  5
4F25
  8
0
 10
0.0
 20
0.0
 30
0.0
 70
   128
 71
     3
 72
     4
 73
    -1
  0
VERTEX
  5
4F26
  8
0
 10
0.0
 20
0.0
 30
0.0
 70
   128
 71
     2
 72
    -3
 73
     1
  0
SEQEND
  5
5161
  8
0
  0
POLYLINE
  5
4F27
  8
0
 66
     1
 10
0.0
 20
0.0
 30
0.0
 70
    64
 71
     8
 72
     6
  0
VERTEX
  5
4F28
  8
0
 10
173.0000000000001
 20
239.98
 30
-13.0
 70
   192
  0
VERTEX
  5
4F29
  8
0
 10
138.0
 20
239.98
 30
-13.0
 70
   192
  0
VERTEX
  5
4F2A
  8
0
 10
138.0
 20
160.0
 30
-13.0
 70
   192
  0
VERTEX
  5
4F2B
  8
0
 10
173.0
 20
160.0
 30
-13.0
 70
   192
  0
VERTEX
  5
4F2C
  8
0
 10
173.0000000000001
 20
163.0
 30
-13.0
 70
   192
  0
VERTEX
  5
4F2D
  8
0
 10
195.0
 20
163.0
 30
-13.0
 70
   192
  0
VERTEX
  5
4F2E
  8
0
 10
195.0
 20
236.98
 30
-13.0
 70
   192
  0
VERTEX
  5
4F2F
  8
0
 10
173.0000000000001
 20
236.98
 30
-13.0
 70
   192
  0
VERTEX
  5
4F30
  8
0
 10
0.0
 20
0.0
 30
0.0
 70
   128
 71
     5
 72
    -4
 73
    -8
  0
VERTEX
  5
4F31
  8
0
 10
0.0
 20
0.0
 30
0.0
 70
   128
 71
     8
 72
     7
 73
    -6
  0
VERTEX
  5
4F32
  8
0
 10
0.0
 20
0.0
 30
0.0
 70
   128
 71
    -8
 72
     6
 73
    -5
  0
VERTEX
  5
4F33
  8
0
 10
0.0
 20
0.0
 30
0.0
 70
   128
 71
     4
 72
     3
 73
    -2
  0
VERTEX
  5
4F34
  8
0
 10
0.0
 20
0.0
 30
0.0
 70
   128
 71
    -4
 72
    -2
 73
    -8
  0
VERTEX
  5
4F35
  8
0
 10
0.0
 20
0.0
 30
0.0
 70
   128
 71
     2
 72
     1
 73
    -8
  0
SEQEND
  5
5162
  8
0
  0
POLYLINE
  5
4F36
  8
0
 66
     1
 10
0.0
 20
0.0
 30
0.0
 70
    64
 71
     4
 72
     2
  0
VERTEX
  5
4F37
  8
0
 10
198.0
 20
239.98
 30
-10.0
 70
   192
  0
VERTEX
  5
4F38
  8
0
 10
138.0
 20
239.98
 30
-10.0
 70
   192
  0
VERTEX
  5
4F39
  8
0
 10
138.0
 20
160.0
 30
-10.0
 70
   192
  0
VERTEX
  5
4F3A
  8
0
 10
198.0
 20
160.0
 30
-10.0
 70
   192
  0
VERTEX
  5
4F3B
  8
0
 10
0.0
 20
0.0
 30
0.0
 70
   128
 71
     3
 72
     4
 73
    -1
  0
VERTEX
  5
4F3C
  8
0
 10
0.0
 20
0.0
 30
0.0
 70
   128
 71
     2
 72
    -3
 73
     1
  0
SEQEND
  5
5163
  8
0
  0
POLYLINE
  5
4F3D
  8
0
 66
     1
 10
0.0
 20
0.0
 30
0.0
 70
    64
 71
     4
 72
     2
  0
VERTEX
  5
4F3E
  8
0
 10
173.0
 20
197.0
 30
-20.0
 70
   192
  0
VERTEX
  5
4F3F
  8
0
 10
193.0
 20
197.0
 30
-20.0
 70
   192
  0
VERTEX
  5
4F40
  8
0
 10
193.0
 20
197.0
 30
-23.0
 70
   192
  0
VERTEX
  5
4F41
  8
0
 10
173.0
 20
197.0
 30
-23.0
 70
   192
  0
VERTEX
  5
4F42
  8
0
 10
0.0
 20
0.0
 30
0.0
 70
   128
 71
     3
 72
     4
 73
    -1
  0
VERTEX
  5
4F43
  8
0
 10
0.0
 20
0.0
 30
0.0
 70
   128
 71
     2
 72
    -3
 73
     1
  0
SEQEND
  5
5164
  8
0
  0
POLYLINE
  5
4F44
  8
0
 66
     1
 10
0.0
 20
0.0
 30
0.0
 70
    64
 71
     4
 72
     2
  0
VERTEX
  5
4F45
  8
0
 10
193.0
 20
197.0
 30
-20.0
 70
   192
  0
VERTEX
  5
4F46
  8
0
 10
193.0
 20
202.98
 30
-20.0
 70
   192
  0
VERTEX
  5
4F47
  8
0
 10
193.0
 20
202.98
 30
-23.0
 70
   192
  0
VERTEX
  5
4F48
  8
0
 10
193.0
 20
197.0
 30
-23.0
 70
   192
  0
VERTEX
  5
4F49
  8
0
 10
0.0
 20
0.0
 30
0.0
 70
   128
 71
     3
 72
     4
 73
    -1
  0
VERTEX
  5
4F4A
  8
0
 10
0.0
 20
0.0
 30
0.0
 70
   128
 71
     2
 72
    -3
 73
     1
  0
SEQEND
  5
5165
  8
0
  0
POLYLINE
  5
4F4B
  8
0
 66
     1
 10
0.0
 20
0.0
 30
0.0
 70
    64
 71
     4
 72
     2
  0
VERTEX
  5
4F4C
  8
0
 10
192.9999999999999
 20
202.98
 30
-20.0
 70
   192
  0
VERTEX
  5
4F4D
  8
0
 10
173.0
 20
202.98
 30
-20.0
 70
   192
  0
VERTEX
  5
4F4E
  8
0
 10
173.0
 20
202.98
 30
-23.0
 70
   192
  0
VERTEX
  5
4F4F
  8
0
 10
192.9999999999999
 20
202.98
 30
-23.0
 70
   192
  0
VERTEX
  5
4F50
  8
0
 10
0.0
 20
0.0
 30
0.0
 70
   128
 71
     3
 72
     4
 73
    -1
  0
VERTEX
  5
4F51
  8
0
 10
0.0
 20
0.0
 30
0.0
 70
   128
 71
     2
 72
    -3
 73
     1
  0
SEQEND
  5
5166
  8
0
  0
POLYLINE
  5
4F52
  8
0
 66
     1
 10
0.0
 20
0.0
 30
0.0
 70
    64
 71
     6
 72
     4
  0
VERTEX
  5
4F53
  8
0
 10
173.0
 20
163.0
 30
-13.0
 70
   192
  0
VERTEX
  5
4F54
  8
0
 10
173.0
 20
163.0
 30
-20.0
 70
   192
  0
VERTEX
  5
4F55
  8
0
 10
173.0
 20
197.0
 30
-20.0
 70
   192
  0
VERTEX
  5
4F56
  8
0
 10
173.0
 20
197.0
 30
-23.0
 70
   192
  0
VERTEX
  5
4F57
  8
0
 10
173.0
 20
160.0
 30
-23.0
 70
   192
  0
VERTEX
  5
4F58
  8
0
 10
173.0
 20
160.0
 30
-13.0
 70
   192
  0
VERTEX
  5
4F59
  8
0
 10
0.0
 20
0.0
 30
0.0
 70
   128
 71
     6
 72
     1
 73
    -2
  0
VERTEX
  5
4F5A
  8
0
 10
0.0
 20
0.0
 30
0.0
 70
   128
 71
     5
 72
    -6
 73
    -2
  0
VERTEX
  5
4F5B
  8
0
 10
0.0
 20
0.0
 30
0.0
 70
   128
 71
     3
 72
     4
 73
    -5
  0
VERTEX
  5
4F5C
  8
0
 10
0.0
 20
0.0
 30
0.0
 70
   128
 71
     2
 72
    -3
 73
    -5
  0
SEQEND
  5
5167
  8
0
  0
POLYLINE
  5
4F5D
  8
0
 66
     1
 10
0.0
 20
0.0
 30
0.0
 70
    64
 71
     8
 72
     6
  0
VERTEX
  5
4F5E
  8
0
 10
173.0
 20
197.0
 30
-23.0
 70
   192
  0
VERTEX
  5
4F5F
  8
0
 10
173.0000000000001
 20
160.0
 30
-23.0
 70
   192
  0
VERTEX
  5
4F60
  8
0
 10
198.0
 20
160.0
 30
-23.0
 70
   192
  0
VERTEX
  5
4F61
  8
0
 10
198.0
 20
239.98
 30
-23.0
 70
   192
  0
VERTEX
  5
4F62
  8
0
 10
173.0000000000001
 20
239.98
 30
-23.0
 70
   192
  0
VERTEX
  5
4F63
  8
0
 10
173.0
 20
202.98
 30
-23.0
 70
   192
  0
VERTEX
  5
4F64
  8
0
 10
193.0
 20
202.98
 30
-23.0
 70
   192
  0
VERTEX
  5
4F65
  8
0
 10
193.0
 20
197.0
 30
-23.0
 70
   192
  0
VERTEX
  5
4F66
  8
0
 10
0.0
 20
0.0
 30
0.0
 70
   128
 71
     7
 72
     6
 73
    -5
  0
VERTEX
  5
4F67
  8
0
 10
0.0
 20
0.0
 30
0.0
 70
   128
 71
    -7
 72
     5
 73
    -4
  0
VERTEX
  5
4F68
  8
0
 10
0.0
 20
0.0
 30
0.0
 70
   128
 71
     4
 72
    -3
 73
    -8
  0
VERTEX
  5
4F69
  8
0
 10
0.0
 20
0.0
 30
0.0
 70
   128
 71
    -4
 72
     8
 73
    -7
  0
VERTEX
  5
4F6A
  8
0
 10
0.0
 20
0.0
 30
0.0
 70
   128
 71
     3
 72
     2
 73
    -1
  0
VERTEX
  5
4F6B
  8
0
 10
0.0
 20
0.0
 30
0.0
 70
   128
 71
    -3
 72
     1
 73
    -8
  0
SEQEND
  5
5168
  8
0
  0
POLYLINE
  5
4F6C
  8
0
 66
     1
 10
0.0
 20
0.0
 30
0.0
 70
    64
 71
     4
 72
     2
  0
VERTEX
  5
4F6D
  8
0
 10
173.0000000000001
 20
236.98
 30
-13.0
 70
   192
  0
VERTEX
  5
4F6E
  8
0
 10
195.0
 20
236.98
 30
-13.0
 70
   192
  0
VERTEX
  5
4F6F
  8
0
 10
195.0
 20
236.98
 30
-20.0
 70
   192
  0
VERTEX
  5
4F70
  8
0
 10
173.0000000000001
 20
236.98
 30
-20.0
 70
   192
  0
VERTEX
  5
4F71
  8
0
 10
0.0
 20
0.0
 30
0.0
 70
   128
 71
     1
 72
     4
 73
    -3
  0
VERTEX
  5
4F72
  8
0
 10
0.0
 20
0.0
 30
0.0
 70
   128
 71
    -1
 72
     3
 73
     2
  0
SEQEND
  5
5169
  8
0
  0
POLYLINE
  5
4F73
  8
0
 66
     1
 10
0.0
 20
0.0
 30
0.0
 70
    64
 71
     4
 72
     2
  0
VERTEX
  5
4F74
  8
0
 10
195.0
 20
163.0
 30
-13.0
 70
   192
  0
VERTEX
  5
4F75
  8
0
 10
195.0
 20
236.98
 30
-13.0
 70
   192
  0
VERTEX
  5
4F76
  8
0
 10
195.0
 20
236.98
 30
-20.0
 70
   192
  0
VERTEX
  5
4F77
  8
0
 10
195.0
 20
163.0
 30
-20.0
 70
   192
  0
VERTEX
  5
4F78
  8
0
 10
0.0
 20
0.0
 30
0.0
 70
   128
 71
     3
 72
     4
 73
    -1
  0
VERTEX
  5
4F79
  8
0
 10
0.0
 20
0.0
 30
0.0
 70
   128
 71
     2
 72
    -3
 73
     1
  0
SEQEND
  5
516A
  8
0
  0
POLYLINE
  5
4F7A
  8
0
 66
     1
 10
0.0
 20
0.0
 30
0.0
 70
    64
 71
     4
 72
     2
  0
VERTEX
  5
4F7B
  8
0
 10
173.0000000000001
 20
163.0
 30
-13.0
 70
   192
  0
VERTEX
  5
4F7C
  8
0
 10
195.0
 20
163.0
 30
-13.0
 70
   192
  0
VERTEX
  5
4F7D
  8
0
 10
195.0
 20
163.0
 30
-20.0
 70
   192
  0
VERTEX
  5
4F7E
  8
0
 10
173.0
 20
163.0
 30
-20.0
 70
   192
  0
VERTEX
  5
4F7F
  8
0
 10
0.0
 20
0.0
 30
0.0
 70
   128
 71
     3
 72
     4
 73
    -1
  0
VERTEX
  5
4F80
  8
0
 10
0.0
 20
0.0
 30
0.0
 70
   128
 71
     2
 72
    -3
 73
     1
  0
SEQEND
  5
516B
  8
0
  0
POLYLINE
  5
4F81
  8
0
 66
     1
 10
0.0
 20
0.0
 30
0.0
 70
    64
 71
     8
 72
     6
  0
VERTEX
  5
4F82
  8
0
 10
193.0
 20
197.0
 30
-20.0
 70
   192
  0
VERTEX
  5
4F83
  8
0
 10
173.0
 20
197.0
 30
-20.0
 70
   192
  0
VERTEX
  5
4F84
  8
0
 10
173.0
 20
163.0
 30
-20.0
 70
   192
  0
VERTEX
  5
4F85
  8
0
 10
195.0
 20
163.0
 30
-20.0
 70
   192
  0
VERTEX
  5
4F86
  8
0
 10
195.0
 20
236.98
 30
-20.0
 70
   192
  0
VERTEX
  5
4F87
  8
0
 10
173.0000000000001
 20
236.98
 30
-20.0
 70
   192
  0
VERTEX
  5
4F88
  8
0
 10
173.0
 20
202.98
 30
-20.0
 70
   192
  0
VERTEX
  5
4F89
  8
0
 10
192.9999999999999
 20
202.98
 30
-20.0
 70
   192
  0
VERTEX
  5
4F8A
  8
0
 10
0.0
 20
0.0
 30
0.0
 70
   128
 71
     6
 72
     7
 73
    -8
  0
VERTEX
  5
4F8B
  8
0
 10
0.0
 20
0.0
 30
0.0
 70
   128
 71
     5
 72
    -6
 73
    -8
  0
VERTEX
  5
4F8C
  8
0
 10
0.0
 20
0.0
 30
0.0
 70
   128
 71
     8
 72
    -1
 73
    -5
  0
VERTEX
  5
4F8D
  8
0
 10
0.0
 20
0.0
 30
0.0
 70
   128
 71
    -1
 72
     4
 73
    -5
  0
VERTEX
  5
4F8E
  8
0
 10
0.0
 20
0.0
 30
0.0
 70
   128
 71
     2
 72
     3
 73
    -4
  0
VERTEX
  5
4F8F
  8
0
 10
0.0
 20
0.0
 30
0.0
 70
   128
 71
     1
 72
    -2
 73
    -4
  0
SEQEND
  5
516C
  8
0
  0
ENDBLK
  5
515C
  8
0
  0
BLOCK
  8
0
  2
*X5
 70
     1
 10
0.0
 20
0.0
 30
0.0
  3
*X5
  1

  0
POLYLINE
  5
4F91
  8
0
 66
     1
 10
0.0
 20
0.0
 30
0.0
 70
    64
 71
     6
 72
     4
  0
VERTEX
  5
4F92
  8
0
 10
-121.0
 20
275.0
 30
-13.0
 70
   192
  0
VERTEX
  5
4F93
  8
0
 10
-118.0
 20
275.0
 30
-13.0
 70
   192
  0
VERTEX
  5
4F94
  8
0
 10
-118.0
 20
275.0
 30
-23.0
 70
   192
  0
VERTEX
  5
4F95
  8
0
 10
-155.0000000000001
 20
275.0
 30
-23.0
 70
   192
  0
VERTEX
  5
4F96
  8
0
 10
-155.0000000000001
 20
275.0
 30
-20.0
 70
   192
  0
VERTEX
  5
4F97
  8
0
 10
-121.0
 20
275.0
 30
-20.0
 70
   192
  0
VERTEX
  5
4F98
  8
0
 10
0.0
 20
0.0
 30
0.0
 70
   128
 71
     6
 72
     5
 73
    -4
  0
VERTEX
  5
4F99
  8
0
 10
0.0
 20
0.0
 30
0.0
 70
   128
 71
    -6
 72
     4
 73
    -3
  0
VERTEX
  5
4F9A
  8
0
 10
0.0
 20
0.0
 30
0.0
 70
   128
 71
     3
 72
     2
 73
    -1
  0
VERTEX
  5
4F9B
  8
0
 10
0.0
 20
0.0
 30
0.0
 70
   128
 71
    -3
 72
     1
 73
    -6
  0
SEQEND
  5
516F
  8
0
  0
POLYLINE
  5
4F9C
  8
0
 66
     1
 10
0.0
 20
0.0
 30
0.0
 70
    64
 71
     6
 72
     4
  0
VERTEX
  5
4F9D
  8
0
 10
-118.0
 20
300.0000000000001
 30
-10.0
 70
   192
  0
VERTEX
  5
4F9E
  8
0
 10
-118.0
 20
300.0000000000001
 30
-23.0
 70
   192
  0
VERTEX
  5
4F9F
  8
0
 10
-118.0
 20
275.0
 30
-23.0
 70
   192
  0
VERTEX
  5
4FA0
  8
0
 10
-118.0
 20
275.0
 30
-13.0
 70
   192
  0
VERTEX
  5
4FA1
  8
0
 10
-118.0
 20
240.0
 30
-13.0
 70
   192
  0
VERTEX
  5
4FA2
  8
0
 10
-118.0
 20
240.0
 30
-10.0
 70
   192
  0
VERTEX
  5
4FA3
  8
0
 10
0.0
 20
0.0
 30
0.0
 70
   128
 71
     4
 72
     3
 73
    -2
  0
VERTEX
  5
4FA4
  8
0
 10
0.0
 20
0.0
 30
0.0
 70
   128
 71
    -4
 72
     2
 73
    -1
  0
VERTEX
  5
4FA5
  8
0
 10
0.0
 20
0.0
 30
0.0
 70
   128
 71
     1
 72
     6
 73
    -5
  0
VERTEX
  5
4FA6
  8
0
 10
0.0
 20
0.0
 30
0.0
 70
   128
 71
    -1
 72
     5
 73
    -4
  0
SEQEND
  5
5170
  8
0
  0
POLYLINE
  5
4FA7
  8
0
 66
     1
 10
0.0
 20
0.0
 30
0.0
 70
    64
 71
     4
 72
     2
  0
VERTEX
  5
4FA8
  8
0
 10
-118.0
 20
240.0
 30
-10.0
 70
   192
  0
VERTEX
  5
4FA9
  8
0
 10
-118.0
 20
240.0
 30
-13.0
 70
   192
  0
VERTEX
  5
4FAA
  8
0
 10
-198.0
 20
240.0
 30
-13.0
 70
   192
  0
VERTEX
  5
4FAB
  8
0
 10
-198.0
 20
240.0
 30
-10.0
 70
   192
  0
VERTEX
  5
4FAC
  8
0
 10
0.0
 20
0.0
 30
0.0
 70
   128
 71
     1
 72
     4
 73
    -3
  0
VERTEX
  5
4FAD
  8
0
 10
0.0
 20
0.0
 30
0.0
 70
   128
 71
    -1
 72
     3
 73
     2
  0
SEQEND
  5
5171
  8
0
  0
POLYLINE
  5
4FAE
  8
0
 66
     1
 10
0.0
 20
0.0
 30
0.0
 70
    64
 71
     6
 72
     4
  0
VERTEX
  5
4FAF
  8
0
 10
-198.0
 20
240.0
 30
-10.0
 70
   192
  0
VERTEX
  5
4FB0
  8
0
 10
-198.0
 20
300.0000000000001
 30
-10.0
 70
   192
  0
VERTEX
  5
4FB1
  8
0
 10
-198.0
 20
300.0000000000001
 30
-23.0
 70
   192
  0
VERTEX
  5
4FB2
  8
0
 10
-198.0
 20
275.0
 30
-23.0
 70
   192
  0
VERTEX
  5
4FB3
  8
0
 10
-198.0
 20
275.0
 30
-13.0
 70
   192
  0
VERTEX
  5
4FB4
  8
0
 10
-198.0
 20
240.0
 30
-13.0
 70
   192
  0
VERTEX
  5
4FB5
  8
0
 10
0.0
 20
0.0
 30
0.0
 70
   128
 71
     3
 72
     4
 73
    -5
  0
VERTEX
  5
4FB6
  8
0
 10
0.0
 20
0.0
 30
0.0
 70
   128
 71
     2
 72
    -3
 73
    -5
  0
VERTEX
  5
4FB7
  8
0
 10
0.0
 20
0.0
 30
0.0
 70
   128
 71
     6
 72
     1
 73
    -2
  0
VERTEX
  5
4FB8
  8
0
 10
0.0
 20
0.0
 30
0.0
 70
   128
 71
     5
 72
    -6
 73
    -2
  0
SEQEND
  5
5172
  8
0
  0
POLYLINE
  5
4FB9
  8
0
 66
     1
 10
0.0
 20
0.0
 30
0.0
 70
    64
 71
     4
 72
     2
  0
VERTEX
  5
4FBA
  8
0
 10
-198.0
 20
300.0000000000001
 30
-10.0
 70
   192
  0
VERTEX
  5
4FBB
  8
0
 10
-118.0
 20
300.0000000000001
 30
-10.0
 70
   192
  0
VERTEX
  5
4FBC
  8
0
 10
-118.0
 20
300.0000000000001
 30
-23.0
 70
   192
  0
VERTEX
  5
4FBD
  8
0
 10
-198.0
 20
300.0000000000001
 30
-23.0
 70
   192
  0
VERTEX
  5
4FBE
  8
0
 10
0.0
 20
0.0
 30
0.0
 70
   128
 71
     3
 72
     4
 73
    -1
  0
VERTEX
  5
4FBF
  8
0
 10
0.0
 20
0.0
 30
0.0
 70
   128
 71
     2
 72
    -3
 73
     1
  0
SEQEND
  5
5173
  8
0
  0
POLYLINE
  5
4FC0
  8
0
 66
     1
 10
0.0
 20
0.0
 30
0.0
 70
    64
 71
     8
 72
     6
  0
VERTEX
  5
4FC1
  8
0
 10
-198.0
 20
275.0
 30
-13.0
 70
   192
  0
VERTEX
  5
4FC2
  8
0
 10
-195.0
 20
275.0
 30
-13.0
 70
   192
  0
VERTEX
  5
4FC3
  8
0
 10
-195.0
 20
297.0000000000001
 30
-13.0
 70
   192
  0
VERTEX
  5
4FC4
  8
0
 10
-121.0
 20
297.0000000000001
 30
-13.0
 70
   192
  0
VERTEX
  5
4FC5
  8
0
 10
-121.0
 20
275.0
 30
-13.0
 70
   192
  0
VERTEX
  5
4FC6
  8
0
 10
-118.0
 20
275.0
 30
-13.0
 70
   192
  0
VERTEX
  5
4FC7
  8
0
 10
-118.0
 20
240.0
 30
-13.0
 70
   192
  0
VERTEX
  5
4FC8
  8
0
 10
-198.0
 20
240.0
 30
-13.0
 70
   192
  0
VERTEX
  5
4FC9
  8
0
 10
0.0
 20
0.0
 30
0.0
 70
   128
 71
     8
 72
     1
 73
    -2
  0
VERTEX
  5
4FCA
  8
0
 10
0.0
 20
0.0
 30
0.0
 70
   128
 71
    -5
 72
    -8
 73
    -2
  0
VERTEX
  5
4FCB
  8
0
 10
0.0
 20
0.0
 30
0.0
 70
   128
 71
     3
 72
     4
 73
    -5
  0
VERTEX
  5
4FCC
  8
0
 10
0.0
 20
0.0
 30
0.0
 70
   128
 71
     2
 72
    -3
 73
    -5
  0
VERTEX
  5
4FCD
  8
0
 10
0.0
 20
0.0
 30
0.0
 70
   128
 71
    -5
 72
     7
 73
    -8
  0
VERTEX
  5
4FCE
  8
0
 10
0.0
 20
0.0
 30
0.0
 70
   128
 71
     5
 72
     6
 73
    -7
  0
SEQEND
  5
5174
  8
0
  0
POLYLINE
  5
4FCF
  8
0
 66
     1
 10
0.0
 20
0.0
 30
0.0
 70
    64
 71
     4
 72
     2
  0
VERTEX
  5
4FD0
  8
0
 10
-118.0
 20
240.0
 30
-10.0
 70
   192
  0
VERTEX
  5
4FD1
  8
0
 10
-198.0
 20
240.0
 30
-10.0
 70
   192
  0
VERTEX
  5
4FD2
  8
0
 10
-198.0
 20
300.0000000000001
 30
-10.0
 70
   192
  0
VERTEX
  5
4FD3
  8
0
 10
-118.0
 20
300.0000000000001
 30
-10.0
 70
   192
  0
VERTEX
  5
4FD4
  8
0
 10
0.0
 20
0.0
 30
0.0
 70
   128
 71
     1
 72
     4
 73
    -3
  0
VERTEX
  5
4FD5
  8
0
 10
0.0
 20
0.0
 30
0.0
 70
   128
 71
    -1
 72
     3
 73
     2
  0
SEQEND
  5
5175
  8
0
  0
POLYLINE
  5
4FD6
  8
0
 66
     1
 10
0.0
 20
0.0
 30
0.0
 70
    64
 71
     4
 72
     2
  0
VERTEX
  5
4FD7
  8
0
 10
-161.0
 20
295.0000000000001
 30
-23.0
 70
   192
  0
VERTEX
  5
4FD8
  8
0
 10
-161.0
 20
275.0
 30
-23.0
 70
   192
  0
VERTEX
  5
4FD9
  8
0
 10
-161.0
 20
275.0
 30
-20.0
 70
   192
  0
VERTEX
  5
4FDA
  8
0
 10
-161.0
 20
295.0000000000001
 30
-20.0
 70
   192
  0
VERTEX
  5
4FDB
  8
0
 10
0.0
 20
0.0
 30
0.0
 70
   128
 71
     1
 72
     4
 73
    -3
  0
VERTEX
  5
4FDC
  8
0
 10
0.0
 20
0.0
 30
0.0
 70
   128
 71
    -1
 72
     3
 73
     2
  0
SEQEND
  5
5176
  8
0
  0
POLYLINE
  5
4FDD
  8
0
 66
     1
 10
0.0
 20
0.0
 30
0.0
 70
    64
 71
     6
 72
     4
  0
VERTEX
  5
4FDE
  8
0
 10
-161.0
 20
275.0
 30
-20.0
 70
   192
  0
VERTEX
  5
4FDF
  8
0
 10
-161.0
 20
275.0
 30
-23.0
 70
   192
  0
VERTEX
  5
4FE0
  8
0
 10
-198.0
 20
275.0
 30
-23.0
 70
   192
  0
VERTEX
  5
4FE1
  8
0
 10
-198.0
 20
275.0
 30
-13.0
 70
   192
  0
VERTEX
  5
4FE2
  8
0
 10
-195.0
 20
275.0
 30
-13.0
 70
   192
  0
VERTEX
  5
4FE3
  8
0
 10
-195.0
 20
275.0
 30
-20.0
 70
   192
  0
VERTEX
  5
4FE4
  8
0
 10
0.0
 20
0.0
 30
0.0
 70
   128
 71
     6
 72
     5
 73
    -4
  0
VERTEX
  5
4FE5
  8
0
 10
0.0
 20
0.0
 30
0.0
 70
   128
 71
    -6
 72
     4
 73
    -3
  0
VERTEX
  5
4FE6
  8
0
 10
0.0
 20
0.0
 30
0.0
 70
   128
 71
     3
 72
     2
 73
    -1
  0
VERTEX
  5
4FE7
  8
0
 10
0.0
 20
0.0
 30
0.0
 70
   128
 71
    -3
 72
     1
 73
    -6
  0
SEQEND
  5
5177
  8
0
  0
POLYLINE
  5
4FE8
  8
0
 66
     1
 10
0.0
 20
0.0
 30
0.0
 70
    64
 71
     4
 72
     2
  0
VERTEX
  5
4FE9
  8
0
 10
-155.0000000000001
 20
275.0
 30
-23.0
 70
   192
  0
VERTEX
  5
4FEA
  8
0
 10
-155.0
 20
295.0000000000001
 30
-23.0
 70
   192
  0
VERTEX
  5
4FEB
  8
0
 10
-155.0000000000001
 20
295.0000000000001
 30
-20.0
 70
   192
  0
VERTEX
  5
4FEC
  8
0
 10
-155.0000000000001
 20
275.0
 30
-20.0
 70
   192
  0
VERTEX
  5
4FED
  8
0
 10
0.0
 20
0.0
 30
0.0
 70
   128
 71
     1
 72
     4
 73
    -3
  0
VERTEX
  5
4FEE
  8
0
 10
0.0
 20
0.0
 30
0.0
 70
   128
 71
    -1
 72
     3
 73
     2
  0
SEQEND
  5
5178
  8
0
  0
POLYLINE
  5
4FEF
  8
0
 66
     1
 10
0.0
 20
0.0
 30
0.0
 70
    64
 71
     4
 72
     2
  0
VERTEX
  5
4FF0
  8
0
 10
-155.0
 20
295.0000000000001
 30
-23.0
 70
   192
  0
VERTEX
  5
4FF1
  8
0
 10
-161.0
 20
295.0000000000001
 30
-23.0
 70
   192
  0
VERTEX
  5
4FF2
  8
0
 10
-161.0
 20
295.0000000000001
 30
-20.0
 70
   192
  0
VERTEX
  5
4FF3
  8
0
 10
-155.0
 20
295.0000000000001
 30
-20.0
 70
   192
  0
VERTEX
  5
4FF4
  8
0
 10
0.0
 20
0.0
 30
0.0
 70
   128
 71
     1
 72
     4
 73
    -3
  0
VERTEX
  5
4FF5
  8
0
 10
0.0
 20
0.0
 30
0.0
 70
   128
 71
    -1
 72
     3
 73
     2
  0
SEQEND
  5
5179
  8
0
  0
POLYLINE
  5
4FF6
  8
0
 66
     1
 10
0.0
 20
0.0
 30
0.0
 70
    64
 71
     8
 72
     6
  0
VERTEX
  5
4FF7
  8
0
 10
-161.0
 20
295.0000000000001
 30
-23.0
 70
   192
  0
VERTEX
  5
4FF8
  8
0
 10
-161.0
 20
275.0
 30
-23.0
 70
   192
  0
VERTEX
  5
4FF9
  8
0
 10
-198.0
 20
275.0
 30
-23.0
 70
   192
  0
VERTEX
  5
4FFA
  8
0
 10
-198.0
 20
300.0000000000001
 30
-23.0
 70
   192
  0
VERTEX
  5
4FFB
  8
0
 10
-118.0
 20
300.0000000000001
 30
-23.0
 70
   192
  0
VERTEX
  5
4FFC
  8
0
 10
-118.0
 20
275.0
 30
-23.0
 70
   192
  0
VERTEX
  5
4FFD
  8
0
 10
-155.0000000000001
 20
275.0
 30
-23.0
 70
   192
  0
VERTEX
  5
4FFE
  8
0
 10
-155.0000000000001
 20
295.0000000000001
 30
-23.0
 70
   192
  0
VERTEX
  5
4FFF
  8
0
 10
0.0
 20
0.0
 30
0.0
 70
   128
 71
     6
 72
     7
 73
    -8
  0
VERTEX
  5
5000
  8
0
 10
0.0
 20
0.0
 30
0.0
 70
   128
 71
     5
 72
    -6
 73
    -8
  0
VERTEX
  5
5001
  8
0
 10
0.0
 20
0.0
 30
0.0
 70
   128
 71
    -1
 72
     4
 73
    -5
  0
VERTEX
  5
5002
  8
0
 10
0.0
 20
0.0
 30
0.0
 70
   128
 71
     8
 72
    -1
 73
    -5
  0
VERTEX
  5
5003
  8
0
 10
0.0
 20
0.0
 30
0.0
 70
   128
 71
     2
 72
     3
 73
    -4
  0
VERTEX
  5
5004
  8
0
 10
0.0
 20
0.0
 30
0.0
 70
   128
 71
     1
 72
    -2
 73
    -4
  0
SEQEND
  5
517A
  8
0
  0
POLYLINE
  5
5005
  8
0
 66
     1
 10
0.0
 20
0.0
 30
0.0
 70
    64
 71
     4
 72
     2
  0
VERTEX
  5
5006
  8
0
 10
-121.0
 20
275.0
 30
-13.0
 70
   192
  0
VERTEX
  5
5007
  8
0
 10
-121.0
 20
297.0000000000001
 30
-13.0
 70
   192
  0
VERTEX
  5
5008
  8
0
 10
-121.0
 20
297.0000000000001
 30
-20.0
 70
   192
  0
VERTEX
  5
5009
  8
0
 10
-121.0
 20
275.0
 30
-20.0
 70
   192
  0
VERTEX
  5
500A
  8
0
 10
0.0
 20
0.0
 30
0.0
 70
   128
 71
     3
 72
     4
 73
    -1
  0
VERTEX
  5
500B
  8
0
 10
0.0
 20
0.0
 30
0.0
 70
   128
 71
     2
 72
    -3
 73
     1
  0
SEQEND
  5
517B
  8
0
  0
POLYLINE
  5
500C
  8
0
 66
     1
 10
0.0
 20
0.0
 30
0.0
 70
    64
 71
     4
 72
     2
  0
VERTEX
  5
500D
  8
0
 10
-195.0
 20
275.0
 30
-13.0
 70
   192
  0
VERTEX
  5
500E
  8
0
 10
-195.0
 20
297.0000000000001
 30
-13.0
 70
   192
  0
VERTEX
  5
500F
  8
0
 10
-195.0
 20
297.0000000000001
 30
-20.0
 70
   192
  0
VERTEX
  5
5010
  8
0
 10
-195.0
 20
275.0
 30
-20.0
 70
   192
  0
VERTEX
  5
5011
  8
0
 10
0.0
 20
0.0
 30
0.0
 70
   128
 71
     1
 72
     4
 73
    -3
  0
VERTEX
  5
5012
  8
0
 10
0.0
 20
0.0
 30
0.0
 70
   128
 71
    -1
 72
     3
 73
     2
  0
SEQEND
  5
517C
  8
0
  0
POLYLINE
  5
5013
  8
0
 66
     1
 10
0.0
 20
0.0
 30
0.0
 70
    64
 71
     4
 72
     2
  0
VERTEX
  5
5014
  8
0
 10
-121.0
 20
297.0000000000001
 30
-13.0
 70
   192
  0
VERTEX
  5
5015
  8
0
 10
-121.0
 20
297.0000000000001
 30
-20.0
 70
   192
  0
VERTEX
  5
5016
  8
0
 10
-195.0
 20
297.0000000000001
 30
-20.0
 70
   192
  0
VERTEX
  5
5017
  8
0
 10
-195.0
 20
297.0000000000001
 30
-13.0
 70
   192
  0
VERTEX
  5
5018
  8
0
 10
0.0
 20
0.0
 30
0.0
 70
   128
 71
     1
 72
     4
 73
    -3
  0
VERTEX
  5
5019
  8
0
 10
0.0
 20
0.0
 30
0.0
 70
   128
 71
    -1
 72
     3
 73
     2
  0
SEQEND
  5
517D
  8
0
  0
POLYLINE
  5
501A
  8
0
 66
     1
 10
0.0
 20
0.0
 30
0.0
 70
    64
 71
     8
 72
     6
  0
VERTEX
  5
501B
  8
0
 10
-161.0
 20
275.0
 30
-20.0
 70
   192
  0
VERTEX
  5
501C
  8
0
 10
-195.0
 20
275.0
 30
-20.0
 70
   192
  0
VERTEX
  5
501D
  8
0
 10
-195.0
 20
297.0000000000001
 30
-20.0
 70
   192
  0
VERTEX
  5
501E
  8
0
 10
-121.0
 20
297.0000000000001
 30
-20.0
 70
   192
  0
VERTEX
  5
501F
  8
0
 10
-121.0
 20
275.0
 30
-20.0
 70
   192
  0
VERTEX
  5
5020
  8
0
 10
-155.0000000000001
 20
275.0
 30
-20.0
 70
   192
  0
VERTEX
  5
5021
  8
0
 10
-155.0
 20
295.0000000000001
 30
-20.0
 70
   192
  0
VERTEX
  5
5022
  8
0
 10
-161.0
 20
295.0000000000001
 30
-20.0
 70
   192
  0
VERTEX
  5
5023
  8
0
 10
0.0
 20
0.0
 30
0.0
 70
   128
 71
     7
 72
     6
 73
    -5
  0
VERTEX
  5
5024
  8
0
 10
0.0
 20
0.0
 30
0.0
 70
   128
 71
    -7
 72
     5
 73
    -4
  0
VERTEX
  5
5025
  8
0
 10
0.0
 20
0.0
 30
0.0
 70
   128
 71
    -4
 72
     8
 73
    -7
  0
VERTEX
  5
5026
  8
0
 10
0.0
 20
0.0
 30
0.0
 70
   128
 71
     4
 72
    -3
 73
    -8
  0
VERTEX
  5
5027
  8
0
 10
0.0
 20
0.0
 30
0.0
 70
   128
 71
     3
 72
     2
 73
    -1
  0
VERTEX
  5
5028
  8
0
 10
0.0
 20
0.0
 30
0.0
 70
   128
 71
    -3
 72
     1
 73
    -8
  0
SEQEND
  5
517E
  8
0
  0
ENDBLK
  5
516E
  8
0
  0
BLOCK
  8
0
  2
*X6
 70
     1
 10
0.0
 20
0.0
 30
0.0
  3
*X6
  1

  0
POLYLINE
  5
502A
  8
0
 66
     1
 10
0.0
 20
0.0
 30
0.0
 70
    64
 71
    10
 72
     8
  0
VERTEX
  5
502B
  8
0
 10
147.9999999999999
 20
-34.99999999999999
 30
-11.50000000000001
 70
   192
  0
VERTEX
  5
502C
  8
0
 10
147.9999999999999
 20
-34.99999999999999
 30
-18.49999999999999
 70
   192
  0
VERTEX
  5
502D
  8
0
 10
147.9999999999999
 20
-30.0
 30
-18.49999999999999
 70
   192
  0
VERTEX
  5
502E
  8
0
 10
147.9999999999999
 20
-30.0
 30
-11.50000000000001
 70
   192
  0
VERTEX
  5
502F
  8
0
 10
151.4999999999999
 20
-30.0
 30
-15.0
 70
   192
  0
VERTEX
  5
5030
  8
0
 10
151.4999999999999
 20
-34.99999999999999
 30
-15.0
 70
   192
  0
VERTEX
  5
5031
  8
0
 10
150.4748737341528
 20
-30.0
 30
-12.52512626584709
 70
   192
  0
VERTEX
  5
5032
  8
0
 10
150.4748737341528
 20
-34.99999999999999
 30
-12.52512626584709
 70
   192
  0
VERTEX
  5
5033
  8
0
 10
150.4748737341528
 20
-30.0
 30
-17.47487373415291
 70
   192
  0
VERTEX
  5
5034
  8
0
 10
150.4748737341528
 20
-34.99999999999999
 30
-17.47487373415291
 70
   192
  0
VERTEX
  5
5035
  8
0
 10
0.0
 20
0.0
 30
0.0
 70
   128
 71
     7
 72
     4
 73
    -1
  0
VERTEX
  5
5036
  8
0
 10
0.0
 20
0.0
 30
0.0
 70
   128
 71
    -7
 72
     1
 73
     8
  0
VERTEX
  5
5037
  8
0
 10
0.0
 20
0.0
 30
0.0
 70
   128
 71
     6
 72
     5
 73
    -7
  0
VERTEX
  5
5038
  8
0
 10
0.0
 20
0.0
 30
0.0
 70
   128
 71
    -6
 72
     7
 73
     8
  0
VERTEX
  5
5039
  8
0
 10
0.0
 20
0.0
 30
0.0
 70
   128
 71
    10
 72
     9
 73
    -5
  0
VERTEX
  5
503A
  8
0
 10
0.0
 20
0.0
 30
0.0
 70
   128
 71
   -10
 72
     5
 73
     6
  0
VERTEX
  5
503B
  8
0
 10
0.0
 20
0.0
 30
0.0
 70
   128
 71
     2
 72
     3
 73
    -9
  0
VERTEX
  5
503C
  8
0
 10
0.0
 20
0.0
 30
0.0
 70
   128
 71
    -2
 72
     9
 73
    10
  0
SEQEND
  5
5181
  8
0
  0
POLYLINE
  5
503D
  8
0
 66
     1
 10
0.0
 20
0.0
 30
0.0
 70
    64
 71
     4
 72
     2
  0
VERTEX
  5
503E
  8
0
 10
8.000000000000068
 20
150.0
 30
-10.0
 70
   192
  0
VERTEX
  5
503F
  8
0
 10
187.9999999999999
 20
150.0
 30
-10.0
 70
   192
  0
VERTEX
  5
5040
  8
0
 10
187.9999999999999
 20
150.0
 30
-20.0
 70
   192
  0
VERTEX
  5
5041
  8
0
 10
8.000000000000068
 20
150.0
 30
-20.0
 70
   192
  0
VERTEX
  5
5042
  8
0
 10
0.0
 20
0.0
 30
0.0
 70
   128
 71
     3
 72
     4
 73
    -1
  0
VERTEX
  5
5043
  8
0
 10
0.0
 20
0.0
 30
0.0
 70
   128
 71
     2
 72
    -3
 73
     1
  0
SEQEND
  5
5182
  8
0
  0
POLYLINE
  5
5044
  8
0
 66
     1
 10
0.0
 20
0.0
 30
0.0
 70
    64
 71
     8
 72
     6
  0
VERTEX
  5
5045
  8
0
 10
196.6602540378444
 20
145.0
 30
-10.0
 70
   192
  0
VERTEX
  5
5046
  8
0
 10
196.6602540378444
 20
145.0
 30
-20.0
 70
   192
  0
VERTEX
  5
5047
  8
0
 10
193.0
 20
148.6602540378444
 30
-20.0
 70
   192
  0
VERTEX
  5
5048
  8
0
 10
193.0
 20
148.6602540378444
 30
-10.0
 70
   192
  0
VERTEX
  5
5049
  8
0
 10
198.0
 20
139.9999999999999
 30
-10.0
 70
   192
  0
VERTEX
  5
504A
  8
0
 10
198.0
 20
139.9999999999999
 30
-20.0
 70
   192
  0
VERTEX
  5
504B
  8
0
 10
187.9999999999999
 20
150.0
 30
-20.0
 70
   192
  0
VERTEX
  5
504C
  8
0
 10
187.9999999999999
 20
150.0
 30
-10.0
 70
   192
  0
VERTEX
  5
504D
  8
0
 10
0.0
 20
0.0
 30
0.0
 70
   128
 71
     1
 72
     2
 73
    -3
  0
VERTEX
  5
504E
  8
0
 10
0.0
 20
0.0
 30
0.0
 70
   128
 71
    -1
 72
     3
 73
     4
  0
VERTEX
  5
504F
  8
0
 10
0.0
 20
0.0
 30
0.0
 70
   128
 71
     5
 72
     6
 73
    -2
  0
VERTEX
  5
5050
  8
0
 10
0.0
 20
0.0
 30
0.0
 70
   128
 71
    -5
 72
     2
 73
     1
  0
VERTEX
  5
5051
  8
0
 10
0.0
 20
0.0
 30
0.0
 70
   128
 71
     4
 72
     3
 73
    -7
  0
VERTEX
  5
5052
  8
0
 10
0.0
 20
0.0
 30
0.0
 70
   128
 71
    -4
 72
     7
 73
     8
  0
SEQEND
  5
5183
  8
0
  0
POLYLINE
  5
5053
  8
0
 66
     1
 10
0.0
 20
0.0
 30
0.0
 70
    64
 71
     4
 72
     2
  0
VERTEX
  5
5054
  8
0
 10
198.0
 20
139.9999999999999
 30
-10.0
 70
   192
  0
VERTEX
  5
5055
  8
0
 10
198.0
 20
139.9999999999999
 30
-20.0
 70
   192
  0
VERTEX
  5
5056
  8
0
 10
198.0
 20
-19.99999999999993
 30
-20.0
 70
   192
  0
VERTEX
  5
5057
  8
0
 10
198.0
 20
-19.99999999999993
 30
-10.0
 70
   192
  0
VERTEX
  5
5058
  8
0
 10
0.0
 20
0.0
 30
0.0
 70
   128
 71
     1
 72
     4
 73
    -3
  0
VERTEX
  5
5059
  8
0
 10
0.0
 20
0.0
 30
0.0
 70
   128
 71
    -1
 72
     3
 73
     2
  0
SEQEND
  5
5184
  8
0
  0
POLYLINE
  5
505A
  8
0
 66
     1
 10
0.0
 20
0.0
 30
0.0
 70
    64
 71
     8
 72
     6
  0
VERTEX
  5
505B
  8
0
 10
193.0
 20
-28.6602540378444
 30
-10.0
 70
   192
  0
VERTEX
  5
505C
  8
0
 10
193.0
 20
-28.6602540378444
 30
-20.0
 70
   192
  0
VERTEX
  5
505D
  8
0
 10
196.6602540378444
 20
-24.99999999999998
 30
-20.0
 70
   192
  0
VERTEX
  5
505E
  8
0
 10
196.6602540378444
 20
-24.99999999999998
 30
-10.0
 70
   192
  0
VERTEX
  5
505F
  8
0
 10
187.9999999999999
 20
-30.00000000000001
 30
-10.0
 70
   192
  0
VERTEX
  5
5060
  8
0
 10
187.9999999999999
 20
-30.0
 30
-20.0
 70
   192
  0
VERTEX
  5
5061
  8
0
 10
198.0
 20
-19.99999999999993
 30
-20.0
 70
   192
  0
VERTEX
  5
5062
  8
0
 10
198.0
 20
-19.99999999999993
 30
-10.0
 70
   192
  0
VERTEX
  5
5063
  8
0
 10
0.0
 20
0.0
 30
0.0
 70
   128
 71
     1
 72
     2
 73
    -3
  0
VERTEX
  5
5064
  8
0
 10
0.0
 20
0.0
 30
0.0
 70
   128
 71
    -1
 72
     3
 73
     4
  0
VERTEX
  5
5065
  8
0
 10
0.0
 20
0.0
 30
0.0
 70
   128
 71
     5
 72
     6
 73
    -2
  0
VERTEX
  5
5066
  8
0
 10
0.0
 20
0.0
 30
0.0
 70
   128
 71
    -5
 72
     2
 73
     1
  0
VERTEX
  5
5067
  8
0
 10
0.0
 20
0.0
 30
0.0
 70
   128
 71
     4
 72
     3
 73
    -7
  0
VERTEX
  5
5068
  8
0
 10
0.0
 20
0.0
 30
0.0
 70
   128
 71
    -4
 72
     7
 73
     8
  0
SEQEND
  5
5185
  8
0
  0
POLYLINE
  5
5069
  8
0
 66
     1
 10
0.0
 20
0.0
 30
0.0
 70
    64
 71
    12
 72
    12
  0
VERTEX
  5
506A
  8
0
 10
187.9999999999999
 20
-30.0
 30
-10.0
 70
   192
  0
VERTEX
  5
506B
  8
0
 10
187.9999999999999
 20
-30.0
 30
-20.0
 70
   192
  0
VERTEX
  5
506C
  8
0
 10
8.000000000000043
 20
-30.0
 30
-20.0
 70
   192
  0
VERTEX
  5
506D
  8
0
 10
8.000000000000044
 20
-30.0
 30
-10.0
 70
   192
  0
VERTEX
  5
506E
  8
0
 10
147.9999999999999
 20
-30.0
 30
-18.49999999999999
 70
   192
  0
VERTEX
  5
506F
  8
0
 10
150.4748737341528
 20
-30.0
 30
-17.47487373415291
 70
   192
  0
VERTEX
  5
5070
  8
0
 10
151.4999999999999
 20
-30.0
 30
-15.0
 70
   192
  0
VERTEX
  5
5071
  8
0
 10
150.4748737341528
 20
-30.0
 30
-12.52512626584709
 70
   192
  0
VERTEX
  5
5072
  8
0
 10
147.9999999999999
 20
-30.0
 30
-11.50000000000001
 70
   192
  0
VERTEX
  5
5073
  8
0
 10
145.525126265847
 20
-30.0
 30
-12.52512626584709
 70
   192
  0
VERTEX
  5
5074
  8
0
 10
144.4999999999999
 20
-30.0
 30
-15.0
 70
   192
  0
VERTEX
  5
5075
  8
0
 10
145.525126265847
 20
-30.0
 30
-17.47487373415291
 70
   192
  0
VERTEX
  5
5076
  8
0
 10
0.0
 20
0.0
 30
0.0
 70
   128
 71
     6
 72
    -5
 73
    -2
  0
VERTEX
  5
5077
  8
0
 10
0.0
 20
0.0
 30
0.0
 70
   128
 71
     2
 72
    -1
 73
    -7
  0
VERTEX
  5
5078
  8
0
 10
0.0
 20
0.0
 30
0.0
 70
   128
 71
    -2
 72
     7
 73
    -6
  0
VERTEX
  5
5079
  8
0
 10
0.0
 20
0.0
 30
0.0
 70
   128
 71
    -1
 72
     8
 73
    -7
  0
VERTEX
  5
507A
  8
0
 10
0.0
 20
0.0
 30
0.0
 70
   128
 71
    -1
 72
     9
 73
    -8
  0
VERTEX
  5
507B
  8
0
 10
0.0
 20
0.0
 30
0.0
 70
   128
 71
    -9
 72
     1
 73
    -4
  0
VERTEX
  5
507C
  8
0
 10
0.0
 20
0.0
 30
0.0
 70
   128
 71
    -4
 72
    10
 73
    -9
  0
VERTEX
  5
507D
  8
0
 10
0.0
 20
0.0
 30
0.0
 70
   128
 71
     4
 72
    -3
 73
   -11
  0
VERTEX
  5
507E
  8
0
 10
0.0
 20
0.0
 30
0.0
 70
   128
 71
    -4
 72
    11
 73
   -10
  0
VERTEX
  5
507F
  8
0
 10
0.0
 20
0.0
 30
0.0
 70
   128
 71
    -3
 72
    12
 73
   -11
  0
VERTEX
  5
5080
  8
0
 10
0.0
 20
0.0
 30
0.0
 70
   128
 71
    -3
 72
     5
 73
   -12
  0
VERTEX
  5
5081
  8
0
 10
0.0
 20
0.0
 30
0.0
 70
   128
 71
     3
 72
    -2
 73
    -5
  0
SEQEND
  5
5186
  8
0
  0
POLYLINE
  5
5082
  8
0
 66
     1
 10
0.0
 20
0.0
 30
0.0
 70
    64
 71
     8
 72
     6
  0
VERTEX
  5
5083
  8
0
 10
-0.6602540378444255
 20
-24.99999999999998
 30
-10.0
 70
   192
  0
VERTEX
  5
5084
  8
0
 10
-0.6602540378444255
 20
-24.99999999999998
 30
-20.0
 70
   192
  0
VERTEX
  5
5085
  8
0
 10
2.999999999999992
 20
-28.6602540378444
 30
-20.0
 70
   192
  0
VERTEX
  5
5086
  8
0
 10
2.999999999999992
 20
-28.6602540378444
 30
-10.0
 70
   192
  0
VERTEX
  5
5087
  8
0
 10
-2.000000000000026
 20
-19.99999999999993
 30
-10.0
 70
   192
  0
VERTEX
  5
5088
  8
0
 10
-2.000000000000028
 20
-19.99999999999993
 30
-20.0
 70
   192
  0
VERTEX
  5
5089
  8
0
 10
8.00000000000004
 20
-30.0
 30
-20.0
 70
   192
  0
VERTEX
  5
508A
  8
0
 10
8.000000000000043
 20
-30.0
 30
-10.0
 70
   192
  0
VERTEX
  5
508B
  8
0
 10
0.0
 20
0.0
 30
0.0
 70
   128
 71
     1
 72
     2
 73
    -3
  0
VERTEX
  5
508C
  8
0
 10
0.0
 20
0.0
 30
0.0
 70
   128
 71
    -1
 72
     3
 73
     4
  0
VERTEX
  5
508D
  8
0
 10
0.0
 20
0.0
 30
0.0
 70
   128
 71
     5
 72
     6
 73
    -2
  0
VERTEX
  5
508E
  8
0
 10
0.0
 20
0.0
 30
0.0
 70
   128
 71
    -5
 72
     2
 73
     1
  0
VERTEX
  5
508F
  8
0
 10
0.0
 20
0.0
 30
0.0
 70
   128
 71
     4
 72
     3
 73
    -7
  0
VERTEX
  5
5090
  8
0
 10
0.0
 20
0.0
 30
0.0
 70
   128
 71
    -4
 72
     7
 73
     8
  0
SEQEND
  5
5187
  8
0
  0
POLYLINE
  5
5091
  8
0
 66
     1
 10
0.0
 20
0.0
 30
0.0
 70
    64
 71
     4
 72
     2
  0
VERTEX
  5
5092
  8
0
 10
-2.000000000000028
 20
-19.99999999999993
 30
-10.0
 70
   192
  0
VERTEX
  5
5093
  8
0
 10
-2.000000000000004
 20
139.9999999999999
 30
-10.0
 70
   192
  0
VERTEX
  5
5094
  8
0
 10
-2.000000000000004
 20
139.9999999999999
 30
-20.0
 70
   192
  0
VERTEX
  5
5095
  8
0
 10
-2.000000000000028
 20
-19.99999999999993
 30
-20.0
 70
   192
  0
VERTEX
  5
5096
  8
0
 10
0.0
 20
0.0
 30
0.0
 70
   128
 71
     3
 72
     4
 73
    -1
  0
VERTEX
  5
5097
  8
0
 10
0.0
 20
0.0
 30
0.0
 70
   128
 71
     2
 72
    -3
 73
     1
  0
SEQEND
  5
5188
  8
0
  0
POLYLINE
  5
5098
  8
0
 66
     1
 10
0.0
 20
0.0
 30
0.0
 70
    64
 71
     8
 72
     6
  0
VERTEX
  5
5099
  8
0
 10
3.000000000000024
 20
148.6602540378444
 30
-10.0
 70
   192
  0
VERTEX
  5
509A
  8
0
 10
3.000000000000024
 20
148.6602540378444
 30
-20.0
 70
   192
  0
VERTEX
  5
509B
  8
0
 10
-0.6602540378443946
 20
145.0
 30
-20.0
 70
   192
  0
VERTEX
  5
509C
  8
0
 10
-0.6602540378443946
 20
145.0
 30
-10.0
 70
   192
  0
VERTEX
  5
509D
  8
0
 10
8.000000000000064
 20
150.0
 30
-10.0
 70
   192
  0
VERTEX
  5
509E
  8
0
 10
8.000000000000068
 20
150.0
 30
-20.0
 70
   192
  0
VERTEX
  5
509F
  8
0
 10
-2.000000000000011
 20
139.9999999999999
 30
-20.0
 70
   192
  0
VERTEX
  5
50A0
  8
0
 10
-2.000000000000004
 20
139.9999999999999
 30
-10.0
 70
   192
  0
VERTEX
  5
50A1
  8
0
 10
0.0
 20
0.0
 30
0.0
 70
   128
 71
     1
 72
     2
 73
    -3
  0
VERTEX
  5
50A2
  8
0
 10
0.0
 20
0.0
 30
0.0
 70
   128
 71
    -1
 72
     3
 73
     4
  0
VERTEX
  5
50A3
  8
0
 10
0.0
 20
0.0
 30
0.0
 70
   128
 71
     5
 72
     6
 73
    -2
  0
VERTEX
  5
50A4
  8
0
 10
0.0
 20
0.0
 30
0.0
 70
   128
 71
    -5
 72
     2
 73
     1
  0
VERTEX
  5
50A5
  8
0
 10
0.0
 20
0.0
 30
0.0
 70
   128
 71
     4
 72
     3
 73
    -7
  0
VERTEX
  5
50A6
  8
0
 10
0.0
 20
0.0
 30
0.0
 70
   128
 71
    -4
 72
     7
 73
     8
  0
SEQEND
  5
5189
  8
0
  0
POLYLINE
  5
50A7
  8
0
 66
     1
 10
0.0
 20
0.0
 30
0.0
 70
    64
 71
    16
 72
    14
  0
VERTEX
  5
50A8
  8
0
 10
8.000000000000068
 20
150.0
 30
-20.0
 70
   192
  0
VERTEX
  5
50A9
  8
0
 10
187.9999999999999
 20
150.0
 30
-20.0
 70
   192
  0
VERTEX
  5
50AA
  8
0
 10
193.0
 20
148.6602540378444
 30
-20.0
 70
   192
  0
VERTEX
  5
50AB
  8
0
 10
196.6602540378444
 20
145.0
 30
-20.0
 70
   192
  0
VERTEX
  5
50AC
  8
0
 10
198.0
 20
139.9999999999999
 30
-20.0
 70
   192
  0
VERTEX
  5
50AD
  8
0
 10
198.0
 20
-19.99999999999993
 30
-20.0
 70
   192
  0
VERTEX
  5
50AE
  8
0
 10
196.6602540378444
 20
-24.99999999999998
 30
-20.0
 70
   192
  0
VERTEX
  5
50AF
  8
0
 10
193.0
 20
-28.6602540378444
 30
-20.0
 70
   192
  0
VERTEX
  5
50B0
  8
0
 10
187.9999999999999
 20
-30.00000000000001
 30
-20.0
 70
   192
  0
VERTEX
  5
50B1
  8
0
 10
8.000000000000044
 20
-30.0
 30
-20.0
 70
   192
  0
VERTEX
  5
50B2
  8
0
 10
2.999999999999992
 20
-28.6602540378444
 30
-20.0
 70
   192
  0
VERTEX
  5
50B3
  8
0
 10
-0.6602540378444255
 20
-24.99999999999998
 30
-20.0
 70
   192
  0
VERTEX
  5
50B4
  8
0
 10
-2.000000000000026
 20
-19.99999999999993
 30
-20.0
 70
   192
  0
VERTEX
  5
50B5
  8
0
 10
-2.000000000000004
 20
139.9999999999999
 30
-20.0
 70
   192
  0
VERTEX
  5
50B6
  8
0
 10
-0.6602540378443946
 20
145.0
 30
-20.0
 70
   192
  0
VERTEX
  5
50B7
  8
0
 10
3.000000000000024
 20
148.6602540378444
 30
-20.0
 70
   192
  0
VERTEX
  5
50B8
  8
0
 10
0.0
 20
0.0
 30
0.0
 70
   128
 71
    15
 72
    16
 73
    -1
  0
VERTEX
  5
50B9
  8
0
 10
0.0
 20
0.0
 30
0.0
 70
   128
 71
    14
 72
   -15
 73
    -1
  0
VERTEX
  5
50BA
  8
0
 10
0.0
 20
0.0
 30
0.0
 70
   128
 71
    13
 72
   -14
 73
    -1
  0
VERTEX
  5
50BB
  8
0
 10
0.0
 20
0.0
 30
0.0
 70
   128
 71
    12
 72
   -13
 73
    -1
  0
VERTEX
  5
50BC
  8
0
 10
0.0
 20
0.0
 30
0.0
 70
   128
 71
    11
 72
   -12
 73
    -1
  0
VERTEX
  5
50BD
  8
0
 10
0.0
 20
0.0
 30
0.0
 70
   128
 71
    10
 72
   -11
 73
    -1
  0
VERTEX
  5
50BE
  8
0
 10
0.0
 20
0.0
 30
0.0
 70
   128
 71
     9
 72
   -10
 73
    -1
  0
VERTEX
  5
50BF
  8
0
 10
0.0
 20
0.0
 30
0.0
 70
   128
 71
     8
 72
    -9
 73
    -1
  0
VERTEX
  5
50C0
  8
0
 10
0.0
 20
0.0
 30
0.0
 70
   128
 71
     7
 72
    -8
 73
    -1
  0
VERTEX
  5
50C1
  8
0
 10
0.0
 20
0.0
 30
0.0
 70
   128
 71
     6
 72
    -7
 73
    -1
  0
VERTEX
  5
50C2
  8
0
 10
0.0
 20
0.0
 30
0.0
 70
   128
 71
     5
 72
    -6
 73
    -1
  0
VERTEX
  5
50C3
  8
0
 10
0.0
 20
0.0
 30
0.0
 70
   128
 71
     4
 72
    -5
 73
    -1
  0
VERTEX
  5
50C4
  8
0
 10
0.0
 20
0.0
 30
0.0
 70
   128
 71
     3
 72
    -4
 73
    -1
  0
VERTEX
  5
50C5
  8
0
 10
0.0
 20
0.0
 30
0.0
 70
   128
 71
     2
 72
    -3
 73
     1
  0
SEQEND
  5
518A
  8
0
  0
POLYLINE
  5
50C6
  8
0
 66
     1
 10
0.0
 20
0.0
 30
0.0
 70
    64
 71
    16
 72
    14
  0
VERTEX
  5
50C7
  8
0
 10
187.9999999999999
 20
150.0
 30
-10.0
 70
   192
  0
VERTEX
  5
50C8
  8
0
 10
193.0
 20
148.6602540378444
 30
-10.0
 70
   192
  0
VERTEX
  5
50C9
  8
0
 10
196.6602540378444
 20
145.0
 30
-10.0
 70
   192
  0
VERTEX
  5
50CA
  8
0
 10
198.0
 20
139.9999999999999
 30
-10.0
 70
   192
  0
VERTEX
  5
50CB
  8
0
 10
198.0
 20
-19.99999999999993
 30
-10.0
 70
   192
  0
VERTEX
  5
50CC
  8
0
 10
196.6602540378444
 20
-24.99999999999998
 30
-10.0
 70
   192
  0
VERTEX
  5
50CD
  8
0
 10
193.0
 20
-28.6602540378444
 30
-10.0
 70
   192
  0
VERTEX
  5
50CE
  8
0
 10
187.9999999999999
 20
-30.0
 30
-10.0
 70
   192
  0
VERTEX
  5
50CF
  8
0
 10
8.00000000000004
 20
-30.0
 30
-10.0
 70
   192
  0
VERTEX
  5
50D0
  8
0
 10
2.999999999999992
 20
-28.6602540378444
 30
-10.0
 70
   192
  0
VERTEX
  5
50D1
  8
0
 10
-0.6602540378444255
 20
-24.99999999999998
 30
-10.0
 70
   192
  0
VERTEX
  5
50D2
  8
0
 10
-2.000000000000028
 20
-19.99999999999993
 30
-10.0
 70
   192
  0
VERTEX
  5
50D3
  8
0
 10
-2.000000000000011
 20
139.9999999999999
 30
-10.0
 70
   192
  0
VERTEX
  5
50D4
  8
0
 10
-0.6602540378443946
 20
145.0
 30
-10.0
 70
   192
  0
VERTEX
  5
50D5
  8
0
 10
3.000000000000024
 20
148.6602540378444
 30
-10.0
 70
   192
  0
VERTEX
  5
50D6
  8
0
 10
8.000000000000068
 20
150.0
 30
-10.0
 70
   192
  0
VERTEX
  5
50D7
  8
0
 10
0.0
 20
0.0
 30
0.0
 70
   128
 71
     1
 72
    16
 73
   -15
  0
VERTEX
  5
50D8
  8
0
 10
0.0
 20
0.0
 30
0.0
 70
   128
 71
    -1
 72
    15
 73
   -14
  0
VERTEX
  5
50D9
  8
0
 10
0.0
 20
0.0
 30
0.0
 70
   128
 71
    -1
 72
    14
 73
   -13
  0
VERTEX
  5
50DA
  8
0
 10
0.0
 20
0.0
 30
0.0
 70
   128
 71
    -1
 72
    13
 73
   -12
  0
VERTEX
  5
50DB
  8
0
 10
0.0
 20
0.0
 30
0.0
 70
   128
 71
    -1
 72
    12
 73
   -11
  0
VERTEX
  5
50DC
  8
0
 10
0.0
 20
0.0
 30
0.0
 70
   128
 71
    -1
 72
    11
 73
   -10
  0
VERTEX
  5
50DD
  8
0
 10
0.0
 20
0.0
 30
0.0
 70
   128
 71
    -1
 72
    10
 73
    -9
  0
VERTEX
  5
50DE
  8
0
 10
0.0
 20
0.0
 30
0.0
 70
   128
 71
    -1
 72
     9
 73
    -8
  0
VERTEX
  5
50DF
  8
0
 10
0.0
 20
0.0
 30
0.0
 70
   128
 71
    -1
 72
     8
 73
    -7
  0
VERTEX
  5
50E0
  8
0
 10
0.0
 20
0.0
 30
0.0
 70
   128
 71
    -1
 72
     7
 73
    -6
  0
VERTEX
  5
50E1
  8
0
 10
0.0
 20
0.0
 30
0.0
 70
   128
 71
    -1
 72
     6
 73
    -5
  0
VERTEX
  5
50E2
  8
0
 10
0.0
 20
0.0
 30
0.0
 70
   128
 71
    -1
 72
     5
 73
    -4
  0
VERTEX
  5
50E3
  8
0
 10
0.0
 20
0.0
 30
0.0
 70
   128
 71
    -1
 72
     4
 73
    -3
  0
VERTEX
  5
50E4
  8
0
 10
0.0
 20
0.0
 30
0.0
 70
   128
 71
    -1
 72
     3
 73
     2
  0
SEQEND
  5
518B
  8
0
  0
POLYLINE
  5
50E5
  8
0
 66
     1
 10
0.0
 20
0.0
 30
0.0
 70
    64
 71
    10
 72
     8
  0
VERTEX
  5
50E6
  8
0
 10
147.9999999999999
 20
-34.99999999999999
 30
-18.49999999999999
 70
   192
  0
VERTEX
  5
50E7
  8
0
 10
147.9999999999999
 20
-34.99999999999999
 30
-11.50000000000001
 70
   192
  0
VERTEX
  5
50E8
  8
0
 10
147.9999999999999
 20
-30.0
 30
-11.50000000000001
 70
   192
  0
VERTEX
  5
50E9
  8
0
 10
147.9999999999999
 20
-30.0
 30
-18.49999999999999
 70
   192
  0
VERTEX
  5
50EA
  8
0
 10
144.4999999999999
 20
-30.0
 30
-15.0
 70
   192
  0
VERTEX
  5
50EB
  8
0
 10
144.4999999999999
 20
-34.99999999999999
 30
-15.0
 70
   192
  0
VERTEX
  5
50EC
  8
0
 10
145.525126265847
 20
-30.0
 30
-17.47487373415291
 70
   192
  0
VERTEX
  5
50ED
  8
0
 10
145.525126265847
 20
-34.99999999999999
 30
-17.47487373415291
 70
   192
  0
VERTEX
  5
50EE
  8
0
 10
145.525126265847
 20
-30.0
 30
-12.52512626584709
 70
   192
  0
VERTEX
  5
50EF
  8
0
 10
145.525126265847
 20
-34.99999999999999
 30
-12.52512626584709
 70
   192
  0
VERTEX
  5
50F0
  8
0
 10
0.0
 20
0.0
 30
0.0
 70
   128
 71
     8
 72
     7
 73
    -4
  0
VERTEX
  5
50F1
  8
0
 10
0.0
 20
0.0
 30
0.0
 70
   128
 71
    -8
 72
     4
 73
     1
  0
VERTEX
  5
50F2
  8
0
 10
0.0
 20
0.0
 30
0.0
 70
   128
 71
     6
 72
     5
 73
    -7
  0
VERTEX
  5
50F3
  8
0
 10
0.0
 20
0.0
 30
0.0
 70
   128
 71
    -6
 72
     7
 73
     8
  0
VERTEX
  5
50F4
  8
0
 10
0.0
 20
0.0
 30
0.0
 70
   128
 71
    10
 72
     9
 73
    -5
  0
VERTEX
  5
50F5
  8
0
 10
0.0
 20
0.0
 30
0.0
 70
   128
 71
   -10
 72
     5
 73
     6
  0
VERTEX
  5
50F6
  8
0
 10
0.0
 20
0.0
 30
0.0
 70
   128
 71
     2
 72
     3
 73
    -9
  0
VERTEX
  5
50F7
  8
0
 10
0.0
 20
0.0
 30
0.0
 70
   128
 71
    -2
 72
     9
 73
    10
  0
SEQEND
  5
518C
  8
0
  0
POLYLINE
  5
50F8
  8
0
 66
     1
 10
0.0
 20
0.0
 30
0.0
 70
    64
 71
     8
 72
     6
  0
VERTEX
  5
50F9
  8
0
 10
147.9999999999999
 20
-34.99999999999999
 30
-11.50000000000001
 70
   192
  0
VERTEX
  5
50FA
  8
0
 10
145.525126265847
 20
-34.99999999999999
 30
-12.52512626584709
 70
   192
  0
VERTEX
  5
50FB
  8
0
 10
144.4999999999999
 20
-34.99999999999999
 30
-15.0
 70
   192
  0
VERTEX
  5
50FC
  8
0
 10
145.525126265847
 20
-34.99999999999999
 30
-17.47487373415291
 70
   192
  0
VERTEX
  5
50FD
  8
0
 10
147.9999999999999
 20
-34.99999999999999
 30
-18.49999999999999
 70
   192
  0
VERTEX
  5
50FE
  8
0
 10
150.4748737341528
 20
-34.99999999999999
 30
-17.47487373415291
 70
   192
  0
VERTEX
  5
50FF
  8
0
 10
151.4999999999999
 20
-34.99999999999999
 30
-15.0
 70
   192
  0
VERTEX
  5
5100
  8
0
 10
150.4748737341528
 20
-34.99999999999999
 30
-12.52512626584709
 70
   192
  0
VERTEX
  5
5101
  8
0
 10
0.0
 20
0.0
 30
0.0
 70
   128
 71
     7
 72
     8
 73
    -1
  0
VERTEX
  5
5102
  8
0
 10
0.0
 20
0.0
 30
0.0
 70
   128
 71
     6
 72
    -7
 73
    -1
  0
VERTEX
  5
5103
  8
0
 10
0.0
 20
0.0
 30
0.0
 70
   128
 71
     5
 72
    -6
 73
    -1
  0
VERTEX
  5
5104
  8
0
 10
0.0
 20
0.0
 30
0.0
 70
   128
 71
     4
 72
    -5
 73
    -1
  0
VERTEX
  5
5105
  8
0
 10
0.0
 20
0.0
 30
0.0
 70
   128
 71
     3
 72
    -4
 73
    -1
  0
VERTEX
  5
5106
  8
0
 10
0.0
 20
0.0
 30
0.0
 70
   128
 71
     2
 72
    -3
 73
     1
  0
SEQEND
  5
518D
  8
0
  0
ENDBLK
  5
5180
  8
0
  0
ENDSEC
  0
SECTION
  2
ENTITIES
  0
INSERT
  5
43F9
  8
0
  2
*X1
 10
0.0
 20
0.0
 30
0.0
  0
INSERT
  5
43FA
  8
0
  2
*X2
 10
0.0
 20
0.0
 30
0.0
  0
INSERT
  5
43FB
  8
0
  2
*X3
 10
0.0
 20
0.0
 30
0.0
  0
INSERT
  5
43FC
  8
0
  2
*X4
 10
0.0
 20
0.0
 30
0.0
  0
INSERT
  5
43FD
  8
0
  2
*X5
 10
0.0
 20
0.0
 30
0.0
  0
INSERT
  5
43FE
  8
0
  2
*X6
 10
0.0
 20
0.0
 30
0.0
  0
ENDSEC
  0
EOF
