  0
SECTION
  2
HEADER
  9
$ACADVER
  1
AC1009
  9
$DWGCODEPAGE
  3
ansi_1250
  9
$INSBASE
 10
0.0
 20
0.0
 30
0.0
  9
$EXTMIN
 10
-224.9999999999999
 20
-449.9999999999998
 30
-25.00000000000009
  9
$EXTMAX
 10
224.9999999999998
 20
449.9999999999998
 30
0.0000000000000853
  9
$LIMMIN
 10
0.0
 20
0.0
  9
$LIMMAX
 10
420.0
 20
297.0
  9
$ORTHOMODE
 70
     0
  9
$REGENMODE
 70
     1
  9
$FILLMODE
 70
     1
  9
$QTEXTMODE
 70
     0
  9
$MIRRTEXT
 70
     0
  9
$DRAGMODE
 70
     2
  9
$LTSCALE
 40
1.0
  9
$OSMODE
 70
   511
  9
$ATTMODE
 70
     1
  9
$TEXTSIZE
 40
2.5
  9
$TRACEWID
 40
1.0
  9
$TEXTSTYLE
  7
STANDARD
  9
$CLAYER
  8
0
  9
$CELTYPE
  6
BYLAYER
  9
$CECOLOR
 62
   256
  9
$DIMSCALE
 40
1.0
  9
$DIMASZ
 40
2.5
  9
$DIMEXO
 40
0.625
  9
$DIMDLI
 40
3.75
  9
$DIMRND
 40
0.0
  9
$DIMDLE
 40
0.0
  9
$DIMEXE
 40
1.25
  9
$DIMTP
 40
0.0
  9
$DIMTM
 40
0.0
  9
$DIMTXT
 40
2.5
  9
$DIMCEN
 40
-2.5
  9
$DIMTSZ
 40
0.0
  9
$DIMTOL
 70
     0
  9
$DIMLIM
 70
     0
  9
$DIMTIH
 70
     0
  9
$DIMTOH
 70
     0
  9
$DIMSE1
 70
     0
  9
$DIMSE2
 70
     0
  9
$DIMTAD
 70
     1
  9
$DIMZIN
 70
     8
  9
$DIMBLK
  1

  9
$DIMASO
 70
     1
  9
$DIMSHO
 70
     1
  9
$DIMPOST
  1

  9
$DIMAPOST
  1

  9
$DIMALT
 70
     0
  9
$DIMALTD
 70
     3
  9
$DIMALTF
 40
0.03937007874016
  9
$DIMLFAC
 40
1.0
  9
$DIMTOFL
 70
     1
  9
$DIMTVP
 40
0.0
  9
$DIMTIX
 70
     0
  9
$DIMSOXD
 70
     0
  9
$DIMSAH
 70
     0
  9
$DIMBLK1
  1

  9
$DIMBLK2
  1

  9
$DIMSTYLE
  2
ISO-25
  9
$DIMCLRD
 70
     0
  9
$DIMCLRE
 70
     0
  9
$DIMCLRT
 70
     0
  9
$DIMTFAC
 40
1.0
  9
$DIMGAP
 40
0.625
  9
$LUNITS
 70
     2
  9
$LUPREC
 70
     3
  9
$SKETCHINC
 40
1.0
  9
$FILLETRAD
 40
10.0
  9
$AUNITS
 70
     0
  9
$AUPREC
 70
     0
  9
$MENU
  1
.
  9
$ELEVATION
 40
0.0
  9
$PELEVATION
 40
0.0
  9
$THICKNESS
 40
0.0
  9
$LIMCHECK
 70
     0
  9
$CHAMFERA
 40
10.0
  9
$CHAMFERB
 40
10.0
  9
$SKPOLY
 70
     0
  9
$TDCREATE
 40
2455022.720692848
  9
$TDUPDATE
 40
2460521.493749607
  9
$TDINDWG
 40
0.164468125
  9
$TDUSRTIMER
 40
0.164468125
  9
$USRTIMER
 70
     1
  9
$ANGBASE
 50
0.0
  9
$ANGDIR
 70
     0
  9
$PDMODE
 70
     0
  9
$PDSIZE
 40
0.0
  9
$PLINEWID
 40
0.0
  9
$COORDS
 70
     1
  9
$SPLFRAME
 70
     0
  9
$SPLINETYPE
 70
     6
  9
$SPLINESEGS
 70
     8
  9
$ATTDIA
 70
     0
  9
$ATTREQ
 70
     1
  9
$HANDLING
 70
     1
  9
$HANDSEED
  5
328F
  9
$SURFTAB1
 70
     6
  9
$SURFTAB2
 70
     6
  9
$SURFTYPE
 70
     6
  9
$SURFU
 70
     6
  9
$SURFV
 70
     6
  9
$UCSNAME
  2

  9
$UCSORG
 10
0.0
 20
0.0
 30
0.0
  9
$UCSXDIR
 10
1.0
 20
0.0
 30
0.0
  9
$UCSYDIR
 10
0.0
 20
1.0
 30
0.0
  9
$PUCSNAME
  2

  9
$PUCSORG
 10
0.0
 20
0.0
 30
0.0
  9
$PUCSXDIR
 10
1.0
 20
0.0
 30
0.0
  9
$PUCSYDIR
 10
0.0
 20
1.0
 30
0.0
  9
$USERI1
 70
     0
  9
$USERI2
 70
     0
  9
$USERI3
 70
     0
  9
$USERI4
 70
     0
  9
$USERI5
 70
     0
  9
$USERR1
 40
0.0
  9
$USERR2
 40
0.0
  9
$USERR3
 40
0.0
  9
$USERR4
 40
0.0
  9
$USERR5
 40
0.0
  9
$WORLDVIEW
 70
     1
  9
$SHADEDGE
 70
     3
  9
$SHADEDIF
 70
    70
  9
$TILEMODE
 70
     1
  9
$MAXACTVP
 70
    64
  9
$PLIMCHECK
 70
     0
  9
$PEXTMIN
 10
1.000000000000000E+20
 20
1.000000000000000E+20
 30
1.000000000000000E+20
  9
$PEXTMAX
 10
-1.000000000000000E+20
 20
-1.000000000000000E+20
 30
-1.000000000000000E+20
  9
$PLIMMIN
 10
0.0
 20
0.0
  9
$PLIMMAX
 10
0.0
 20
0.0
  9
$UNITMODE
 70
     0
  9
$VISRETAIN
 70
     1
  9
$PLINEGEN
 70
     0
  9
$PSLTSCALE
 70
     1
  0
ENDSEC
  0
SECTION
  2
TABLES
  0
TABLE
  2
VPORT
 70
     1
  0
VPORT
  2
*ACTIVE
 70
     0
 10
0.0
 20
0.0
 11
1.0
 21
1.0
 12
-116.6110757937285
 22
90.81470093901663
 13
0.0
 23
0.0
 14
10.0
 24
10.0
 15
10.0
 25
10.0
 16
0.5773502691896262
 26
0.5773502691896262
 36
0.5773502691896262
 17
-41.66599977993164
 27
123.2469651304761
 37
-82.93435654674934
 40
770.3645241053097
 41
1.88293897882939
 42
50.0
 43
0.0
 44
0.0
 50
0.0
 51
0.0
 71
    16
 72
  1000
 73
     1
 74
     3
 75
     0
 76
     0
 77
     0
 78
     0
  0
ENDTAB
  0
TABLE
  2
LTYPE
 70
     1
  0
LTYPE
  2
CONTINUOUS
 70
     0
  3
Solid line
 72
    65
 73
     0
 40
0.0
  0
ENDTAB
  0
TABLE
  2
LAYER
 70
     1
  0
LAYER
  2
0
 70
     0
 62
     7
  6
CONTINUOUS
  0
ENDTAB
  0
TABLE
  2
STYLE
 70
     2
  0
STYLE
  2
STANDARD
 70
     0
 40
0.0
 41
1.0
 50
0.0
 71
     0
 42
2.5
  3
arial.ttf
  4

  0
STYLE
  2
ANNOTATIVE
 70
     0
 40
0.0
 41
1.0
 50
0.0
 71
     0
 42
2.5
  3
arial.ttf
  4

  0
ENDTAB
  0
TABLE
  2
VIEW
 70
     0
  0
ENDTAB
  0
TABLE
  2
UCS
 70
     0
  0
ENDTAB
  0
TABLE
  2
APPID
 70
     2
  0
APPID
  2
ACAD
 70
     0
  0
APPID
  2
ACADANNOTATIVE
 70
     0
  0
ENDTAB
  0
TABLE
  2
DIMSTYLE
 70
     2
  0
DIMSTYLE
  2
ISO-25
 70
     0
  3

  4

  5

  6

  7

 40
1.0
 41
2.5
 42
0.625
 43
3.75
 44
1.25
 45
0.0
 46
0.0
 47
0.0
 48
0.0
140
2.5
141
-2.5
142
0.0
143
0.03937007874016
144
1.0
145
0.0
146
1.0
147
0.625
 71
     0
 72
     0
 73
     0
 74
     0
 75
     0
 76
     0
 77
     1
 78
     8
170
     0
171
     3
172
     1
173
     0
174
     0
175
     0
176
     0
177
     0
178
     0
  0
DIMSTYLE
  2
ANNOTATIVE
 70
     0
  3

  4

  5

  6

  7

 40
0.0
 41
2.5
 42
0.625
 43
3.75
 44
1.25
 45
0.0
 46
0.0
 47
0.0
 48
0.0
140
2.5
141
-2.5
142
0.0
143
0.03937007874016
144
1.0
145
0.0
146
1.0
147
0.625
 71
     0
 72
     0
 73
     0
 74
     0
 75
     0
 76
     0
 77
     1
 78
     8
170
     0
171
     3
172
     1
173
     0
174
     0
175
     0
176
     0
177
     0
178
     0
  0
ENDTAB
  0
ENDSEC
  0
SECTION
  2
BLOCKS
  0
BLOCK
  8
0
  2
$MODEL_SPACE
 70
     0
 10
0.0
 20
0.0
 30
0.0
  3
$MODEL_SPACE
  1

  0
ENDBLK
  5
21
  8
0
  0
BLOCK
 67
     1
  8
0
  2
$PAPER_SPACE
 70
     0
 10
0.0
 20
0.0
 30
0.0
  3
$PAPER_SPACE
  1

  0
ENDBLK
  5
1D
 67
     1
  8
0
  0
BLOCK
  8
0
  2
*X1
 70
     1
 10
0.0
 20
0.0
 30
0.0
  3
*X1
  1

  0
POLYLINE
  5
2FE3
  8
0
 66
     1
 10
0.0
 20
0.0
 30
0.0
 70
    64
 71
    24
 72
    24
  0
VERTEX
  5
2FE4
  8
0
 10
224.9999999999998
 20
225.0
 30
-25.0
 70
   192
  0
VERTEX
  5
2FE5
  8
0
 10
182.028823734363
 20
357.2516817658064
 30
-25.0
 70
   192
  0
VERTEX
  5
2FE6
  8
0
 10
69.52882373436303
 20
438.9877161664094
 30
-25.0
 70
   192
  0
VERTEX
  5
2FE7
  8
0
 10
-69.52882373436321
 20
438.9877161664094
 30
-25.0
 70
   192
  0
VERTEX
  5
2FE8
  8
0
 10
-182.0288237343632
 20
357.2516817658064
 30
-25.0
 70
   192
  0
VERTEX
  5
2FE9
  8
0
 10
-224.9999999999998
 20
225.0000000000001
 30
-25.0
 70
   192
  0
VERTEX
  5
2FEA
  8
0
 10
-224.9999999999999
 20
-225.0
 30
-25.0
 70
   192
  0
VERTEX
  5
2FEB
  8
0
 10
-182.0288237343632
 20
-357.2516817658064
 30
-25.0
 70
   192
  0
VERTEX
  5
2FEC
  8
0
 10
-69.52882373436327
 20
-438.9877161664095
 30
-25.0
 70
   192
  0
VERTEX
  5
2FED
  8
0
 10
69.528823734363
 20
-438.9877161664095
 30
-25.0
 70
   192
  0
VERTEX
  5
2FEE
  8
0
 10
182.028823734363
 20
-357.2516817658064
 30
-25.0
 70
   192
  0
VERTEX
  5
2FEF
  8
0
 10
224.9999999999999
 20
-225.0000000000001
 30
-25.0
 70
   192
  0
VERTEX
  5
2FF0
  8
0
 10
214.9999999999998
 20
-225.0000000000001
 30
-25.0
 70
   192
  0
VERTEX
  5
2FF1
  8
0
 10
173.9386537906135
 20
-351.3738292428818
 30
-25.0
 70
   192
  0
VERTEX
  5
2FF2
  8
0
 10
66.43865379061353
 20
-429.4771510034579
 30
-25.0
 70
   192
  0
VERTEX
  5
2FF3
  8
0
 10
-66.4386537906138
 20
-429.4771510034579
 30
-25.0
 70
   192
  0
VERTEX
  5
2FF4
  8
0
 10
-173.9386537906137
 20
-351.3738292428817
 30
-25.0
 70
   192
  0
VERTEX
  5
2FF5
  8
0
 10
-214.9999999999998
 20
-225.0
 30
-25.0
 70
   192
  0
VERTEX
  5
2FF6
  8
0
 10
-214.9999999999999
 20
225.0
 30
-25.0
 70
   192
  0
VERTEX
  5
2FF7
  8
0
 10
-173.9386537906137
 20
351.3738292428817
 30
-25.0
 70
   192
  0
VERTEX
  5
2FF8
  8
0
 10
-66.43865379061374
 20
429.4771510034579
 30
-25.0
 70
   192
  0
VERTEX
  5
2FF9
  8
0
 10
66.43865379061356
 20
429.4771510034579
 30
-25.0
 70
   192
  0
VERTEX
  5
2FFA
  8
0
 10
173.9386537906135
 20
351.3738292428817
 30
-25.0
 70
   192
  0
VERTEX
  5
2FFB
  8
0
 10
214.9999999999999
 20
225.0000000000001
 30
-25.0
 70
   192
  0
VERTEX
  5
2FFC
  8
0
 10
0.0
 20
0.0
 30
0.0
 70
   128
 71
    14
 72
   -13
 73
   -12
  0
VERTEX
  5
2FFD
  8
0
 10
0.0
 20
0.0
 30
0.0
 70
   128
 71
   -14
 72
    12
 73
   -11
  0
VERTEX
  5
2FFE
  8
0
 10
0.0
 20
0.0
 30
0.0
 70
   128
 71
    11
 72
   -10
 73
   -15
  0
VERTEX
  5
2FFF
  8
0
 10
0.0
 20
0.0
 30
0.0
 70
   128
 71
   -11
 72
    15
 73
   -14
  0
VERTEX
  5
3000
  8
0
 10
0.0
 20
0.0
 30
0.0
 70
   128
 71
    10
 72
    -9
 73
   -16
  0
VERTEX
  5
3001
  8
0
 10
0.0
 20
0.0
 30
0.0
 70
   128
 71
   -10
 72
    16
 73
   -15
  0
VERTEX
  5
3002
  8
0
 10
0.0
 20
0.0
 30
0.0
 70
   128
 71
     9
 72
    -8
 73
   -17
  0
VERTEX
  5
3003
  8
0
 10
0.0
 20
0.0
 30
0.0
 70
   128
 71
    -9
 72
    17
 73
   -16
  0
VERTEX
  5
3004
  8
0
 10
0.0
 20
0.0
 30
0.0
 70
   128
 71
     8
 72
    -7
 73
   -18
  0
VERTEX
  5
3005
  8
0
 10
0.0
 20
0.0
 30
0.0
 70
   128
 71
    -8
 72
    18
 73
   -17
  0
VERTEX
  5
3006
  8
0
 10
0.0
 20
0.0
 30
0.0
 70
   128
 71
     7
 72
    -6
 73
   -19
  0
VERTEX
  5
3007
  8
0
 10
0.0
 20
0.0
 30
0.0
 70
   128
 71
    -7
 72
    19
 73
   -18
  0
VERTEX
  5
3008
  8
0
 10
0.0
 20
0.0
 30
0.0
 70
   128
 71
     6
 72
    -5
 73
   -20
  0
VERTEX
  5
3009
  8
0
 10
0.0
 20
0.0
 30
0.0
 70
   128
 71
    -6
 72
    20
 73
   -19
  0
VERTEX
  5
300A
  8
0
 10
0.0
 20
0.0
 30
0.0
 70
   128
 71
     5
 72
    -4
 73
   -21
  0
VERTEX
  5
300B
  8
0
 10
0.0
 20
0.0
 30
0.0
 70
   128
 71
    -5
 72
    21
 73
   -20
  0
VERTEX
  5
300C
  8
0
 10
0.0
 20
0.0
 30
0.0
 70
   128
 71
     4
 72
    -3
 73
   -22
  0
VERTEX
  5
300D
  8
0
 10
0.0
 20
0.0
 30
0.0
 70
   128
 71
    -4
 72
    22
 73
   -21
  0
VERTEX
  5
300E
  8
0
 10
0.0
 20
0.0
 30
0.0
 70
   128
 71
     3
 72
    -2
 73
   -23
  0
VERTEX
  5
300F
  8
0
 10
0.0
 20
0.0
 30
0.0
 70
   128
 71
    -3
 72
    23
 73
   -22
  0
VERTEX
  5
3010
  8
0
 10
0.0
 20
0.0
 30
0.0
 70
   128
 71
     2
 72
    -1
 73
   -24
  0
VERTEX
  5
3011
  8
0
 10
0.0
 20
0.0
 30
0.0
 70
   128
 71
    -2
 72
    24
 73
   -23
  0
VERTEX
  5
3012
  8
0
 10
0.0
 20
0.0
 30
0.0
 70
   128
 71
     1
 72
   -12
 73
   -13
  0
VERTEX
  5
3013
  8
0
 10
0.0
 20
0.0
 30
0.0
 70
   128
 71
    -1
 72
    13
 73
   -24
  0
SEQEND
  5
325B
  8
0
  0
POLYLINE
  5
3014
  8
0
 66
     1
 10
0.0
 20
0.0
 30
0.0
 70
    64
 71
    24
 72
    24
  0
VERTEX
  5
3015
  8
0
 10
224.9999999999999
 20
-225.0000000000001
 30
0.0
 70
   192
  0
VERTEX
  5
3016
  8
0
 10
224.9999999999999
 20
225.0
 30
0.0
 70
   192
  0
VERTEX
  5
3017
  8
0
 10
182.028823734363
 20
357.2516817658064
 30
0.0
 70
   192
  0
VERTEX
  5
3018
  8
0
 10
69.52882373436303
 20
438.9877161664094
 30
0.0
 70
   192
  0
VERTEX
  5
3019
  8
0
 10
-69.52882373436321
 20
438.9877161664094
 30
0.0
 70
   192
  0
VERTEX
  5
301A
  8
0
 10
-182.0288237343632
 20
357.2516817658064
 30
0.0
 70
   192
  0
VERTEX
  5
301B
  8
0
 10
-224.9999999999999
 20
225.0
 30
0.0
 70
   192
  0
VERTEX
  5
301C
  8
0
 10
-224.9999999999998
 20
-225.0000000000001
 30
0.0
 70
   192
  0
VERTEX
  5
301D
  8
0
 10
-182.0288237343632
 20
-357.2516817658064
 30
0.0
 70
   192
  0
VERTEX
  5
301E
  8
0
 10
-69.52882373436327
 20
-438.9877161664095
 30
0.0
 70
   192
  0
VERTEX
  5
301F
  8
0
 10
69.528823734363
 20
-438.9877161664095
 30
0.0
 70
   192
  0
VERTEX
  5
3020
  8
0
 10
182.028823734363
 20
-357.2516817658064
 30
0.0
 70
   192
  0
VERTEX
  5
3021
  8
0
 10
-215.0
 20
225.0
 30
0.0
 70
   192
  0
VERTEX
  5
3022
  8
0
 10
-173.9386537906137
 20
351.3738292428817
 30
0.0
 70
   192
  0
VERTEX
  5
3023
  8
0
 10
-66.43865379061376
 20
429.4771510034579
 30
0.0
 70
   192
  0
VERTEX
  5
3024
  8
0
 10
66.43865379061357
 20
429.4771510034579
 30
0.0
 70
   192
  0
VERTEX
  5
3025
  8
0
 10
173.9386537906136
 20
351.3738292428817
 30
0.0
 70
   192
  0
VERTEX
  5
3026
  8
0
 10
214.9999999999998
 20
225.0
 30
0.0
 70
   192
  0
VERTEX
  5
3027
  8
0
 10
215.0
 20
-225.0000000000001
 30
0.0
 70
   192
  0
VERTEX
  5
3028
  8
0
 10
173.9386537906136
 20
-351.3738292428818
 30
0.0
 70
   192
  0
VERTEX
  5
3029
  8
0
 10
66.43865379061357
 20
-429.4771510034581
 30
0.0
 70
   192
  0
VERTEX
  5
302A
  8
0
 10
-66.43865379061384
 20
-429.4771510034581
 30
0.0
 70
   192
  0
VERTEX
  5
302B
  8
0
 10
-173.9386537906138
 20
-351.3738292428818
 30
0.0
 70
   192
  0
VERTEX
  5
302C
  8
0
 10
-215.0000000000001
 20
-225.0
 30
0.0
 70
   192
  0
VERTEX
  5
302D
  8
0
 10
0.0
 20
0.0
 30
0.0
 70
   128
 71
    -7
 72
    13
 73
   -14
  0
VERTEX
  5
302E
  8
0
 10
0.0
 20
0.0
 30
0.0
 70
   128
 71
     6
 72
    -7
 73
   -14
  0
VERTEX
  5
302F
  8
0
 10
0.0
 20
0.0
 30
0.0
 70
   128
 71
   -15
 72
     5
 73
    -6
  0
VERTEX
  5
3030
  8
0
 10
0.0
 20
0.0
 30
0.0
 70
   128
 71
    14
 72
   -15
 73
    -6
  0
VERTEX
  5
3031
  8
0
 10
0.0
 20
0.0
 30
0.0
 70
   128
 71
   -16
 72
     4
 73
    -5
  0
VERTEX
  5
3032
  8
0
 10
0.0
 20
0.0
 30
0.0
 70
   128
 71
    15
 72
   -16
 73
    -5
  0
VERTEX
  5
3033
  8
0
 10
0.0
 20
0.0
 30
0.0
 70
   128
 71
   -17
 72
     3
 73
    -4
  0
VERTEX
  5
3034
  8
0
 10
0.0
 20
0.0
 30
0.0
 70
   128
 71
    16
 72
   -17
 73
    -4
  0
VERTEX
  5
3035
  8
0
 10
0.0
 20
0.0
 30
0.0
 70
   128
 71
   -18
 72
     2
 73
    -3
  0
VERTEX
  5
3036
  8
0
 10
0.0
 20
0.0
 30
0.0
 70
   128
 71
    17
 72
   -18
 73
    -3
  0
VERTEX
  5
3037
  8
0
 10
0.0
 20
0.0
 30
0.0
 70
   128
 71
   -19
 72
     1
 73
    -2
  0
VERTEX
  5
3038
  8
0
 10
0.0
 20
0.0
 30
0.0
 70
   128
 71
    18
 72
   -19
 73
    -2
  0
VERTEX
  5
3039
  8
0
 10
0.0
 20
0.0
 30
0.0
 70
   128
 71
   -20
 72
    12
 73
    -1
  0
VERTEX
  5
303A
  8
0
 10
0.0
 20
0.0
 30
0.0
 70
   128
 71
    19
 72
   -20
 73
    -1
  0
VERTEX
  5
303B
  8
0
 10
0.0
 20
0.0
 30
0.0
 70
   128
 71
   -21
 72
    11
 73
   -12
  0
VERTEX
  5
303C
  8
0
 10
0.0
 20
0.0
 30
0.0
 70
   128
 71
    20
 72
   -21
 73
   -12
  0
VERTEX
  5
303D
  8
0
 10
0.0
 20
0.0
 30
0.0
 70
   128
 71
   -22
 72
    10
 73
   -11
  0
VERTEX
  5
303E
  8
0
 10
0.0
 20
0.0
 30
0.0
 70
   128
 71
    21
 72
   -22
 73
   -11
  0
VERTEX
  5
303F
  8
0
 10
0.0
 20
0.0
 30
0.0
 70
   128
 71
   -23
 72
     9
 73
   -10
  0
VERTEX
  5
3040
  8
0
 10
0.0
 20
0.0
 30
0.0
 70
   128
 71
    22
 72
   -23
 73
   -10
  0
VERTEX
  5
3041
  8
0
 10
0.0
 20
0.0
 30
0.0
 70
   128
 71
   -24
 72
     8
 73
    -9
  0
VERTEX
  5
3042
  8
0
 10
0.0
 20
0.0
 30
0.0
 70
   128
 71
    23
 72
   -24
 73
    -9
  0
VERTEX
  5
3043
  8
0
 10
0.0
 20
0.0
 30
0.0
 70
   128
 71
   -13
 72
     7
 73
    -8
  0
VERTEX
  5
3044
  8
0
 10
0.0
 20
0.0
 30
0.0
 70
   128
 71
    24
 72
   -13
 73
    -8
  0
SEQEND
  5
325C
  8
0
  0
POLYLINE
  5
3045
  8
0
 66
     1
 10
0.0
 20
0.0
 30
0.0
 70
    64
 71
     4
 72
     2
  0
VERTEX
  5
3046
  8
0
 10
224.9999999999998
 20
225.0
 30
0.0
 70
   192
  0
VERTEX
  5
3047
  8
0
 10
224.9999999999999
 20
225.0
 30
-25.0
 70
   192
  0
VERTEX
  5
3048
  8
0
 10
224.9999999999998
 20
-225.0000000000001
 30
-25.0
 70
   192
  0
VERTEX
  5
3049
  8
0
 10
224.9999999999999
 20
-225.0000000000001
 30
0.0
 70
   192
  0
VERTEX
  5
304A
  8
0
 10
0.0
 20
0.0
 30
0.0
 70
   128
 71
     1
 72
     4
 73
    -3
  0
VERTEX
  5
304B
  8
0
 10
0.0
 20
0.0
 30
0.0
 70
   128
 71
    -1
 72
     3
 73
     2
  0
SEQEND
  5
325D
  8
0
  0
POLYLINE
  5
304C
  8
0
 66
     1
 10
0.0
 20
0.0
 30
0.0
 70
    64
 71
    12
 72
    10
  0
VERTEX
  5
304D
  8
0
 10
-182.0288237343632
 20
-357.2516817658064
 30
0.0
 70
   192
  0
VERTEX
  5
304E
  8
0
 10
-224.9999999999999
 20
-225.0
 30
0.0
 70
   192
  0
VERTEX
  5
304F
  8
0
 10
-224.9999999999998
 20
-225.0000000000001
 30
-25.0
 70
   192
  0
VERTEX
  5
3050
  8
0
 10
-182.0288237343632
 20
-357.2516817658064
 30
-25.0
 70
   192
  0
VERTEX
  5
3051
  8
0
 10
182.028823734363
 20
-357.2516817658064
 30
-25.0
 70
   192
  0
VERTEX
  5
3052
  8
0
 10
224.9999999999998
 20
-225.0000000000001
 30
-25.0
 70
   192
  0
VERTEX
  5
3053
  8
0
 10
224.9999999999998
 20
-225.0000000000001
 30
0.0
 70
   192
  0
VERTEX
  5
3054
  8
0
 10
182.028823734363
 20
-357.2516817658064
 30
0.0
 70
   192
  0
VERTEX
  5
3055
  8
0
 10
-69.52882373436327
 20
-438.9877161664095
 30
0.0
 70
   192
  0
VERTEX
  5
3056
  8
0
 10
-69.52882373436327
 20
-438.9877161664095
 30
-25.0
 70
   192
  0
VERTEX
  5
3057
  8
0
 10
69.528823734363
 20
-438.9877161664095
 30
-25.0
 70
   192
  0
VERTEX
  5
3058
  8
0
 10
69.528823734363
 20
-438.9877161664095
 30
0.0
 70
   192
  0
VERTEX
  5
3059
  8
0
 10
0.0
 20
0.0
 30
0.0
 70
   128
 71
     1
 72
     2
 73
    -3
  0
VERTEX
  5
305A
  8
0
 10
0.0
 20
0.0
 30
0.0
 70
   128
 71
    -1
 72
     3
 73
     4
  0
VERTEX
  5
305B
  8
0
 10
0.0
 20
0.0
 30
0.0
 70
   128
 71
     5
 72
     6
 73
    -7
  0
VERTEX
  5
305C
  8
0
 10
0.0
 20
0.0
 30
0.0
 70
   128
 71
    -5
 72
     7
 73
     8
  0
VERTEX
  5
305D
  8
0
 10
0.0
 20
0.0
 30
0.0
 70
   128
 71
     9
 72
    10
 73
   -11
  0
VERTEX
  5
305E
  8
0
 10
0.0
 20
0.0
 30
0.0
 70
   128
 71
    -9
 72
    11
 73
    12
  0
VERTEX
  5
305F
  8
0
 10
0.0
 20
0.0
 30
0.0
 70
   128
 71
     1
 72
     4
 73
   -10
  0
VERTEX
  5
3060
  8
0
 10
0.0
 20
0.0
 30
0.0
 70
   128
 71
    -1
 72
    10
 73
     9
  0
VERTEX
  5
3061
  8
0
 10
0.0
 20
0.0
 30
0.0
 70
   128
 71
    12
 72
    11
 73
    -5
  0
VERTEX
  5
3062
  8
0
 10
0.0
 20
0.0
 30
0.0
 70
   128
 71
   -12
 72
     5
 73
     8
  0
SEQEND
  5
325E
  8
0
  0
POLYLINE
  5
3063
  8
0
 66
     1
 10
0.0
 20
0.0
 30
0.0
 70
    64
 71
     4
 72
     2
  0
VERTEX
  5
3064
  8
0
 10
-224.9999999999998
 20
-225.0000000000001
 30
0.0
 70
   192
  0
VERTEX
  5
3065
  8
0
 10
-224.9999999999998
 20
225.0000000000001
 30
0.0
 70
   192
  0
VERTEX
  5
3066
  8
0
 10
-224.9999999999999
 20
225.0000000000001
 30
-25.0
 70
   192
  0
VERTEX
  5
3067
  8
0
 10
-224.9999999999998
 20
-225.0000000000001
 30
-25.0
 70
   192
  0
VERTEX
  5
3068
  8
0
 10
0.0
 20
0.0
 30
0.0
 70
   128
 71
     3
 72
     4
 73
    -1
  0
VERTEX
  5
3069
  8
0
 10
0.0
 20
0.0
 30
0.0
 70
   128
 71
     2
 72
    -3
 73
     1
  0
SEQEND
  5
325F
  8
0
  0
POLYLINE
  5
306A
  8
0
 66
     1
 10
0.0
 20
0.0
 30
0.0
 70
    64
 71
    12
 72
    10
  0
VERTEX
  5
306B
  8
0
 10
182.028823734363
 20
357.2516817658064
 30
0.0
 70
   192
  0
VERTEX
  5
306C
  8
0
 10
224.9999999999998
 20
225.0
 30
0.0
 70
   192
  0
VERTEX
  5
306D
  8
0
 10
224.9999999999998
 20
225.0
 30
-25.0
 70
   192
  0
VERTEX
  5
306E
  8
0
 10
182.028823734363
 20
357.2516817658064
 30
-25.0
 70
   192
  0
VERTEX
  5
306F
  8
0
 10
-182.0288237343632
 20
357.2516817658064
 30
-25.0
 70
   192
  0
VERTEX
  5
3070
  8
0
 10
-224.9999999999999
 20
225.0
 30
-25.0
 70
   192
  0
VERTEX
  5
3071
  8
0
 10
-224.9999999999999
 20
225.0000000000001
 30
0.0
 70
   192
  0
VERTEX
  5
3072
  8
0
 10
-182.0288237343632
 20
357.2516817658064
 30
0.0
 70
   192
  0
VERTEX
  5
3073
  8
0
 10
69.52882373436303
 20
438.9877161664094
 30
0.0
 70
   192
  0
VERTEX
  5
3074
  8
0
 10
69.52882373436303
 20
438.9877161664094
 30
-25.0
 70
   192
  0
VERTEX
  5
3075
  8
0
 10
-69.52882373436321
 20
438.9877161664094
 30
-25.0
 70
   192
  0
VERTEX
  5
3076
  8
0
 10
-69.52882373436321
 20
438.9877161664094
 30
0.0
 70
   192
  0
VERTEX
  5
3077
  8
0
 10
0.0
 20
0.0
 30
0.0
 70
   128
 71
     1
 72
     2
 73
    -3
  0
VERTEX
  5
3078
  8
0
 10
0.0
 20
0.0
 30
0.0
 70
   128
 71
    -1
 72
     3
 73
     4
  0
VERTEX
  5
3079
  8
0
 10
0.0
 20
0.0
 30
0.0
 70
   128
 71
     5
 72
     6
 73
    -7
  0
VERTEX
  5
307A
  8
0
 10
0.0
 20
0.0
 30
0.0
 70
   128
 71
    -5
 72
     7
 73
     8
  0
VERTEX
  5
307B
  8
0
 10
0.0
 20
0.0
 30
0.0
 70
   128
 71
     9
 72
    10
 73
   -11
  0
VERTEX
  5
307C
  8
0
 10
0.0
 20
0.0
 30
0.0
 70
   128
 71
    -9
 72
    11
 73
    12
  0
VERTEX
  5
307D
  8
0
 10
0.0
 20
0.0
 30
0.0
 70
   128
 71
     1
 72
     4
 73
   -10
  0
VERTEX
  5
307E
  8
0
 10
0.0
 20
0.0
 30
0.0
 70
   128
 71
    -1
 72
    10
 73
     9
  0
VERTEX
  5
307F
  8
0
 10
0.0
 20
0.0
 30
0.0
 70
   128
 71
    12
 72
    11
 73
    -5
  0
VERTEX
  5
3080
  8
0
 10
0.0
 20
0.0
 30
0.0
 70
   128
 71
   -12
 72
     5
 73
     8
  0
SEQEND
  5
3260
  8
0
  0
POLYLINE
  5
3081
  8
0
 66
     1
 10
0.0
 20
0.0
 30
0.0
 70
    64
 71
     4
 72
     2
  0
VERTEX
  5
3082
  8
0
 10
215.0
 20
-225.0000000000001
 30
0.0
 70
   192
  0
VERTEX
  5
3083
  8
0
 10
214.9999999999999
 20
225.0
 30
0.0
 70
   192
  0
VERTEX
  5
3084
  8
0
 10
214.9999999999998
 20
225.0
 30
-0.5
 70
   192
  0
VERTEX
  5
3085
  8
0
 10
215.0
 20
-225.0000000000001
 30
-0.5
 70
   192
  0
VERTEX
  5
3086
  8
0
 10
0.0
 20
0.0
 30
0.0
 70
   128
 71
     3
 72
     4
 73
    -1
  0
VERTEX
  5
3087
  8
0
 10
0.0
 20
0.0
 30
0.0
 70
   128
 71
     2
 72
    -3
 73
     1
  0
SEQEND
  5
3261
  8
0
  0
POLYLINE
  5
3088
  8
0
 66
     1
 10
0.0
 20
0.0
 30
0.0
 70
    64
 71
    12
 72
    10
  0
VERTEX
  5
3089
  8
0
 10
-215.0000000000001
 20
-225.0
 30
-0.5
 70
   192
  0
VERTEX
  5
308A
  8
0
 10
-215.0000000000001
 20
-225.0
 30
0.0
 70
   192
  0
VERTEX
  5
308B
  8
0
 10
-173.9386537906138
 20
-351.3738292428818
 30
0.0
 70
   192
  0
VERTEX
  5
308C
  8
0
 10
-173.9386537906138
 20
-351.3738292428818
 30
-0.5
 70
   192
  0
VERTEX
  5
308D
  8
0
 10
215.0
 20
-225.0000000000001
 30
0.0
 70
   192
  0
VERTEX
  5
308E
  8
0
 10
214.9999999999999
 20
-225.0000000000001
 30
-0.5
 70
   192
  0
VERTEX
  5
308F
  8
0
 10
173.9386537906136
 20
-351.3738292428818
 30
-0.5
 70
   192
  0
VERTEX
  5
3090
  8
0
 10
173.9386537906136
 20
-351.3738292428818
 30
0.0
 70
   192
  0
VERTEX
  5
3091
  8
0
 10
66.43865379061357
 20
-429.4771510034581
 30
-0.5
 70
   192
  0
VERTEX
  5
3092
  8
0
 10
-66.43865379061384
 20
-429.4771510034581
 30
-0.5
 70
   192
  0
VERTEX
  5
3093
  8
0
 10
-66.43865379061384
 20
-429.4771510034581
 30
0.0
 70
   192
  0
VERTEX
  5
3094
  8
0
 10
66.43865379061357
 20
-429.4771510034581
 30
0.0
 70
   192
  0
VERTEX
  5
3095
  8
0
 10
0.0
 20
0.0
 30
0.0
 70
   128
 71
     1
 72
     2
 73
    -3
  0
VERTEX
  5
3096
  8
0
 10
0.0
 20
0.0
 30
0.0
 70
   128
 71
     4
 72
    -1
 73
     3
  0
VERTEX
  5
3097
  8
0
 10
0.0
 20
0.0
 30
0.0
 70
   128
 71
     5
 72
     6
 73
    -7
  0
VERTEX
  5
3098
  8
0
 10
0.0
 20
0.0
 30
0.0
 70
   128
 71
     8
 72
    -5
 73
     7
  0
VERTEX
  5
3099
  8
0
 10
0.0
 20
0.0
 30
0.0
 70
   128
 71
     9
 72
    10
 73
   -11
  0
VERTEX
  5
309A
  8
0
 10
0.0
 20
0.0
 30
0.0
 70
   128
 71
    12
 72
    -9
 73
    11
  0
VERTEX
  5
309B
  8
0
 10
0.0
 20
0.0
 30
0.0
 70
   128
 71
    10
 72
     4
 73
    -3
  0
VERTEX
  5
309C
  8
0
 10
0.0
 20
0.0
 30
0.0
 70
   128
 71
    11
 72
   -10
 73
     3
  0
VERTEX
  5
309D
  8
0
 10
0.0
 20
0.0
 30
0.0
 70
   128
 71
     7
 72
     9
 73
   -12
  0
VERTEX
  5
309E
  8
0
 10
0.0
 20
0.0
 30
0.0
 70
   128
 71
     8
 72
    -7
 73
    12
  0
SEQEND
  5
3262
  8
0
  0
POLYLINE
  5
309F
  8
0
 66
     1
 10
0.0
 20
0.0
 30
0.0
 70
    64
 71
     4
 72
     2
  0
VERTEX
  5
30A0
  8
0
 10
-215.0
 20
225.0000000000001
 30
0.0
 70
   192
  0
VERTEX
  5
30A1
  8
0
 10
-214.9999999999999
 20
225.0000000000001
 30
-0.5
 70
   192
  0
VERTEX
  5
30A2
  8
0
 10
-215.0000000000001
 20
-225.0
 30
-0.5
 70
   192
  0
VERTEX
  5
30A3
  8
0
 10
-215.0000000000001
 20
-225.0
 30
0.0
 70
   192
  0
VERTEX
  5
30A4
  8
0
 10
0.0
 20
0.0
 30
0.0
 70
   128
 71
     1
 72
     4
 73
    -3
  0
VERTEX
  5
30A5
  8
0
 10
0.0
 20
0.0
 30
0.0
 70
   128
 71
    -1
 72
     3
 73
     2
  0
SEQEND
  5
3263
  8
0
  0
POLYLINE
  5
30A6
  8
0
 66
     1
 10
0.0
 20
0.0
 30
0.0
 70
    64
 71
    12
 72
    10
  0
VERTEX
  5
30A7
  8
0
 10
214.9999999999998
 20
225.0
 30
-0.5
 70
   192
  0
VERTEX
  5
30A8
  8
0
 10
214.9999999999998
 20
225.0
 30
0.0
 70
   192
  0
VERTEX
  5
30A9
  8
0
 10
173.9386537906136
 20
351.3738292428817
 30
0.0
 70
   192
  0
VERTEX
  5
30AA
  8
0
 10
173.9386537906136
 20
351.3738292428817
 30
-0.5
 70
   192
  0
VERTEX
  5
30AB
  8
0
 10
-215.0
 20
225.0
 30
0.0
 70
   192
  0
VERTEX
  5
30AC
  8
0
 10
-215.0
 20
225.0000000000001
 30
-0.5
 70
   192
  0
VERTEX
  5
30AD
  8
0
 10
-173.9386537906137
 20
351.3738292428817
 30
-0.5
 70
   192
  0
VERTEX
  5
30AE
  8
0
 10
-173.9386537906137
 20
351.3738292428817
 30
0.0
 70
   192
  0
VERTEX
  5
30AF
  8
0
 10
-66.43865379061376
 20
429.4771510034579
 30
-0.5
 70
   192
  0
VERTEX
  5
30B0
  8
0
 10
66.43865379061357
 20
429.4771510034579
 30
-0.5
 70
   192
  0
VERTEX
  5
30B1
  8
0
 10
66.43865379061357
 20
429.4771510034579
 30
0.0
 70
   192
  0
VERTEX
  5
30B2
  8
0
 10
-66.43865379061376
 20
429.4771510034579
 30
0.0
 70
   192
  0
VERTEX
  5
30B3
  8
0
 10
0.0
 20
0.0
 30
0.0
 70
   128
 71
     1
 72
     2
 73
    -3
  0
VERTEX
  5
30B4
  8
0
 10
0.0
 20
0.0
 30
0.0
 70
   128
 71
     4
 72
    -1
 73
     3
  0
VERTEX
  5
30B5
  8
0
 10
0.0
 20
0.0
 30
0.0
 70
   128
 71
     5
 72
     6
 73
    -7
  0
VERTEX
  5
30B6
  8
0
 10
0.0
 20
0.0
 30
0.0
 70
   128
 71
     8
 72
    -5
 73
     7
  0
VERTEX
  5
30B7
  8
0
 10
0.0
 20
0.0
 30
0.0
 70
   128
 71
     9
 72
    10
 73
   -11
  0
VERTEX
  5
30B8
  8
0
 10
0.0
 20
0.0
 30
0.0
 70
   128
 71
    12
 72
    -9
 73
    11
  0
VERTEX
  5
30B9
  8
0
 10
0.0
 20
0.0
 30
0.0
 70
   128
 71
    10
 72
     4
 73
    -3
  0
VERTEX
  5
30BA
  8
0
 10
0.0
 20
0.0
 30
0.0
 70
   128
 71
    11
 72
   -10
 73
     3
  0
VERTEX
  5
30BB
  8
0
 10
0.0
 20
0.0
 30
0.0
 70
   128
 71
     7
 72
     9
 73
   -12
  0
VERTEX
  5
30BC
  8
0
 10
0.0
 20
0.0
 30
0.0
 70
   128
 71
     8
 72
    -7
 73
    12
  0
SEQEND
  5
3264
  8
0
  0
POLYLINE
  5
30BD
  8
0
 66
     1
 10
0.0
 20
0.0
 30
0.0
 70
    64
 71
    12
 72
    10
  0
VERTEX
  5
30BE
  8
0
 10
215.0
 20
-225.0000000000001
 30
-0.5
 70
   192
  0
VERTEX
  5
30BF
  8
0
 10
214.9999999999999
 20
225.0
 30
-0.5
 70
   192
  0
VERTEX
  5
30C0
  8
0
 10
173.9386537906136
 20
351.3738292428817
 30
-0.5
 70
   192
  0
VERTEX
  5
30C1
  8
0
 10
66.43865379061357
 20
429.4771510034579
 30
-0.5
 70
   192
  0
VERTEX
  5
30C2
  8
0
 10
-66.43865379061376
 20
429.4771510034579
 30
-0.5
 70
   192
  0
VERTEX
  5
30C3
  8
0
 10
-173.9386537906137
 20
351.3738292428817
 30
-0.5
 70
   192
  0
VERTEX
  5
30C4
  8
0
 10
-215.0
 20
225.0
 30
-0.5
 70
   192
  0
VERTEX
  5
30C5
  8
0
 10
-215.0000000000001
 20
-225.0
 30
-0.5
 70
   192
  0
VERTEX
  5
30C6
  8
0
 10
-173.9386537906138
 20
-351.3738292428818
 30
-0.5
 70
   192
  0
VERTEX
  5
30C7
  8
0
 10
-66.43865379061384
 20
-429.4771510034581
 30
-0.5
 70
   192
  0
VERTEX
  5
30C8
  8
0
 10
66.43865379061357
 20
-429.4771510034581
 30
-0.5
 70
   192
  0
VERTEX
  5
30C9
  8
0
 10
173.9386537906136
 20
-351.3738292428818
 30
-0.5
 70
   192
  0
VERTEX
  5
30CA
  8
0
 10
0.0
 20
0.0
 30
0.0
 70
   128
 71
    11
 72
    12
 73
    -1
  0
VERTEX
  5
30CB
  8
0
 10
0.0
 20
0.0
 30
0.0
 70
   128
 71
    10
 72
   -11
 73
    -1
  0
VERTEX
  5
30CC
  8
0
 10
0.0
 20
0.0
 30
0.0
 70
   128
 71
     9
 72
   -10
 73
    -1
  0
VERTEX
  5
30CD
  8
0
 10
0.0
 20
0.0
 30
0.0
 70
   128
 71
     8
 72
    -9
 73
    -1
  0
VERTEX
  5
30CE
  8
0
 10
0.0
 20
0.0
 30
0.0
 70
   128
 71
     7
 72
    -8
 73
    -1
  0
VERTEX
  5
30CF
  8
0
 10
0.0
 20
0.0
 30
0.0
 70
   128
 71
     6
 72
    -7
 73
    -1
  0
VERTEX
  5
30D0
  8
0
 10
0.0
 20
0.0
 30
0.0
 70
   128
 71
     5
 72
    -6
 73
    -1
  0
VERTEX
  5
30D1
  8
0
 10
0.0
 20
0.0
 30
0.0
 70
   128
 71
     4
 72
    -5
 73
    -1
  0
VERTEX
  5
30D2
  8
0
 10
0.0
 20
0.0
 30
0.0
 70
   128
 71
     3
 72
    -4
 73
    -1
  0
VERTEX
  5
30D3
  8
0
 10
0.0
 20
0.0
 30
0.0
 70
   128
 71
     2
 72
    -3
 73
     1
  0
SEQEND
  5
3265
  8
0
  0
POLYLINE
  5
30D4
  8
0
 66
     1
 10
0.0
 20
0.0
 30
0.0
 70
    64
 71
    12
 72
    10
  0
VERTEX
  5
30D5
  8
0
 10
214.9999999999999
 20
-225.0000000000001
 30
-10.5
 70
   192
  0
VERTEX
  5
30D6
  8
0
 10
214.9999999999998
 20
225.0000000000001
 30
-10.5
 70
   192
  0
VERTEX
  5
30D7
  8
0
 10
173.9386537906135
 20
351.3738292428817
 30
-10.5
 70
   192
  0
VERTEX
  5
30D8
  8
0
 10
66.43865379061353
 20
429.4771510034579
 30
-10.5
 70
   192
  0
VERTEX
  5
30D9
  8
0
 10
-66.4386537906138
 20
429.4771510034579
 30
-10.5
 70
   192
  0
VERTEX
  5
30DA
  8
0
 10
-173.9386537906137
 20
351.3738292428816
 30
-10.5
 70
   192
  0
VERTEX
  5
30DB
  8
0
 10
-214.9999999999998
 20
225.0000000000001
 30
-10.5
 70
   192
  0
VERTEX
  5
30DC
  8
0
 10
-214.9999999999999
 20
-225.0000000000001
 30
-10.5
 70
   192
  0
VERTEX
  5
30DD
  8
0
 10
-173.9386537906137
 20
-351.3738292428817
 30
-10.5
 70
   192
  0
VERTEX
  5
30DE
  8
0
 10
-66.43865379061374
 20
-429.4771510034579
 30
-10.5
 70
   192
  0
VERTEX
  5
30DF
  8
0
 10
66.43865379061356
 20
-429.4771510034579
 30
-10.5
 70
   192
  0
VERTEX
  5
30E0
  8
0
 10
173.9386537906135
 20
-351.3738292428817
 30
-10.5
 70
   192
  0
VERTEX
  5
30E1
  8
0
 10
0.0
 20
0.0
 30
0.0
 70
   128
 71
     1
 72
    12
 73
   -11
  0
VERTEX
  5
30E2
  8
0
 10
0.0
 20
0.0
 30
0.0
 70
   128
 71
    -1
 72
    11
 73
   -10
  0
VERTEX
  5
30E3
  8
0
 10
0.0
 20
0.0
 30
0.0
 70
   128
 71
    -1
 72
    10
 73
    -9
  0
VERTEX
  5
30E4
  8
0
 10
0.0
 20
0.0
 30
0.0
 70
   128
 71
    -1
 72
     9
 73
    -8
  0
VERTEX
  5
30E5
  8
0
 10
0.0
 20
0.0
 30
0.0
 70
   128
 71
    -1
 72
     8
 73
    -7
  0
VERTEX
  5
30E6
  8
0
 10
0.0
 20
0.0
 30
0.0
 70
   128
 71
    -1
 72
     7
 73
    -6
  0
VERTEX
  5
30E7
  8
0
 10
0.0
 20
0.0
 30
0.0
 70
   128
 71
    -1
 72
     6
 73
    -5
  0
VERTEX
  5
30E8
  8
0
 10
0.0
 20
0.0
 30
0.0
 70
   128
 71
    -1
 72
     5
 73
    -4
  0
VERTEX
  5
30E9
  8
0
 10
0.0
 20
0.0
 30
0.0
 70
   128
 71
    -1
 72
     4
 73
    -3
  0
VERTEX
  5
30EA
  8
0
 10
0.0
 20
0.0
 30
0.0
 70
   128
 71
    -1
 72
     3
 73
     2
  0
SEQEND
  5
3266
  8
0
  0
POLYLINE
  5
30EB
  8
0
 66
     1
 10
0.0
 20
0.0
 30
0.0
 70
    64
 71
     4
 72
     2
  0
VERTEX
  5
30EC
  8
0
 10
214.9999999999999
 20
-225.0000000000001
 30
-10.5
 70
   192
  0
VERTEX
  5
30ED
  8
0
 10
214.9999999999999
 20
225.0
 30
-10.5
 70
   192
  0
VERTEX
  5
30EE
  8
0
 10
214.9999999999999
 20
225.0
 30
-25.0
 70
   192
  0
VERTEX
  5
30EF
  8
0
 10
214.9999999999999
 20
-225.0
 30
-25.0
 70
   192
  0
VERTEX
  5
30F0
  8
0
 10
0.0
 20
0.0
 30
0.0
 70
   128
 71
     3
 72
     4
 73
    -1
  0
VERTEX
  5
30F1
  8
0
 10
0.0
 20
0.0
 30
0.0
 70
   128
 71
     2
 72
    -3
 73
     1
  0
SEQEND
  5
3267
  8
0
  0
POLYLINE
  5
30F2
  8
0
 66
     1
 10
0.0
 20
0.0
 30
0.0
 70
    64
 71
    12
 72
    10
  0
VERTEX
  5
30F3
  8
0
 10
-214.9999999999999
 20
-225.0
 30
-25.0
 70
   192
  0
VERTEX
  5
30F4
  8
0
 10
-214.9999999999998
 20
-225.0000000000001
 30
-10.5
 70
   192
  0
VERTEX
  5
30F5
  8
0
 10
-173.9386537906137
 20
-351.3738292428817
 30
-10.5
 70
   192
  0
VERTEX
  5
30F6
  8
0
 10
-173.9386537906137
 20
-351.3738292428817
 30
-25.0
 70
   192
  0
VERTEX
  5
30F7
  8
0
 10
214.9999999999998
 20
-225.0000000000001
 30
-10.5
 70
   192
  0
VERTEX
  5
30F8
  8
0
 10
214.9999999999998
 20
-225.0000000000001
 30
-25.0
 70
   192
  0
VERTEX
  5
30F9
  8
0
 10
173.9386537906135
 20
-351.3738292428818
 30
-25.0
 70
   192
  0
VERTEX
  5
30FA
  8
0
 10
173.9386537906135
 20
-351.3738292428817
 30
-10.5
 70
   192
  0
VERTEX
  5
30FB
  8
0
 10
66.43865379061353
 20
-429.4771510034579
 30
-25.0
 70
   192
  0
VERTEX
  5
30FC
  8
0
 10
-66.4386537906138
 20
-429.4771510034579
 30
-25.0
 70
   192
  0
VERTEX
  5
30FD
  8
0
 10
-66.43865379061374
 20
-429.4771510034579
 30
-10.5
 70
   192
  0
VERTEX
  5
30FE
  8
0
 10
66.43865379061356
 20
-429.4771510034579
 30
-10.5
 70
   192
  0
VERTEX
  5
30FF
  8
0
 10
0.0
 20
0.0
 30
0.0
 70
   128
 71
     1
 72
     2
 73
    -3
  0
VERTEX
  5
3100
  8
0
 10
0.0
 20
0.0
 30
0.0
 70
   128
 71
     4
 72
    -1
 73
     3
  0
VERTEX
  5
3101
  8
0
 10
0.0
 20
0.0
 30
0.0
 70
   128
 71
     5
 72
     6
 73
    -7
  0
VERTEX
  5
3102
  8
0
 10
0.0
 20
0.0
 30
0.0
 70
   128
 71
     8
 72
    -5
 73
     7
  0
VERTEX
  5
3103
  8
0
 10
0.0
 20
0.0
 30
0.0
 70
   128
 71
     9
 72
    10
 73
   -11
  0
VERTEX
  5
3104
  8
0
 10
0.0
 20
0.0
 30
0.0
 70
   128
 71
    12
 72
    -9
 73
    11
  0
VERTEX
  5
3105
  8
0
 10
0.0
 20
0.0
 30
0.0
 70
   128
 71
    10
 72
     4
 73
    -3
  0
VERTEX
  5
3106
  8
0
 10
0.0
 20
0.0
 30
0.0
 70
   128
 71
    11
 72
   -10
 73
     3
  0
VERTEX
  5
3107
  8
0
 10
0.0
 20
0.0
 30
0.0
 70
   128
 71
     7
 72
     9
 73
   -12
  0
VERTEX
  5
3108
  8
0
 10
0.0
 20
0.0
 30
0.0
 70
   128
 71
     8
 72
    -7
 73
    12
  0
SEQEND
  5
3268
  8
0
  0
POLYLINE
  5
3109
  8
0
 66
     1
 10
0.0
 20
0.0
 30
0.0
 70
    64
 71
     4
 72
     2
  0
VERTEX
  5
310A
  8
0
 10
-214.9999999999998
 20
-225.0000000000001
 30
-10.5
 70
   192
  0
VERTEX
  5
310B
  8
0
 10
-214.9999999999999
 20
225.0000000000001
 30
-10.5
 70
   192
  0
VERTEX
  5
310C
  8
0
 10
-214.9999999999998
 20
225.0000000000001
 30
-25.0
 70
   192
  0
VERTEX
  5
310D
  8
0
 10
-214.9999999999998
 20
-225.0000000000001
 30
-25.0
 70
   192
  0
VERTEX
  5
310E
  8
0
 10
0.0
 20
0.0
 30
0.0
 70
   128
 71
     1
 72
     4
 73
    -3
  0
VERTEX
  5
310F
  8
0
 10
0.0
 20
0.0
 30
0.0
 70
   128
 71
    -1
 72
     3
 73
     2
  0
SEQEND
  5
3269
  8
0
  0
POLYLINE
  5
3110
  8
0
 66
     1
 10
0.0
 20
0.0
 30
0.0
 70
    64
 71
    12
 72
    10
  0
VERTEX
  5
3111
  8
0
 10
214.9999999999998
 20
225.0
 30
-25.0
 70
   192
  0
VERTEX
  5
3112
  8
0
 10
214.9999999999999
 20
225.0
 30
-10.5
 70
   192
  0
VERTEX
  5
3113
  8
0
 10
173.9386537906135
 20
351.3738292428817
 30
-10.5
 70
   192
  0
VERTEX
  5
3114
  8
0
 10
173.9386537906135
 20
351.3738292428817
 30
-25.0
 70
   192
  0
VERTEX
  5
3115
  8
0
 10
-214.9999999999999
 20
225.0000000000001
 30
-10.5
 70
   192
  0
VERTEX
  5
3116
  8
0
 10
-214.9999999999999
 20
225.0000000000001
 30
-25.0
 70
   192
  0
VERTEX
  5
3117
  8
0
 10
-173.9386537906137
 20
351.3738292428817
 30
-25.0
 70
   192
  0
VERTEX
  5
3118
  8
0
 10
-173.9386537906137
 20
351.3738292428816
 30
-10.5
 70
   192
  0
VERTEX
  5
3119
  8
0
 10
-66.43865379061374
 20
429.4771510034579
 30
-25.0
 70
   192
  0
VERTEX
  5
311A
  8
0
 10
66.43865379061356
 20
429.4771510034579
 30
-25.0
 70
   192
  0
VERTEX
  5
311B
  8
0
 10
66.43865379061353
 20
429.4771510034579
 30
-10.5
 70
   192
  0
VERTEX
  5
311C
  8
0
 10
-66.4386537906138
 20
429.4771510034579
 30
-10.5
 70
   192
  0
VERTEX
  5
311D
  8
0
 10
0.0
 20
0.0
 30
0.0
 70
   128
 71
     1
 72
     2
 73
    -3
  0
VERTEX
  5
311E
  8
0
 10
0.0
 20
0.0
 30
0.0
 70
   128
 71
     4
 72
    -1
 73
     3
  0
VERTEX
  5
311F
  8
0
 10
0.0
 20
0.0
 30
0.0
 70
   128
 71
     5
 72
     6
 73
    -7
  0
VERTEX
  5
3120
  8
0
 10
0.0
 20
0.0
 30
0.0
 70
   128
 71
     8
 72
    -5
 73
     7
  0
VERTEX
  5
3121
  8
0
 10
0.0
 20
0.0
 30
0.0
 70
   128
 71
     9
 72
    10
 73
   -11
  0
VERTEX
  5
3122
  8
0
 10
0.0
 20
0.0
 30
0.0
 70
   128
 71
    12
 72
    -9
 73
    11
  0
VERTEX
  5
3123
  8
0
 10
0.0
 20
0.0
 30
0.0
 70
   128
 71
    10
 72
     4
 73
    -3
  0
VERTEX
  5
3124
  8
0
 10
0.0
 20
0.0
 30
0.0
 70
   128
 71
    11
 72
   -10
 73
     3
  0
VERTEX
  5
3125
  8
0
 10
0.0
 20
0.0
 30
0.0
 70
   128
 71
     7
 72
     9
 73
   -12
  0
VERTEX
  5
3126
  8
0
 10
0.0
 20
0.0
 30
0.0
 70
   128
 71
     8
 72
    -7
 73
    12
  0
SEQEND
  5
326A
  8
0
  0
ENDBLK
  5
325A
  8
0
  0
BLOCK
  8
0
  2
*X2
 70
     1
 10
0.0
 20
0.0
 30
0.0
  3
*X2
  1

  0
POLYLINE
  5
3128
  8
0
 66
     1
 10
0.0
 20
0.0
 30
0.0
 70
    64
 71
     6
 72
     4
  0
VERTEX
  5
3129
  8
0
 10
127.0
 20
229.9999999999998
 30
-13.5
 70
   192
  0
VERTEX
  5
312A
  8
0
 10
129.9999999999999
 20
229.9999999999998
 30
-13.5
 70
   192
  0
VERTEX
  5
312B
  8
0
 10
129.9999999999999
 20
229.9999999999998
 30
-20.5
 70
   192
  0
VERTEX
  5
312C
  8
0
 10
92.99999999999994
 20
229.9999999999999
 30
-20.5
 70
   192
  0
VERTEX
  5
312D
  8
0
 10
92.99999999999996
 20
229.9999999999999
 30
-17.5
 70
   192
  0
VERTEX
  5
312E
  8
0
 10
126.9999999999999
 20
229.9999999999998
 30
-17.5
 70
   192
  0
VERTEX
  5
312F
  8
0
 10
0.0
 20
0.0
 30
0.0
 70
   128
 71
     6
 72
     5
 73
    -4
  0
VERTEX
  5
3130
  8
0
 10
0.0
 20
0.0
 30
0.0
 70
   128
 71
    -6
 72
     4
 73
    -3
  0
VERTEX
  5
3131
  8
0
 10
0.0
 20
0.0
 30
0.0
 70
   128
 71
     3
 72
     2
 73
    -1
  0
VERTEX
  5
3132
  8
0
 10
0.0
 20
0.0
 30
0.0
 70
   128
 71
    -3
 72
     1
 73
    -6
  0
SEQEND
  5
326D
  8
0
  0
POLYLINE
  5
3133
  8
0
 66
     1
 10
0.0
 20
0.0
 30
0.0
 70
    64
 71
     8
 72
     6
  0
VERTEX
  5
3134
  8
0
 10
126.9999999999999
 20
251.9999999999998
 30
-13.5
 70
   192
  0
VERTEX
  5
3135
  8
0
 10
127.0
 20
229.9999999999998
 30
-13.5
 70
   192
  0
VERTEX
  5
3136
  8
0
 10
129.9999999999999
 20
229.9999999999998
 30
-13.5
 70
   192
  0
VERTEX
  5
3137
  8
0
 10
130.0
 20
194.9999999999998
 30
-13.5
 70
   192
  0
VERTEX
  5
3138
  8
0
 10
49.99999999999994
 20
194.9999999999998
 30
-13.5
 70
   192
  0
VERTEX
  5
3139
  8
0
 10
49.99999999999995
 20
229.9999999999998
 30
-13.5
 70
   192
  0
VERTEX
  5
313A
  8
0
 10
52.99999999999995
 20
229.9999999999998
 30
-13.5
 70
   192
  0
VERTEX
  5
313B
  8
0
 10
52.99999999999996
 20
251.9999999999998
 30
-13.5
 70
   192
  0
VERTEX
  5
313C
  8
0
 10
0.0
 20
0.0
 30
0.0
 70
   128
 71
     5
 72
     6
 73
    -7
  0
VERTEX
  5
313D
  8
0
 10
0.0
 20
0.0
 30
0.0
 70
   128
 71
     8
 72
     1
 73
    -2
  0
VERTEX
  5
313E
  8
0
 10
0.0
 20
0.0
 30
0.0
 70
   128
 71
     7
 72
    -8
 73
    -2
  0
VERTEX
  5
313F
  8
0
 10
0.0
 20
0.0
 30
0.0
 70
   128
 71
     4
 72
    -5
 73
    -7
  0
VERTEX
  5
3140
  8
0
 10
0.0
 20
0.0
 30
0.0
 70
   128
 71
    -2
 72
    -4
 73
    -7
  0
VERTEX
  5
3141
  8
0
 10
0.0
 20
0.0
 30
0.0
 70
   128
 71
     2
 72
     3
 73
    -4
  0
SEQEND
  5
326E
  8
0
  0
POLYLINE
  5
3142
  8
0
 66
     1
 10
0.0
 20
0.0
 30
0.0
 70
    64
 71
     6
 72
     4
  0
VERTEX
  5
3143
  8
0
 10
129.9999999999999
 20
254.9999999999998
 30
-10.5
 70
   192
  0
VERTEX
  5
3144
  8
0
 10
129.9999999999999
 20
254.9999999999998
 30
-20.5
 70
   192
  0
VERTEX
  5
3145
  8
0
 10
129.9999999999999
 20
229.9999999999998
 30
-20.5
 70
   192
  0
VERTEX
  5
3146
  8
0
 10
129.9999999999999
 20
229.9999999999998
 30
-13.5
 70
   192
  0
VERTEX
  5
3147
  8
0
 10
130.0
 20
194.9999999999998
 30
-13.5
 70
   192
  0
VERTEX
  5
3148
  8
0
 10
130.0
 20
194.9999999999998
 30
-10.5
 70
   192
  0
VERTEX
  5
3149
  8
0
 10
0.0
 20
0.0
 30
0.0
 70
   128
 71
     4
 72
     3
 73
    -2
  0
VERTEX
  5
314A
  8
0
 10
0.0
 20
0.0
 30
0.0
 70
   128
 71
    -4
 72
     2
 73
    -1
  0
VERTEX
  5
314B
  8
0
 10
0.0
 20
0.0
 30
0.0
 70
   128
 71
     1
 72
     6
 73
    -5
  0
VERTEX
  5
314C
  8
0
 10
0.0
 20
0.0
 30
0.0
 70
   128
 71
    -1
 72
     5
 73
    -4
  0
SEQEND
  5
326F
  8
0
  0
POLYLINE
  5
314D
  8
0
 66
     1
 10
0.0
 20
0.0
 30
0.0
 70
    64
 71
     4
 72
     2
  0
VERTEX
  5
314E
  8
0
 10
130.0
 20
194.9999999999998
 30
-10.5
 70
   192
  0
VERTEX
  5
314F
  8
0
 10
130.0
 20
194.9999999999998
 30
-13.5
 70
   192
  0
VERTEX
  5
3150
  8
0
 10
49.99999999999994
 20
194.9999999999998
 30
-13.5
 70
   192
  0
VERTEX
  5
3151
  8
0
 10
49.99999999999994
 20
194.9999999999998
 30
-10.5
 70
   192
  0
VERTEX
  5
3152
  8
0
 10
0.0
 20
0.0
 30
0.0
 70
   128
 71
     1
 72
     4
 73
    -3
  0
VERTEX
  5
3153
  8
0
 10
0.0
 20
0.0
 30
0.0
 70
   128
 71
    -1
 72
     3
 73
     2
  0
SEQEND
  5
3270
  8
0
  0
POLYLINE
  5
3154
  8
0
 66
     1
 10
0.0
 20
0.0
 30
0.0
 70
    64
 71
     6
 72
     4
  0
VERTEX
  5
3155
  8
0
 10
49.99999999999995
 20
229.9999999999998
 30
-20.5
 70
   192
  0
VERTEX
  5
3156
  8
0
 10
49.99999999999995
 20
229.9999999999998
 30
-13.5
 70
   192
  0
VERTEX
  5
3157
  8
0
 10
49.99999999999994
 20
194.9999999999998
 30
-13.5
 70
   192
  0
VERTEX
  5
3158
  8
0
 10
49.99999999999994
 20
194.9999999999998
 30
-10.5
 70
   192
  0
VERTEX
  5
3159
  8
0
 10
49.99999999999996
 20
254.9999999999998
 30
-10.5
 70
   192
  0
VERTEX
  5
315A
  8
0
 10
49.99999999999996
 20
254.9999999999998
 30
-20.5
 70
   192
  0
VERTEX
  5
315B
  8
0
 10
0.0
 20
0.0
 30
0.0
 70
   128
 71
     6
 72
     1
 73
    -2
  0
VERTEX
  5
315C
  8
0
 10
0.0
 20
0.0
 30
0.0
 70
   128
 71
     5
 72
    -6
 73
    -2
  0
VERTEX
  5
315D
  8
0
 10
0.0
 20
0.0
 30
0.0
 70
   128
 71
     3
 72
     4
 73
    -5
  0
VERTEX
  5
315E
  8
0
 10
0.0
 20
0.0
 30
0.0
 70
   128
 71
     2
 72
    -3
 73
    -5
  0
SEQEND
  5
3271
  8
0
  0
POLYLINE
  5
315F
  8
0
 66
     1
 10
0.0
 20
0.0
 30
0.0
 70
    64
 71
     4
 72
     2
  0
VERTEX
  5
3160
  8
0
 10
49.99999999999997
 20
254.9999999999998
 30
-10.5
 70
   192
  0
VERTEX
  5
3161
  8
0
 10
129.9999999999999
 20
254.9999999999998
 30
-10.5
 70
   192
  0
VERTEX
  5
3162
  8
0
 10
129.9999999999999
 20
254.9999999999998
 30
-20.5
 70
   192
  0
VERTEX
  5
3163
  8
0
 10
49.99999999999996
 20
254.9999999999998
 30
-20.5
 70
   192
  0
VERTEX
  5
3164
  8
0
 10
0.0
 20
0.0
 30
0.0
 70
   128
 71
     3
 72
     4
 73
    -1
  0
VERTEX
  5
3165
  8
0
 10
0.0
 20
0.0
 30
0.0
 70
   128
 71
     2
 72
    -3
 73
     1
  0
SEQEND
  5
3272
  8
0
  0
POLYLINE
  5
3166
  8
0
 66
     1
 10
0.0
 20
0.0
 30
0.0
 70
    64
 71
     4
 72
     2
  0
VERTEX
  5
3167
  8
0
 10
49.99999999999994
 20
194.9999999999998
 30
-10.5
 70
   192
  0
VERTEX
  5
3168
  8
0
 10
49.99999999999997
 20
254.9999999999998
 30
-10.5
 70
   192
  0
VERTEX
  5
3169
  8
0
 10
129.9999999999999
 20
254.9999999999998
 30
-10.5
 70
   192
  0
VERTEX
  5
316A
  8
0
 10
130.0
 20
194.9999999999998
 30
-10.5
 70
   192
  0
VERTEX
  5
316B
  8
0
 10
0.0
 20
0.0
 30
0.0
 70
   128
 71
     1
 72
     4
 73
    -3
  0
VERTEX
  5
316C
  8
0
 10
0.0
 20
0.0
 30
0.0
 70
   128
 71
    -1
 72
     3
 73
     2
  0
SEQEND
  5
3273
  8
0
  0
POLYLINE
  5
316D
  8
0
 66
     1
 10
0.0
 20
0.0
 30
0.0
 70
    64
 71
     4
 72
     2
  0
VERTEX
  5
316E
  8
0
 10
87.00000000000004
 20
249.9999999999999
 30
-20.5
 70
   192
  0
VERTEX
  5
316F
  8
0
 10
87.00000000000004
 20
229.9999999999999
 30
-20.5
 70
   192
  0
VERTEX
  5
3170
  8
0
 10
87.00000000000004
 20
229.9999999999998
 30
-17.5
 70
   192
  0
VERTEX
  5
3171
  8
0
 10
87.00000000000004
 20
249.9999999999999
 30
-17.5
 70
   192
  0
VERTEX
  5
3172
  8
0
 10
0.0
 20
0.0
 30
0.0
 70
   128
 71
     1
 72
     4
 73
    -3
  0
VERTEX
  5
3173
  8
0
 10
0.0
 20
0.0
 30
0.0
 70
   128
 71
    -1
 72
     3
 73
     2
  0
SEQEND
  5
3274
  8
0
  0
POLYLINE
  5
3174
  8
0
 66
     1
 10
0.0
 20
0.0
 30
0.0
 70
    64
 71
     6
 72
     4
  0
VERTEX
  5
3175
  8
0
 10
87.00000000000004
 20
229.9999999999999
 30
-17.5
 70
   192
  0
VERTEX
  5
3176
  8
0
 10
87.00000000000004
 20
229.9999999999999
 30
-20.5
 70
   192
  0
VERTEX
  5
3177
  8
0
 10
49.99999999999995
 20
229.9999999999998
 30
-20.5
 70
   192
  0
VERTEX
  5
3178
  8
0
 10
49.99999999999995
 20
229.9999999999998
 30
-13.5
 70
   192
  0
VERTEX
  5
3179
  8
0
 10
52.99999999999995
 20
229.9999999999998
 30
-13.5
 70
   192
  0
VERTEX
  5
317A
  8
0
 10
52.99999999999995
 20
229.9999999999998
 30
-17.5
 70
   192
  0
VERTEX
  5
317B
  8
0
 10
0.0
 20
0.0
 30
0.0
 70
   128
 71
     6
 72
     5
 73
    -4
  0
VERTEX
  5
317C
  8
0
 10
0.0
 20
0.0
 30
0.0
 70
   128
 71
    -6
 72
     4
 73
    -3
  0
VERTEX
  5
317D
  8
0
 10
0.0
 20
0.0
 30
0.0
 70
   128
 71
     3
 72
     2
 73
    -1
  0
VERTEX
  5
317E
  8
0
 10
0.0
 20
0.0
 30
0.0
 70
   128
 71
    -3
 72
     1
 73
    -6
  0
SEQEND
  5
3275
  8
0
  0
POLYLINE
  5
317F
  8
0
 66
     1
 10
0.0
 20
0.0
 30
0.0
 70
    64
 71
     4
 72
     2
  0
VERTEX
  5
3180
  8
0
 10
92.99999999999994
 20
229.9999999999998
 30
-20.5
 70
   192
  0
VERTEX
  5
3181
  8
0
 10
92.99999999999994
 20
249.9999999999999
 30
-20.5
 70
   192
  0
VERTEX
  5
3182
  8
0
 10
92.99999999999994
 20
249.9999999999999
 30
-17.5
 70
   192
  0
VERTEX
  5
3183
  8
0
 10
92.99999999999994
 20
229.9999999999999
 30
-17.5
 70
   192
  0
VERTEX
  5
3184
  8
0
 10
0.0
 20
0.0
 30
0.0
 70
   128
 71
     1
 72
     4
 73
    -3
  0
VERTEX
  5
3185
  8
0
 10
0.0
 20
0.0
 30
0.0
 70
   128
 71
    -1
 72
     3
 73
     2
  0
SEQEND
  5
3276
  8
0
  0
POLYLINE
  5
3186
  8
0
 66
     1
 10
0.0
 20
0.0
 30
0.0
 70
    64
 71
     4
 72
     2
  0
VERTEX
  5
3187
  8
0
 10
92.99999999999994
 20
249.9999999999999
 30
-20.5
 70
   192
  0
VERTEX
  5
3188
  8
0
 10
87.00000000000004
 20
249.9999999999999
 30
-20.5
 70
   192
  0
VERTEX
  5
3189
  8
0
 10
87.00000000000004
 20
249.9999999999999
 30
-17.5
 70
   192
  0
VERTEX
  5
318A
  8
0
 10
92.99999999999994
 20
249.9999999999999
 30
-17.5
 70
   192
  0
VERTEX
  5
318B
  8
0
 10
0.0
 20
0.0
 30
0.0
 70
   128
 71
     1
 72
     4
 73
    -3
  0
VERTEX
  5
318C
  8
0
 10
0.0
 20
0.0
 30
0.0
 70
   128
 71
    -1
 72
     3
 73
     2
  0
SEQEND
  5
3277
  8
0
  0
POLYLINE
  5
318D
  8
0
 66
     1
 10
0.0
 20
0.0
 30
0.0
 70
    64
 71
     8
 72
     6
  0
VERTEX
  5
318E
  8
0
 10
87.00000000000004
 20
249.9999999999999
 30
-20.5
 70
   192
  0
VERTEX
  5
318F
  8
0
 10
87.00000000000004
 20
229.9999999999998
 30
-20.5
 70
   192
  0
VERTEX
  5
3190
  8
0
 10
49.99999999999995
 20
229.9999999999998
 30
-20.5
 70
   192
  0
VERTEX
  5
3191
  8
0
 10
49.99999999999996
 20
254.9999999999998
 30
-20.5
 70
   192
  0
VERTEX
  5
3192
  8
0
 10
129.9999999999999
 20
254.9999999999998
 30
-20.5
 70
   192
  0
VERTEX
  5
3193
  8
0
 10
129.9999999999999
 20
229.9999999999998
 30
-20.5
 70
   192
  0
VERTEX
  5
3194
  8
0
 10
92.99999999999996
 20
229.9999999999999
 30
-20.5
 70
   192
  0
VERTEX
  5
3195
  8
0
 10
92.99999999999994
 20
249.9999999999999
 30
-20.5
 70
   192
  0
VERTEX
  5
3196
  8
0
 10
0.0
 20
0.0
 30
0.0
 70
   128
 71
     6
 72
     7
 73
    -8
  0
VERTEX
  5
3197
  8
0
 10
0.0
 20
0.0
 30
0.0
 70
   128
 71
     5
 72
    -6
 73
    -8
  0
VERTEX
  5
3198
  8
0
 10
0.0
 20
0.0
 30
0.0
 70
   128
 71
    -1
 72
     4
 73
    -5
  0
VERTEX
  5
3199
  8
0
 10
0.0
 20
0.0
 30
0.0
 70
   128
 71
     8
 72
    -1
 73
    -5
  0
VERTEX
  5
319A
  8
0
 10
0.0
 20
0.0
 30
0.0
 70
   128
 71
     2
 72
     3
 73
    -4
  0
VERTEX
  5
319B
  8
0
 10
0.0
 20
0.0
 30
0.0
 70
   128
 71
     1
 72
    -2
 73
    -4
  0
SEQEND
  5
3278
  8
0
  0
POLYLINE
  5
319C
  8
0
 66
     1
 10
0.0
 20
0.0
 30
0.0
 70
    64
 71
     4
 72
     2
  0
VERTEX
  5
319D
  8
0
 10
127.0
 20
229.9999999999998
 30
-13.5
 70
   192
  0
VERTEX
  5
319E
  8
0
 10
126.9999999999999
 20
251.9999999999998
 30
-13.5
 70
   192
  0
VERTEX
  5
319F
  8
0
 10
126.9999999999999
 20
251.9999999999998
 30
-17.5
 70
   192
  0
VERTEX
  5
31A0
  8
0
 10
127.0
 20
229.9999999999998
 30
-17.5
 70
   192
  0
VERTEX
  5
31A1
  8
0
 10
0.0
 20
0.0
 30
0.0
 70
   128
 71
     3
 72
     4
 73
    -1
  0
VERTEX
  5
31A2
  8
0
 10
0.0
 20
0.0
 30
0.0
 70
   128
 71
     2
 72
    -3
 73
     1
  0
SEQEND
  5
3279
  8
0
  0
POLYLINE
  5
31A3
  8
0
 66
     1
 10
0.0
 20
0.0
 30
0.0
 70
    64
 71
     4
 72
     2
  0
VERTEX
  5
31A4
  8
0
 10
52.99999999999995
 20
229.9999999999998
 30
-13.5
 70
   192
  0
VERTEX
  5
31A5
  8
0
 10
52.99999999999996
 20
251.9999999999998
 30
-13.5
 70
   192
  0
VERTEX
  5
31A6
  8
0
 10
52.99999999999996
 20
251.9999999999998
 30
-17.5
 70
   192
  0
VERTEX
  5
31A7
  8
0
 10
52.99999999999995
 20
229.9999999999998
 30
-17.5
 70
   192
  0
VERTEX
  5
31A8
  8
0
 10
0.0
 20
0.0
 30
0.0
 70
   128
 71
     1
 72
     4
 73
    -3
  0
VERTEX
  5
31A9
  8
0
 10
0.0
 20
0.0
 30
0.0
 70
   128
 71
    -1
 72
     3
 73
     2
  0
SEQEND
  5
327A
  8
0
  0
POLYLINE
  5
31AA
  8
0
 66
     1
 10
0.0
 20
0.0
 30
0.0
 70
    64
 71
     4
 72
     2
  0
VERTEX
  5
31AB
  8
0
 10
126.9999999999999
 20
251.9999999999998
 30
-13.5
 70
   192
  0
VERTEX
  5
31AC
  8
0
 10
126.9999999999999
 20
251.9999999999998
 30
-17.5
 70
   192
  0
VERTEX
  5
31AD
  8
0
 10
52.99999999999996
 20
251.9999999999998
 30
-17.5
 70
   192
  0
VERTEX
  5
31AE
  8
0
 10
52.99999999999997
 20
251.9999999999998
 30
-13.5
 70
   192
  0
VERTEX
  5
31AF
  8
0
 10
0.0
 20
0.0
 30
0.0
 70
   128
 71
     1
 72
     4
 73
    -3
  0
VERTEX
  5
31B0
  8
0
 10
0.0
 20
0.0
 30
0.0
 70
   128
 71
    -1
 72
     3
 73
     2
  0
SEQEND
  5
327B
  8
0
  0
POLYLINE
  5
31B1
  8
0
 66
     1
 10
0.0
 20
0.0
 30
0.0
 70
    64
 71
     8
 72
     6
  0
VERTEX
  5
31B2
  8
0
 10
87.00000000000004
 20
229.9999999999999
 30
-17.5
 70
   192
  0
VERTEX
  5
31B3
  8
0
 10
52.99999999999995
 20
229.9999999999998
 30
-17.5
 70
   192
  0
VERTEX
  5
31B4
  8
0
 10
52.99999999999997
 20
251.9999999999998
 30
-17.5
 70
   192
  0
VERTEX
  5
31B5
  8
0
 10
126.9999999999999
 20
251.9999999999998
 30
-17.5
 70
   192
  0
VERTEX
  5
31B6
  8
0
 10
127.0
 20
229.9999999999998
 30
-17.5
 70
   192
  0
VERTEX
  5
31B7
  8
0
 10
92.99999999999994
 20
229.9999999999998
 30
-17.5
 70
   192
  0
VERTEX
  5
31B8
  8
0
 10
92.99999999999994
 20
249.9999999999999
 30
-17.5
 70
   192
  0
VERTEX
  5
31B9
  8
0
 10
87.00000000000004
 20
249.9999999999999
 30
-17.5
 70
   192
  0
VERTEX
  5
31BA
  8
0
 10
0.0
 20
0.0
 30
0.0
 70
   128
 71
     7
 72
     6
 73
    -5
  0
VERTEX
  5
31BB
  8
0
 10
0.0
 20
0.0
 30
0.0
 70
   128
 71
    -7
 72
     5
 73
    -4
  0
VERTEX
  5
31BC
  8
0
 10
0.0
 20
0.0
 30
0.0
 70
   128
 71
    -4
 72
     8
 73
    -7
  0
VERTEX
  5
31BD
  8
0
 10
0.0
 20
0.0
 30
0.0
 70
   128
 71
     4
 72
    -3
 73
    -8
  0
VERTEX
  5
31BE
  8
0
 10
0.0
 20
0.0
 30
0.0
 70
   128
 71
     3
 72
     2
 73
    -1
  0
VERTEX
  5
31BF
  8
0
 10
0.0
 20
0.0
 30
0.0
 70
   128
 71
    -3
 72
     1
 73
    -8
  0
SEQEND
  5
327C
  8
0
  0
ENDBLK
  5
326C
  8
0
  0
BLOCK
  8
0
  2
*X3
 70
     1
 10
0.0
 20
0.0
 30
0.0
  3
*X3
  1

  0
POLYLINE
  5
31C1
  8
0
 66
     1
 10
0.0
 20
0.0
 30
0.0
 70
    64
 71
     6
 72
     4
  0
VERTEX
  5
31C2
  8
0
 10
-92.99999999999996
 20
229.9999999999999
 30
-17.5
 70
   192
  0
VERTEX
  5
31C3
  8
0
 10
-127.0000000000001
 20
229.9999999999998
 30
-17.5
 70
   192
  0
VERTEX
  5
31C4
  8
0
 10
-127.0000000000001
 20
229.9999999999998
 30
-13.5
 70
   192
  0
VERTEX
  5
31C5
  8
0
 10
-130.0000000000001
 20
229.9999999999998
 30
-13.5
 70
   192
  0
VERTEX
  5
31C6
  8
0
 10
-130.0000000000001
 20
229.9999999999999
 30
-20.5
 70
   192
  0
VERTEX
  5
31C7
  8
0
 10
-92.99999999999996
 20
229.9999999999999
 30
-20.5
 70
   192
  0
VERTEX
  5
31C8
  8
0
 10
0.0
 20
0.0
 30
0.0
 70
   128
 71
     6
 72
     1
 73
    -2
  0
VERTEX
  5
31C9
  8
0
 10
0.0
 20
0.0
 30
0.0
 70
   128
 71
     5
 72
    -6
 73
    -2
  0
VERTEX
  5
31CA
  8
0
 10
0.0
 20
0.0
 30
0.0
 70
   128
 71
     3
 72
     4
 73
    -5
  0
VERTEX
  5
31CB
  8
0
 10
0.0
 20
0.0
 30
0.0
 70
   128
 71
     2
 72
    -3
 73
    -5
  0
SEQEND
  5
327F
  8
0
  0
POLYLINE
  5
31CC
  8
0
 66
     1
 10
0.0
 20
0.0
 30
0.0
 70
    64
 71
     6
 72
     4
  0
VERTEX
  5
31CD
  8
0
 10
-49.99999999999998
 20
194.9999999999998
 30
-13.5
 70
   192
  0
VERTEX
  5
31CE
  8
0
 10
-49.99999999999998
 20
194.9999999999998
 30
-10.5
 70
   192
  0
VERTEX
  5
31CF
  8
0
 10
-49.99999999999997
 20
254.9999999999998
 30
-10.5
 70
   192
  0
VERTEX
  5
31D0
  8
0
 10
-49.99999999999997
 20
254.9999999999998
 30
-20.5
 70
   192
  0
VERTEX
  5
31D1
  8
0
 10
-49.99999999999997
 20
229.9999999999999
 30
-20.5
 70
   192
  0
VERTEX
  5
31D2
  8
0
 10
-49.99999999999997
 20
229.9999999999999
 30
-13.5
 70
   192
  0
VERTEX
  5
31D3
  8
0
 10
0.0
 20
0.0
 30
0.0
 70
   128
 71
     6
 72
     5
 73
    -4
  0
VERTEX
  5
31D4
  8
0
 10
0.0
 20
0.0
 30
0.0
 70
   128
 71
    -6
 72
     4
 73
    -3
  0
VERTEX
  5
31D5
  8
0
 10
0.0
 20
0.0
 30
0.0
 70
   128
 71
     3
 72
     2
 73
    -1
  0
VERTEX
  5
31D6
  8
0
 10
0.0
 20
0.0
 30
0.0
 70
   128
 71
    -3
 72
     1
 73
    -6
  0
SEQEND
  5
3280
  8
0
  0
POLYLINE
  5
31D7
  8
0
 66
     1
 10
0.0
 20
0.0
 30
0.0
 70
    64
 71
     4
 72
     2
  0
VERTEX
  5
31D8
  8
0
 10
-49.99999999999998
 20
194.9999999999998
 30
-10.5
 70
   192
  0
VERTEX
  5
31D9
  8
0
 10
-49.99999999999998
 20
194.9999999999998
 30
-13.5
 70
   192
  0
VERTEX
  5
31DA
  8
0
 10
-130.0000000000001
 20
194.9999999999997
 30
-13.5
 70
   192
  0
VERTEX
  5
31DB
  8
0
 10
-130.0000000000001
 20
194.9999999999997
 30
-10.5
 70
   192
  0
VERTEX
  5
31DC
  8
0
 10
0.0
 20
0.0
 30
0.0
 70
   128
 71
     1
 72
     4
 73
    -3
  0
VERTEX
  5
31DD
  8
0
 10
0.0
 20
0.0
 30
0.0
 70
   128
 71
    -1
 72
     3
 73
     2
  0
SEQEND
  5
3281
  8
0
  0
POLYLINE
  5
31DE
  8
0
 66
     1
 10
0.0
 20
0.0
 30
0.0
 70
    64
 71
     6
 72
     4
  0
VERTEX
  5
31DF
  8
0
 10
-130.0000000000001
 20
194.9999999999997
 30
-13.5
 70
   192
  0
VERTEX
  5
31E0
  8
0
 10
-130.0000000000001
 20
194.9999999999997
 30
-10.5
 70
   192
  0
VERTEX
  5
31E1
  8
0
 10
-130.0000000000001
 20
254.9999999999998
 30
-10.5
 70
   192
  0
VERTEX
  5
31E2
  8
0
 10
-130.0000000000001
 20
254.9999999999998
 30
-20.5
 70
   192
  0
VERTEX
  5
31E3
  8
0
 10
-130.0000000000001
 20
229.9999999999998
 30
-20.5
 70
   192
  0
VERTEX
  5
31E4
  8
0
 10
-130.0000000000001
 20
229.9999999999999
 30
-13.5
 70
   192
  0
VERTEX
  5
31E5
  8
0
 10
0.0
 20
0.0
 30
0.0
 70
   128
 71
     4
 72
     5
 73
    -6
  0
VERTEX
  5
31E6
  8
0
 10
0.0
 20
0.0
 30
0.0
 70
   128
 71
     3
 72
    -4
 73
    -6
  0
VERTEX
  5
31E7
  8
0
 10
0.0
 20
0.0
 30
0.0
 70
   128
 71
     1
 72
     2
 73
    -3
  0
VERTEX
  5
31E8
  8
0
 10
0.0
 20
0.0
 30
0.0
 70
   128
 71
     6
 72
    -1
 73
    -3
  0
SEQEND
  5
3282
  8
0
  0
POLYLINE
  5
31E9
  8
0
 66
     1
 10
0.0
 20
0.0
 30
0.0
 70
    64
 71
     4
 72
     2
  0
VERTEX
  5
31EA
  8
0
 10
-130.0000000000001
 20
254.9999999999998
 30
-10.5
 70
   192
  0
VERTEX
  5
31EB
  8
0
 10
-49.99999999999997
 20
254.9999999999998
 30
-10.5
 70
   192
  0
VERTEX
  5
31EC
  8
0
 10
-49.99999999999997
 20
254.9999999999998
 30
-20.5
 70
   192
  0
VERTEX
  5
31ED
  8
0
 10
-130.0000000000001
 20
254.9999999999998
 30
-20.5
 70
   192
  0
VERTEX
  5
31EE
  8
0
 10
0.0
 20
0.0
 30
0.0
 70
   128
 71
     3
 72
     4
 73
    -1
  0
VERTEX
  5
31EF
  8
0
 10
0.0
 20
0.0
 30
0.0
 70
   128
 71
     2
 72
    -3
 73
     1
  0
SEQEND
  5
3283
  8
0
  0
POLYLINE
  5
31F0
  8
0
 66
     1
 10
0.0
 20
0.0
 30
0.0
 70
    64
 71
     8
 72
     6
  0
VERTEX
  5
31F1
  8
0
 10
-130.0000000000001
 20
229.9999999999998
 30
-13.5
 70
   192
  0
VERTEX
  5
31F2
  8
0
 10
-127.0000000000001
 20
229.9999999999998
 30
-13.5
 70
   192
  0
VERTEX
  5
31F3
  8
0
 10
-127.0000000000001
 20
251.9999999999998
 30
-13.5
 70
   192
  0
VERTEX
  5
31F4
  8
0
 10
-52.99999999999998
 20
251.9999999999998
 30
-13.5
 70
   192
  0
VERTEX
  5
31F5
  8
0
 10
-52.99999999999998
 20
229.9999999999998
 30
-13.5
 70
   192
  0
VERTEX
  5
31F6
  8
0
 10
-49.99999999999997
 20
229.9999999999998
 30
-13.5
 70
   192
  0
VERTEX
  5
31F7
  8
0
 10
-49.99999999999998
 20
194.9999999999998
 30
-13.5
 70
   192
  0
VERTEX
  5
31F8
  8
0
 10
-130.0000000000001
 20
194.9999999999997
 30
-13.5
 70
   192
  0
VERTEX
  5
31F9
  8
0
 10
0.0
 20
0.0
 30
0.0
 70
   128
 71
     8
 72
     1
 73
    -2
  0
VERTEX
  5
31FA
  8
0
 10
0.0
 20
0.0
 30
0.0
 70
   128
 71
    -5
 72
    -8
 73
    -2
  0
VERTEX
  5
31FB
  8
0
 10
0.0
 20
0.0
 30
0.0
 70
   128
 71
     3
 72
     4
 73
    -5
  0
VERTEX
  5
31FC
  8
0
 10
0.0
 20
0.0
 30
0.0
 70
   128
 71
     2
 72
    -3
 73
    -5
  0
VERTEX
  5
31FD
  8
0
 10
0.0
 20
0.0
 30
0.0
 70
   128
 71
    -5
 72
     7
 73
    -8
  0
VERTEX
  5
31FE
  8
0
 10
0.0
 20
0.0
 30
0.0
 70
   128
 71
     5
 72
     6
 73
    -7
  0
SEQEND
  5
3284
  8
0
  0
POLYLINE
  5
31FF
  8
0
 66
     1
 10
0.0
 20
0.0
 30
0.0
 70
    64
 71
     4
 72
     2
  0
VERTEX
  5
3200
  8
0
 10
-130.0000000000001
 20
254.9999999999998
 30
-10.5
 70
   192
  0
VERTEX
  5
3201
  8
0
 10
-49.99999999999997
 20
254.9999999999998
 30
-10.5
 70
   192
  0
VERTEX
  5
3202
  8
0
 10
-49.99999999999998
 20
194.9999999999998
 30
-10.5
 70
   192
  0
VERTEX
  5
3203
  8
0
 10
-130.0000000000001
 20
194.9999999999997
 30
-10.5
 70
   192
  0
VERTEX
  5
3204
  8
0
 10
0.0
 20
0.0
 30
0.0
 70
   128
 71
     1
 72
     4
 73
    -3
  0
VERTEX
  5
3205
  8
0
 10
0.0
 20
0.0
 30
0.0
 70
   128
 71
    -1
 72
     3
 73
     2
  0
SEQEND
  5
3285
  8
0
  0
POLYLINE
  5
3206
  8
0
 66
     1
 10
0.0
 20
0.0
 30
0.0
 70
    64
 71
     6
 72
     4
  0
VERTEX
  5
3207
  8
0
 10
-52.99999999999998
 20
229.9999999999998
 30
-17.5
 70
   192
  0
VERTEX
  5
3208
  8
0
 10
-87.00000000000004
 20
229.9999999999999
 30
-17.5
 70
   192
  0
VERTEX
  5
3209
  8
0
 10
-87.00000000000004
 20
229.9999999999999
 30
-20.5
 70
   192
  0
VERTEX
  5
320A
  8
0
 10
-49.99999999999997
 20
229.9999999999998
 30
-20.5
 70
   192
  0
VERTEX
  5
320B
  8
0
 10
-49.99999999999997
 20
229.9999999999999
 30
-13.5
 70
   192
  0
VERTEX
  5
320C
  8
0
 10
-52.99999999999998
 20
229.9999999999998
 30
-13.5
 70
   192
  0
VERTEX
  5
320D
  8
0
 10
0.0
 20
0.0
 30
0.0
 70
   128
 71
     5
 72
     6
 73
    -1
  0
VERTEX
  5
320E
  8
0
 10
0.0
 20
0.0
 30
0.0
 70
   128
 71
     4
 72
    -5
 73
    -1
  0
VERTEX
  5
320F
  8
0
 10
0.0
 20
0.0
 30
0.0
 70
   128
 71
     2
 72
     3
 73
    -4
  0
VERTEX
  5
3210
  8
0
 10
0.0
 20
0.0
 30
0.0
 70
   128
 71
     1
 72
    -2
 73
    -4
  0
SEQEND
  5
3286
  8
0
  0
POLYLINE
  5
3211
  8
0
 66
     1
 10
0.0
 20
0.0
 30
0.0
 70
    64
 71
     4
 72
     2
  0
VERTEX
  5
3212
  8
0
 10
-87.00000000000004
 20
229.9999999999999
 30
-17.5
 70
   192
  0
VERTEX
  5
3213
  8
0
 10
-87.00000000000004
 20
249.9999999999999
 30
-17.5
 70
   192
  0
VERTEX
  5
3214
  8
0
 10
-87.00000000000004
 20
249.9999999999999
 30
-20.5
 70
   192
  0
VERTEX
  5
3215
  8
0
 10
-87.00000000000004
 20
229.9999999999999
 30
-20.5
 70
   192
  0
VERTEX
  5
3216
  8
0
 10
0.0
 20
0.0
 30
0.0
 70
   128
 71
     3
 72
     4
 73
    -1
  0
VERTEX
  5
3217
  8
0
 10
0.0
 20
0.0
 30
0.0
 70
   128
 71
     2
 72
    -3
 73
     1
  0
SEQEND
  5
3287
  8
0
  0
POLYLINE
  5
3218
  8
0
 66
     1
 10
0.0
 20
0.0
 30
0.0
 70
    64
 71
     4
 72
     2
  0
VERTEX
  5
3219
  8
0
 10
-87.00000000000004
 20
249.9999999999999
 30
-17.5
 70
   192
  0
VERTEX
  5
321A
  8
0
 10
-92.99999999999994
 20
249.9999999999999
 30
-17.5
 70
   192
  0
VERTEX
  5
321B
  8
0
 10
-92.99999999999994
 20
249.9999999999999
 30
-20.5
 70
   192
  0
VERTEX
  5
321C
  8
0
 10
-87.00000000000004
 20
249.9999999999999
 30
-20.5
 70
   192
  0
VERTEX
  5
321D
  8
0
 10
0.0
 20
0.0
 30
0.0
 70
   128
 71
     3
 72
     4
 73
    -1
  0
VERTEX
  5
321E
  8
0
 10
0.0
 20
0.0
 30
0.0
 70
   128
 71
     2
 72
    -3
 73
     1
  0
SEQEND
  5
3288
  8
0
  0
POLYLINE
  5
321F
  8
0
 66
     1
 10
0.0
 20
0.0
 30
0.0
 70
    64
 71
     4
 72
     2
  0
VERTEX
  5
3220
  8
0
 10
-92.99999999999994
 20
249.9999999999999
 30
-17.5
 70
   192
  0
VERTEX
  5
3221
  8
0
 10
-92.99999999999994
 20
229.9999999999999
 30
-17.5
 70
   192
  0
VERTEX
  5
3222
  8
0
 10
-92.99999999999994
 20
229.9999999999999
 30
-20.5
 70
   192
  0
VERTEX
  5
3223
  8
0
 10
-92.99999999999994
 20
249.9999999999999
 30
-20.5
 70
   192
  0
VERTEX
  5
3224
  8
0
 10
0.0
 20
0.0
 30
0.0
 70
   128
 71
     3
 72
     4
 73
    -1
  0
VERTEX
  5
3225
  8
0
 10
0.0
 20
0.0
 30
0.0
 70
   128
 71
     2
 72
    -3
 73
     1
  0
SEQEND
  5
3289
  8
0
  0
POLYLINE
  5
3226
  8
0
 66
     1
 10
0.0
 20
0.0
 30
0.0
 70
    64
 71
     8
 72
     6
  0
VERTEX
  5
3227
  8
0
 10
-92.99999999999996
 20
229.9999999999999
 30
-20.5
 70
   192
  0
VERTEX
  5
3228
  8
0
 10
-130.0000000000001
 20
229.9999999999998
 30
-20.5
 70
   192
  0
VERTEX
  5
3229
  8
0
 10
-130.0000000000001
 20
254.9999999999998
 30
-20.5
 70
   192
  0
VERTEX
  5
322A
  8
0
 10
-49.99999999999997
 20
254.9999999999998
 30
-20.5
 70
   192
  0
VERTEX
  5
322B
  8
0
 10
-49.99999999999997
 20
229.9999999999998
 30
-20.5
 70
   192
  0
VERTEX
  5
322C
  8
0
 10
-87.00000000000004
 20
229.9999999999999
 30
-20.5
 70
   192
  0
VERTEX
  5
322D
  8
0
 10
-87.00000000000004
 20
249.9999999999999
 30
-20.5
 70
   192
  0
VERTEX
  5
322E
  8
0
 10
-92.99999999999994
 20
249.9999999999999
 30
-20.5
 70
   192
  0
VERTEX
  5
322F
  8
0
 10
0.0
 20
0.0
 30
0.0
 70
   128
 71
     5
 72
     6
 73
    -7
  0
VERTEX
  5
3230
  8
0
 10
0.0
 20
0.0
 30
0.0
 70
   128
 71
     4
 72
    -5
 73
    -7
  0
VERTEX
  5
3231
  8
0
 10
0.0
 20
0.0
 30
0.0
 70
   128
 71
    -8
 72
     3
 73
    -4
  0
VERTEX
  5
3232
  8
0
 10
0.0
 20
0.0
 30
0.0
 70
   128
 71
     7
 72
    -8
 73
    -4
  0
VERTEX
  5
3233
  8
0
 10
0.0
 20
0.0
 30
0.0
 70
   128
 71
     1
 72
     2
 73
    -3
  0
VERTEX
  5
3234
  8
0
 10
0.0
 20
0.0
 30
0.0
 70
   128
 71
     8
 72
    -1
 73
    -3
  0
SEQEND
  5
328A
  8
0
  0
POLYLINE
  5
3235
  8
0
 66
     1
 10
0.0
 20
0.0
 30
0.0
 70
    64
 71
     4
 72
     2
  0
VERTEX
  5
3236
  8
0
 10
-52.99999999999998
 20
229.9999999999998
 30
-13.5
 70
   192
  0
VERTEX
  5
3237
  8
0
 10
-52.99999999999998
 20
251.9999999999998
 30
-13.5
 70
   192
  0
VERTEX
  5
3238
  8
0
 10
-52.99999999999998
 20
251.9999999999998
 30
-17.5
 70
   192
  0
VERTEX
  5
3239
  8
0
 10
-52.99999999999998
 20
229.9999999999998
 30
-17.5
 70
   192
  0
VERTEX
  5
323A
  8
0
 10
0.0
 20
0.0
 30
0.0
 70
   128
 71
     3
 72
     4
 73
    -1
  0
VERTEX
  5
323B
  8
0
 10
0.0
 20
0.0
 30
0.0
 70
   128
 71
     2
 72
    -3
 73
     1
  0
SEQEND
  5
328B
  8
0
  0
POLYLINE
  5
323C
  8
0
 66
     1
 10
0.0
 20
0.0
 30
0.0
 70
    64
 71
     4
 72
     2
  0
VERTEX
  5
323D
  8
0
 10
-127.0000000000001
 20
229.9999999999998
 30
-13.5
 70
   192
  0
VERTEX
  5
323E
  8
0
 10
-127.0000000000001
 20
251.9999999999998
 30
-13.5
 70
   192
  0
VERTEX
  5
323F
  8
0
 10
-127.0000000000001
 20
251.9999999999998
 30
-17.5
 70
   192
  0
VERTEX
  5
3240
  8
0
 10
-127.0000000000001
 20
229.9999999999998
 30
-17.5
 70
   192
  0
VERTEX
  5
3241
  8
0
 10
0.0
 20
0.0
 30
0.0
 70
   128
 71
     1
 72
     4
 73
    -3
  0
VERTEX
  5
3242
  8
0
 10
0.0
 20
0.0
 30
0.0
 70
   128
 71
    -1
 72
     3
 73
     2
  0
SEQEND
  5
328C
  8
0
  0
POLYLINE
  5
3243
  8
0
 66
     1
 10
0.0
 20
0.0
 30
0.0
 70
    64
 71
     4
 72
     2
  0
VERTEX
  5
3244
  8
0
 10
-52.99999999999998
 20
251.9999999999998
 30
-13.5
 70
   192
  0
VERTEX
  5
3245
  8
0
 10
-52.99999999999998
 20
251.9999999999998
 30
-17.5
 70
   192
  0
VERTEX
  5
3246
  8
0
 10
-127.0000000000001
 20
251.9999999999998
 30
-17.5
 70
   192
  0
VERTEX
  5
3247
  8
0
 10
-127.0000000000001
 20
251.9999999999998
 30
-13.5
 70
   192
  0
VERTEX
  5
3248
  8
0
 10
0.0
 20
0.0
 30
0.0
 70
   128
 71
     1
 72
     4
 73
    -3
  0
VERTEX
  5
3249
  8
0
 10
0.0
 20
0.0
 30
0.0
 70
   128
 71
    -1
 72
     3
 73
     2
  0
SEQEND
  5
328D
  8
0
  0
POLYLINE
  5
324A
  8
0
 66
     1
 10
0.0
 20
0.0
 30
0.0
 70
    64
 71
     8
 72
     6
  0
VERTEX
  5
324B
  8
0
 10
-127.0000000000001
 20
229.9999999999998
 30
-17.5
 70
   192
  0
VERTEX
  5
324C
  8
0
 10
-127.0000000000001
 20
251.9999999999998
 30
-17.5
 70
   192
  0
VERTEX
  5
324D
  8
0
 10
-52.99999999999998
 20
251.9999999999998
 30
-17.5
 70
   192
  0
VERTEX
  5
324E
  8
0
 10
-52.99999999999998
 20
229.9999999999998
 30
-17.5
 70
   192
  0
VERTEX
  5
324F
  8
0
 10
-87.00000000000004
 20
229.9999999999999
 30
-17.5
 70
   192
  0
VERTEX
  5
3250
  8
0
 10
-87.00000000000004
 20
249.9999999999999
 30
-17.5
 70
   192
  0
VERTEX
  5
3251
  8
0
 10
-92.99999999999994
 20
249.9999999999999
 30
-17.5
 70
   192
  0
VERTEX
  5
3252
  8
0
 10
-92.99999999999996
 20
229.9999999999999
 30
-17.5
 70
   192
  0
VERTEX
  5
3253
  8
0
 10
0.0
 20
0.0
 30
0.0
 70
   128
 71
     6
 72
     5
 73
    -4
  0
VERTEX
  5
3254
  8
0
 10
0.0
 20
0.0
 30
0.0
 70
   128
 71
    -6
 72
     4
 73
    -3
  0
VERTEX
  5
3255
  8
0
 10
0.0
 20
0.0
 30
0.0
 70
   128
 71
    -3
 72
     7
 73
    -6
  0
VERTEX
  5
3256
  8
0
 10
0.0
 20
0.0
 30
0.0
 70
   128
 71
     3
 72
    -2
 73
    -7
  0
VERTEX
  5
3257
  8
0
 10
0.0
 20
0.0
 30
0.0
 70
   128
 71
     2
 72
     1
 73
    -8
  0
VERTEX
  5
3258
  8
0
 10
0.0
 20
0.0
 30
0.0
 70
   128
 71
    -2
 72
     8
 73
    -7
  0
SEQEND
  5
328E
  8
0
  0
ENDBLK
  5
327E
  8
0
  0
ENDSEC
  0
SECTION
  2
ENTITIES
  0
INSERT
  5
2D2B
  8
0
  2
*X1
 10
0.0
 20
0.0
 30
0.0
  0
INSERT
  5
2D2C
  8
0
  2
*X2
 10
0.0
 20
0.0
 30
0.0
  0
INSERT
  5
2D2D
  8
0
  2
*X3
 10
0.0
 20
0.0
 30
0.0
  0
ENDSEC
  0
EOF
