  0
SECTION
  2
HEADER
  9
$ACADVER
  1
AC1009
  9
$DWGCODEPAGE
  3
ansi_1250
  9
$INSBASE
 10
0.0
 20
0.0
 30
0.0
  9
$EXTMIN
 10
-224.9999999999999
 20
-449.9999999999998
 30
-35.00000000000009
  9
$EXTMAX
 10
224.9999999999998
 20
449.9999999999998
 30
0.0000000000000853
  9
$LIMMIN
 10
0.0
 20
0.0
  9
$LIMMAX
 10
420.0
 20
297.0
  9
$ORTHOMODE
 70
     0
  9
$REGENMODE
 70
     1
  9
$FILLMODE
 70
     1
  9
$QTEXTMODE
 70
     0
  9
$MIRRTEXT
 70
     0
  9
$DRAGMODE
 70
     2
  9
$LTSCALE
 40
1.0
  9
$OSMODE
 70
   511
  9
$ATTMODE
 70
     1
  9
$TEXTSIZE
 40
2.5
  9
$TRACEWID
 40
1.0
  9
$TEXTSTYLE
  7
STANDARD
  9
$CLAYER
  8
0
  9
$CELTYPE
  6
BYLAYER
  9
$CECOLOR
 62
   256
  9
$DIMSCALE
 40
1.0
  9
$DIMASZ
 40
2.5
  9
$DIMEXO
 40
0.625
  9
$DIMDLI
 40
3.75
  9
$DIMRND
 40
0.0
  9
$DIMDLE
 40
0.0
  9
$DIMEXE
 40
1.25
  9
$DIMTP
 40
0.0
  9
$DIMTM
 40
0.0
  9
$DIMTXT
 40
2.5
  9
$DIMCEN
 40
-2.5
  9
$DIMTSZ
 40
0.0
  9
$DIMTOL
 70
     0
  9
$DIMLIM
 70
     0
  9
$DIMTIH
 70
     0
  9
$DIMTOH
 70
     0
  9
$DIMSE1
 70
     0
  9
$DIMSE2
 70
     0
  9
$DIMTAD
 70
     1
  9
$DIMZIN
 70
     8
  9
$DIMBLK
  1

  9
$DIMASO
 70
     1
  9
$DIMSHO
 70
     1
  9
$DIMPOST
  1

  9
$DIMAPOST
  1

  9
$DIMALT
 70
     0
  9
$DIMALTD
 70
     3
  9
$DIMALTF
 40
0.03937007874016
  9
$DIMLFAC
 40
1.0
  9
$DIMTOFL
 70
     1
  9
$DIMTVP
 40
0.0
  9
$DIMTIX
 70
     0
  9
$DIMSOXD
 70
     0
  9
$DIMSAH
 70
     0
  9
$DIMBLK1
  1

  9
$DIMBLK2
  1

  9
$DIMSTYLE
  2
ISO-25
  9
$DIMCLRD
 70
     0
  9
$DIMCLRE
 70
     0
  9
$DIMCLRT
 70
     0
  9
$DIMTFAC
 40
1.0
  9
$DIMGAP
 40
0.625
  9
$LUNITS
 70
     2
  9
$LUPREC
 70
     3
  9
$SKETCHINC
 40
1.0
  9
$FILLETRAD
 40
10.0
  9
$AUNITS
 70
     0
  9
$AUPREC
 70
     0
  9
$MENU
  1
.
  9
$ELEVATION
 40
0.0
  9
$PELEVATION
 40
0.0
  9
$THICKNESS
 40
0.0
  9
$LIMCHECK
 70
     0
  9
$CHAMFERA
 40
10.0
  9
$CHAMFERB
 40
10.0
  9
$SKPOLY
 70
     0
  9
$TDCREATE
 40
2455022.720692848
  9
$TDUPDATE
 40
2460521.494738496
  9
$TDINDWG
 40
0.1654571412
  9
$TDUSRTIMER
 40
0.1654571412
  9
$USRTIMER
 70
     1
  9
$ANGBASE
 50
0.0
  9
$ANGDIR
 70
     0
  9
$PDMODE
 70
     0
  9
$PDSIZE
 40
0.0
  9
$PLINEWID
 40
0.0
  9
$COORDS
 70
     1
  9
$SPLFRAME
 70
     0
  9
$SPLINETYPE
 70
     6
  9
$SPLINESEGS
 70
     8
  9
$ATTDIA
 70
     0
  9
$ATTREQ
 70
     1
  9
$HANDLING
 70
     1
  9
$HANDSEED
  5
66AA
  9
$SURFTAB1
 70
     6
  9
$SURFTAB2
 70
     6
  9
$SURFTYPE
 70
     6
  9
$SURFU
 70
     6
  9
$SURFV
 70
     6
  9
$UCSNAME
  2

  9
$UCSORG
 10
0.0
 20
0.0
 30
0.0
  9
$UCSXDIR
 10
1.0
 20
0.0
 30
0.0
  9
$UCSYDIR
 10
0.0
 20
1.0
 30
0.0
  9
$PUCSNAME
  2

  9
$PUCSORG
 10
0.0
 20
0.0
 30
0.0
  9
$PUCSXDIR
 10
1.0
 20
0.0
 30
0.0
  9
$PUCSYDIR
 10
0.0
 20
1.0
 30
0.0
  9
$USERI1
 70
     0
  9
$USERI2
 70
     0
  9
$USERI3
 70
     0
  9
$USERI4
 70
     0
  9
$USERI5
 70
     0
  9
$USERR1
 40
0.0
  9
$USERR2
 40
0.0
  9
$USERR3
 40
0.0
  9
$USERR4
 40
0.0
  9
$USERR5
 40
0.0
  9
$WORLDVIEW
 70
     1
  9
$SHADEDGE
 70
     3
  9
$SHADEDIF
 70
    70
  9
$TILEMODE
 70
     1
  9
$MAXACTVP
 70
    64
  9
$PLIMCHECK
 70
     0
  9
$PEXTMIN
 10
1.000000000000000E+20
 20
1.000000000000000E+20
 30
1.000000000000000E+20
  9
$PEXTMAX
 10
-1.000000000000000E+20
 20
-1.000000000000000E+20
 30
-1.000000000000000E+20
  9
$PLIMMIN
 10
0.0
 20
0.0
  9
$PLIMMAX
 10
0.0
 20
0.0
  9
$UNITMODE
 70
     0
  9
$VISRETAIN
 70
     1
  9
$PLINEGEN
 70
     0
  9
$PSLTSCALE
 70
     1
  0
ENDSEC
  0
SECTION
  2
TABLES
  0
TABLE
  2
VPORT
 70
     1
  0
VPORT
  2
*ACTIVE
 70
     0
 10
0.0
 20
0.0
 11
1.0
 21
1.0
 12
-116.6110757937285
 22
90.81470093901663
 13
0.0
 23
0.0
 14
10.0
 24
10.0
 15
10.0
 25
10.0
 16
0.5773502691896262
 26
0.5773502691896262
 36
0.5773502691896262
 17
-41.66599977993164
 27
123.2469651304761
 37
-82.93435654674934
 40
770.3645241053097
 41
1.88293897882939
 42
50.0
 43
0.0
 44
0.0
 50
0.0
 51
0.0
 71
    16
 72
  1000
 73
     1
 74
     3
 75
     0
 76
     0
 77
     0
 78
     0
  0
ENDTAB
  0
TABLE
  2
LTYPE
 70
     1
  0
LTYPE
  2
CONTINUOUS
 70
     0
  3
Solid line
 72
    65
 73
     0
 40
0.0
  0
ENDTAB
  0
TABLE
  2
LAYER
 70
     1
  0
LAYER
  2
0
 70
     0
 62
     7
  6
CONTINUOUS
  0
ENDTAB
  0
TABLE
  2
STYLE
 70
     2
  0
STYLE
  2
STANDARD
 70
     0
 40
0.0
 41
1.0
 50
0.0
 71
     0
 42
2.5
  3
arial.ttf
  4

  0
STYLE
  2
ANNOTATIVE
 70
     0
 40
0.0
 41
1.0
 50
0.0
 71
     0
 42
2.5
  3
arial.ttf
  4

  0
ENDTAB
  0
TABLE
  2
VIEW
 70
     0
  0
ENDTAB
  0
TABLE
  2
UCS
 70
     0
  0
ENDTAB
  0
TABLE
  2
APPID
 70
     2
  0
APPID
  2
ACAD
 70
     0
  0
APPID
  2
ACADANNOTATIVE
 70
     0
  0
ENDTAB
  0
TABLE
  2
DIMSTYLE
 70
     2
  0
DIMSTYLE
  2
ISO-25
 70
     0
  3

  4

  5

  6

  7

 40
1.0
 41
2.5
 42
0.625
 43
3.75
 44
1.25
 45
0.0
 46
0.0
 47
0.0
 48
0.0
140
2.5
141
-2.5
142
0.0
143
0.03937007874016
144
1.0
145
0.0
146
1.0
147
0.625
 71
     0
 72
     0
 73
     0
 74
     0
 75
     0
 76
     0
 77
     1
 78
     8
170
     0
171
     3
172
     1
173
     0
174
     0
175
     0
176
     0
177
     0
178
     0
  0
DIMSTYLE
  2
ANNOTATIVE
 70
     0
  3

  4

  5

  6

  7

 40
0.0
 41
2.5
 42
0.625
 43
3.75
 44
1.25
 45
0.0
 46
0.0
 47
0.0
 48
0.0
140
2.5
141
-2.5
142
0.0
143
0.03937007874016
144
1.0
145
0.0
146
1.0
147
0.625
 71
     0
 72
     0
 73
     0
 74
     0
 75
     0
 76
     0
 77
     1
 78
     8
170
     0
171
     3
172
     1
173
     0
174
     0
175
     0
176
     0
177
     0
178
     0
  0
ENDTAB
  0
ENDSEC
  0
SECTION
  2
BLOCKS
  0
BLOCK
  8
0
  2
$MODEL_SPACE
 70
     0
 10
0.0
 20
0.0
 30
0.0
  3
$MODEL_SPACE
  1

  0
ENDBLK
  5
21
  8
0
  0
BLOCK
 67
     1
  8
0
  2
$PAPER_SPACE
 70
     0
 10
0.0
 20
0.0
 30
0.0
  3
$PAPER_SPACE
  1

  0
ENDBLK
  5
1D
 67
     1
  8
0
  0
BLOCK
  8
0
  2
*X1
 70
     1
 10
0.0
 20
0.0
 30
0.0
  3
*X1
  1

  0
POLYLINE
  5
622D
  8
0
 66
     1
 10
0.0
 20
0.0
 30
0.0
 70
    64
 71
    24
 72
    24
  0
VERTEX
  5
622E
  8
0
 10
224.9999999999998
 20
225.0
 30
-35.0
 70
   192
  0
VERTEX
  5
622F
  8
0
 10
182.028823734363
 20
357.2516817658064
 30
-35.0
 70
   192
  0
VERTEX
  5
6230
  8
0
 10
69.52882373436303
 20
438.9877161664094
 30
-35.0
 70
   192
  0
VERTEX
  5
6231
  8
0
 10
-69.52882373436321
 20
438.9877161664094
 30
-35.0
 70
   192
  0
VERTEX
  5
6232
  8
0
 10
-182.0288237343632
 20
357.2516817658064
 30
-35.0
 70
   192
  0
VERTEX
  5
6233
  8
0
 10
-224.9999999999998
 20
225.0000000000001
 30
-35.0
 70
   192
  0
VERTEX
  5
6234
  8
0
 10
-224.9999999999999
 20
-225.0
 30
-35.0
 70
   192
  0
VERTEX
  5
6235
  8
0
 10
-182.0288237343632
 20
-357.2516817658064
 30
-35.0
 70
   192
  0
VERTEX
  5
6236
  8
0
 10
-69.52882373436327
 20
-438.9877161664095
 30
-35.0
 70
   192
  0
VERTEX
  5
6237
  8
0
 10
69.528823734363
 20
-438.9877161664095
 30
-35.0
 70
   192
  0
VERTEX
  5
6238
  8
0
 10
182.028823734363
 20
-357.2516817658064
 30
-35.0
 70
   192
  0
VERTEX
  5
6239
  8
0
 10
224.9999999999999
 20
-225.0000000000001
 30
-35.0
 70
   192
  0
VERTEX
  5
623A
  8
0
 10
214.9999999999998
 20
-225.0000000000001
 30
-35.0
 70
   192
  0
VERTEX
  5
623B
  8
0
 10
173.9386537906135
 20
-351.3738292428818
 30
-35.0
 70
   192
  0
VERTEX
  5
623C
  8
0
 10
66.43865379061353
 20
-429.4771510034579
 30
-35.0
 70
   192
  0
VERTEX
  5
623D
  8
0
 10
-66.4386537906138
 20
-429.4771510034579
 30
-35.0
 70
   192
  0
VERTEX
  5
623E
  8
0
 10
-173.9386537906137
 20
-351.3738292428817
 30
-35.0
 70
   192
  0
VERTEX
  5
623F
  8
0
 10
-214.9999999999998
 20
-225.0
 30
-35.0
 70
   192
  0
VERTEX
  5
6240
  8
0
 10
-214.9999999999999
 20
225.0
 30
-35.0
 70
   192
  0
VERTEX
  5
6241
  8
0
 10
-173.9386537906137
 20
351.3738292428817
 30
-35.0
 70
   192
  0
VERTEX
  5
6242
  8
0
 10
-66.43865379061374
 20
429.4771510034579
 30
-35.0
 70
   192
  0
VERTEX
  5
6243
  8
0
 10
66.43865379061356
 20
429.4771510034579
 30
-35.0
 70
   192
  0
VERTEX
  5
6244
  8
0
 10
173.9386537906135
 20
351.3738292428817
 30
-35.0
 70
   192
  0
VERTEX
  5
6245
  8
0
 10
214.9999999999999
 20
225.0000000000001
 30
-35.0
 70
   192
  0
VERTEX
  5
6246
  8
0
 10
0.0
 20
0.0
 30
0.0
 70
   128
 71
    14
 72
   -13
 73
   -12
  0
VERTEX
  5
6247
  8
0
 10
0.0
 20
0.0
 30
0.0
 70
   128
 71
   -14
 72
    12
 73
   -11
  0
VERTEX
  5
6248
  8
0
 10
0.0
 20
0.0
 30
0.0
 70
   128
 71
    11
 72
   -10
 73
   -15
  0
VERTEX
  5
6249
  8
0
 10
0.0
 20
0.0
 30
0.0
 70
   128
 71
   -11
 72
    15
 73
   -14
  0
VERTEX
  5
624A
  8
0
 10
0.0
 20
0.0
 30
0.0
 70
   128
 71
    10
 72
    -9
 73
   -16
  0
VERTEX
  5
624B
  8
0
 10
0.0
 20
0.0
 30
0.0
 70
   128
 71
   -10
 72
    16
 73
   -15
  0
VERTEX
  5
624C
  8
0
 10
0.0
 20
0.0
 30
0.0
 70
   128
 71
     9
 72
    -8
 73
   -17
  0
VERTEX
  5
624D
  8
0
 10
0.0
 20
0.0
 30
0.0
 70
   128
 71
    -9
 72
    17
 73
   -16
  0
VERTEX
  5
624E
  8
0
 10
0.0
 20
0.0
 30
0.0
 70
   128
 71
     8
 72
    -7
 73
   -18
  0
VERTEX
  5
624F
  8
0
 10
0.0
 20
0.0
 30
0.0
 70
   128
 71
    -8
 72
    18
 73
   -17
  0
VERTEX
  5
6250
  8
0
 10
0.0
 20
0.0
 30
0.0
 70
   128
 71
     7
 72
    -6
 73
   -19
  0
VERTEX
  5
6251
  8
0
 10
0.0
 20
0.0
 30
0.0
 70
   128
 71
    -7
 72
    19
 73
   -18
  0
VERTEX
  5
6252
  8
0
 10
0.0
 20
0.0
 30
0.0
 70
   128
 71
     6
 72
    -5
 73
   -20
  0
VERTEX
  5
6253
  8
0
 10
0.0
 20
0.0
 30
0.0
 70
   128
 71
    -6
 72
    20
 73
   -19
  0
VERTEX
  5
6254
  8
0
 10
0.0
 20
0.0
 30
0.0
 70
   128
 71
     5
 72
    -4
 73
   -21
  0
VERTEX
  5
6255
  8
0
 10
0.0
 20
0.0
 30
0.0
 70
   128
 71
    -5
 72
    21
 73
   -20
  0
VERTEX
  5
6256
  8
0
 10
0.0
 20
0.0
 30
0.0
 70
   128
 71
     4
 72
    -3
 73
   -22
  0
VERTEX
  5
6257
  8
0
 10
0.0
 20
0.0
 30
0.0
 70
   128
 71
    -4
 72
    22
 73
   -21
  0
VERTEX
  5
6258
  8
0
 10
0.0
 20
0.0
 30
0.0
 70
   128
 71
     3
 72
    -2
 73
   -23
  0
VERTEX
  5
6259
  8
0
 10
0.0
 20
0.0
 30
0.0
 70
   128
 71
    -3
 72
    23
 73
   -22
  0
VERTEX
  5
625A
  8
0
 10
0.0
 20
0.0
 30
0.0
 70
   128
 71
     2
 72
    -1
 73
   -24
  0
VERTEX
  5
625B
  8
0
 10
0.0
 20
0.0
 30
0.0
 70
   128
 71
    -2
 72
    24
 73
   -23
  0
VERTEX
  5
625C
  8
0
 10
0.0
 20
0.0
 30
0.0
 70
   128
 71
     1
 72
   -12
 73
   -13
  0
VERTEX
  5
625D
  8
0
 10
0.0
 20
0.0
 30
0.0
 70
   128
 71
    -1
 72
    13
 73
   -24
  0
SEQEND
  5
665D
  8
0
  0
POLYLINE
  5
625E
  8
0
 66
     1
 10
0.0
 20
0.0
 30
0.0
 70
    64
 71
    24
 72
    24
  0
VERTEX
  5
625F
  8
0
 10
224.9999999999999
 20
-225.0000000000001
 30
0.0
 70
   192
  0
VERTEX
  5
6260
  8
0
 10
224.9999999999999
 20
225.0
 30
0.0
 70
   192
  0
VERTEX
  5
6261
  8
0
 10
182.028823734363
 20
357.2516817658064
 30
0.0
 70
   192
  0
VERTEX
  5
6262
  8
0
 10
69.52882373436303
 20
438.9877161664094
 30
0.0
 70
   192
  0
VERTEX
  5
6263
  8
0
 10
-69.52882373436321
 20
438.9877161664094
 30
0.0
 70
   192
  0
VERTEX
  5
6264
  8
0
 10
-182.0288237343632
 20
357.2516817658064
 30
0.0
 70
   192
  0
VERTEX
  5
6265
  8
0
 10
-224.9999999999999
 20
225.0
 30
0.0
 70
   192
  0
VERTEX
  5
6266
  8
0
 10
-224.9999999999998
 20
-225.0000000000001
 30
0.0
 70
   192
  0
VERTEX
  5
6267
  8
0
 10
-182.0288237343632
 20
-357.2516817658064
 30
0.0
 70
   192
  0
VERTEX
  5
6268
  8
0
 10
-69.52882373436327
 20
-438.9877161664095
 30
0.0
 70
   192
  0
VERTEX
  5
6269
  8
0
 10
69.528823734363
 20
-438.9877161664095
 30
0.0
 70
   192
  0
VERTEX
  5
626A
  8
0
 10
182.028823734363
 20
-357.2516817658064
 30
0.0
 70
   192
  0
VERTEX
  5
626B
  8
0
 10
-215.0
 20
225.0
 30
0.0
 70
   192
  0
VERTEX
  5
626C
  8
0
 10
-173.9386537906137
 20
351.3738292428817
 30
0.0
 70
   192
  0
VERTEX
  5
626D
  8
0
 10
-66.43865379061376
 20
429.4771510034579
 30
0.0
 70
   192
  0
VERTEX
  5
626E
  8
0
 10
66.43865379061357
 20
429.4771510034579
 30
0.0
 70
   192
  0
VERTEX
  5
626F
  8
0
 10
173.9386537906136
 20
351.3738292428817
 30
0.0
 70
   192
  0
VERTEX
  5
6270
  8
0
 10
214.9999999999998
 20
225.0
 30
0.0
 70
   192
  0
VERTEX
  5
6271
  8
0
 10
215.0
 20
-225.0
 30
0.0
 70
   192
  0
VERTEX
  5
6272
  8
0
 10
173.9386537906136
 20
-351.3738292428818
 30
0.0
 70
   192
  0
VERTEX
  5
6273
  8
0
 10
66.43865379061357
 20
-429.4771510034581
 30
0.0
 70
   192
  0
VERTEX
  5
6274
  8
0
 10
-66.43865379061384
 20
-429.4771510034581
 30
0.0
 70
   192
  0
VERTEX
  5
6275
  8
0
 10
-173.9386537906138
 20
-351.3738292428818
 30
0.0
 70
   192
  0
VERTEX
  5
6276
  8
0
 10
-215.0000000000001
 20
-225.0
 30
0.0
 70
   192
  0
VERTEX
  5
6277
  8
0
 10
0.0
 20
0.0
 30
0.0
 70
   128
 71
    -7
 72
    13
 73
   -14
  0
VERTEX
  5
6278
  8
0
 10
0.0
 20
0.0
 30
0.0
 70
   128
 71
     6
 72
    -7
 73
   -14
  0
VERTEX
  5
6279
  8
0
 10
0.0
 20
0.0
 30
0.0
 70
   128
 71
   -15
 72
     5
 73
    -6
  0
VERTEX
  5
627A
  8
0
 10
0.0
 20
0.0
 30
0.0
 70
   128
 71
    14
 72
   -15
 73
    -6
  0
VERTEX
  5
627B
  8
0
 10
0.0
 20
0.0
 30
0.0
 70
   128
 71
   -16
 72
     4
 73
    -5
  0
VERTEX
  5
627C
  8
0
 10
0.0
 20
0.0
 30
0.0
 70
   128
 71
    15
 72
   -16
 73
    -5
  0
VERTEX
  5
627D
  8
0
 10
0.0
 20
0.0
 30
0.0
 70
   128
 71
   -17
 72
     3
 73
    -4
  0
VERTEX
  5
627E
  8
0
 10
0.0
 20
0.0
 30
0.0
 70
   128
 71
    16
 72
   -17
 73
    -4
  0
VERTEX
  5
627F
  8
0
 10
0.0
 20
0.0
 30
0.0
 70
   128
 71
   -18
 72
     2
 73
    -3
  0
VERTEX
  5
6280
  8
0
 10
0.0
 20
0.0
 30
0.0
 70
   128
 71
    17
 72
   -18
 73
    -3
  0
VERTEX
  5
6281
  8
0
 10
0.0
 20
0.0
 30
0.0
 70
   128
 71
   -19
 72
     1
 73
    -2
  0
VERTEX
  5
6282
  8
0
 10
0.0
 20
0.0
 30
0.0
 70
   128
 71
    18
 72
   -19
 73
    -2
  0
VERTEX
  5
6283
  8
0
 10
0.0
 20
0.0
 30
0.0
 70
   128
 71
   -20
 72
    12
 73
    -1
  0
VERTEX
  5
6284
  8
0
 10
0.0
 20
0.0
 30
0.0
 70
   128
 71
    19
 72
   -20
 73
    -1
  0
VERTEX
  5
6285
  8
0
 10
0.0
 20
0.0
 30
0.0
 70
   128
 71
   -21
 72
    11
 73
   -12
  0
VERTEX
  5
6286
  8
0
 10
0.0
 20
0.0
 30
0.0
 70
   128
 71
    20
 72
   -21
 73
   -12
  0
VERTEX
  5
6287
  8
0
 10
0.0
 20
0.0
 30
0.0
 70
   128
 71
   -22
 72
    10
 73
   -11
  0
VERTEX
  5
6288
  8
0
 10
0.0
 20
0.0
 30
0.0
 70
   128
 71
    21
 72
   -22
 73
   -11
  0
VERTEX
  5
6289
  8
0
 10
0.0
 20
0.0
 30
0.0
 70
   128
 71
   -23
 72
     9
 73
   -10
  0
VERTEX
  5
628A
  8
0
 10
0.0
 20
0.0
 30
0.0
 70
   128
 71
    22
 72
   -23
 73
   -10
  0
VERTEX
  5
628B
  8
0
 10
0.0
 20
0.0
 30
0.0
 70
   128
 71
   -24
 72
     8
 73
    -9
  0
VERTEX
  5
628C
  8
0
 10
0.0
 20
0.0
 30
0.0
 70
   128
 71
    23
 72
   -24
 73
    -9
  0
VERTEX
  5
628D
  8
0
 10
0.0
 20
0.0
 30
0.0
 70
   128
 71
   -13
 72
     7
 73
    -8
  0
VERTEX
  5
628E
  8
0
 10
0.0
 20
0.0
 30
0.0
 70
   128
 71
    24
 72
   -13
 73
    -8
  0
SEQEND
  5
665E
  8
0
  0
POLYLINE
  5
628F
  8
0
 66
     1
 10
0.0
 20
0.0
 30
0.0
 70
    64
 71
     4
 72
     2
  0
VERTEX
  5
6290
  8
0
 10
224.9999999999998
 20
225.0
 30
0.0
 70
   192
  0
VERTEX
  5
6291
  8
0
 10
224.9999999999999
 20
225.0
 30
-35.0
 70
   192
  0
VERTEX
  5
6292
  8
0
 10
224.9999999999998
 20
-225.0000000000001
 30
-35.0
 70
   192
  0
VERTEX
  5
6293
  8
0
 10
224.9999999999999
 20
-225.0000000000001
 30
0.0
 70
   192
  0
VERTEX
  5
6294
  8
0
 10
0.0
 20
0.0
 30
0.0
 70
   128
 71
     1
 72
     4
 73
    -3
  0
VERTEX
  5
6295
  8
0
 10
0.0
 20
0.0
 30
0.0
 70
   128
 71
    -1
 72
     3
 73
     2
  0
SEQEND
  5
665F
  8
0
  0
POLYLINE
  5
6296
  8
0
 66
     1
 10
0.0
 20
0.0
 30
0.0
 70
    64
 71
    12
 72
    10
  0
VERTEX
  5
6297
  8
0
 10
-182.0288237343632
 20
-357.2516817658064
 30
0.0
 70
   192
  0
VERTEX
  5
6298
  8
0
 10
-224.9999999999999
 20
-225.0
 30
0.0
 70
   192
  0
VERTEX
  5
6299
  8
0
 10
-224.9999999999998
 20
-225.0000000000001
 30
-35.0
 70
   192
  0
VERTEX
  5
629A
  8
0
 10
-182.0288237343632
 20
-357.2516817658064
 30
-35.0
 70
   192
  0
VERTEX
  5
629B
  8
0
 10
182.028823734363
 20
-357.2516817658064
 30
-35.0
 70
   192
  0
VERTEX
  5
629C
  8
0
 10
224.9999999999998
 20
-225.0000000000001
 30
-35.0
 70
   192
  0
VERTEX
  5
629D
  8
0
 10
224.9999999999998
 20
-225.0000000000001
 30
0.0
 70
   192
  0
VERTEX
  5
629E
  8
0
 10
182.028823734363
 20
-357.2516817658064
 30
0.0
 70
   192
  0
VERTEX
  5
629F
  8
0
 10
-69.52882373436327
 20
-438.9877161664095
 30
0.0
 70
   192
  0
VERTEX
  5
62A0
  8
0
 10
-69.52882373436327
 20
-438.9877161664095
 30
-35.0
 70
   192
  0
VERTEX
  5
62A1
  8
0
 10
69.528823734363
 20
-438.9877161664095
 30
-35.0
 70
   192
  0
VERTEX
  5
62A2
  8
0
 10
69.528823734363
 20
-438.9877161664095
 30
0.0
 70
   192
  0
VERTEX
  5
62A3
  8
0
 10
0.0
 20
0.0
 30
0.0
 70
   128
 71
     1
 72
     2
 73
    -3
  0
VERTEX
  5
62A4
  8
0
 10
0.0
 20
0.0
 30
0.0
 70
   128
 71
    -1
 72
     3
 73
     4
  0
VERTEX
  5
62A5
  8
0
 10
0.0
 20
0.0
 30
0.0
 70
   128
 71
     5
 72
     6
 73
    -7
  0
VERTEX
  5
62A6
  8
0
 10
0.0
 20
0.0
 30
0.0
 70
   128
 71
    -5
 72
     7
 73
     8
  0
VERTEX
  5
62A7
  8
0
 10
0.0
 20
0.0
 30
0.0
 70
   128
 71
     9
 72
    10
 73
   -11
  0
VERTEX
  5
62A8
  8
0
 10
0.0
 20
0.0
 30
0.0
 70
   128
 71
    -9
 72
    11
 73
    12
  0
VERTEX
  5
62A9
  8
0
 10
0.0
 20
0.0
 30
0.0
 70
   128
 71
     1
 72
     4
 73
   -10
  0
VERTEX
  5
62AA
  8
0
 10
0.0
 20
0.0
 30
0.0
 70
   128
 71
    -1
 72
    10
 73
     9
  0
VERTEX
  5
62AB
  8
0
 10
0.0
 20
0.0
 30
0.0
 70
   128
 71
    12
 72
    11
 73
    -5
  0
VERTEX
  5
62AC
  8
0
 10
0.0
 20
0.0
 30
0.0
 70
   128
 71
   -12
 72
     5
 73
     8
  0
SEQEND
  5
6660
  8
0
  0
POLYLINE
  5
62AD
  8
0
 66
     1
 10
0.0
 20
0.0
 30
0.0
 70
    64
 71
     4
 72
     2
  0
VERTEX
  5
62AE
  8
0
 10
-224.9999999999998
 20
-225.0000000000001
 30
0.0
 70
   192
  0
VERTEX
  5
62AF
  8
0
 10
-224.9999999999998
 20
225.0000000000001
 30
0.0
 70
   192
  0
VERTEX
  5
62B0
  8
0
 10
-224.9999999999999
 20
225.0000000000001
 30
-35.0
 70
   192
  0
VERTEX
  5
62B1
  8
0
 10
-224.9999999999998
 20
-225.0000000000001
 30
-35.0
 70
   192
  0
VERTEX
  5
62B2
  8
0
 10
0.0
 20
0.0
 30
0.0
 70
   128
 71
     3
 72
     4
 73
    -1
  0
VERTEX
  5
62B3
  8
0
 10
0.0
 20
0.0
 30
0.0
 70
   128
 71
     2
 72
    -3
 73
     1
  0
SEQEND
  5
6661
  8
0
  0
POLYLINE
  5
62B4
  8
0
 66
     1
 10
0.0
 20
0.0
 30
0.0
 70
    64
 71
    12
 72
    10
  0
VERTEX
  5
62B5
  8
0
 10
182.028823734363
 20
357.2516817658064
 30
0.0
 70
   192
  0
VERTEX
  5
62B6
  8
0
 10
224.9999999999998
 20
225.0
 30
0.0
 70
   192
  0
VERTEX
  5
62B7
  8
0
 10
224.9999999999998
 20
225.0
 30
-35.0
 70
   192
  0
VERTEX
  5
62B8
  8
0
 10
182.028823734363
 20
357.2516817658064
 30
-35.0
 70
   192
  0
VERTEX
  5
62B9
  8
0
 10
-182.0288237343632
 20
357.2516817658064
 30
-35.0
 70
   192
  0
VERTEX
  5
62BA
  8
0
 10
-224.9999999999999
 20
225.0
 30
-35.0
 70
   192
  0
VERTEX
  5
62BB
  8
0
 10
-224.9999999999999
 20
225.0000000000001
 30
0.0
 70
   192
  0
VERTEX
  5
62BC
  8
0
 10
-182.0288237343632
 20
357.2516817658064
 30
0.0
 70
   192
  0
VERTEX
  5
62BD
  8
0
 10
69.52882373436303
 20
438.9877161664094
 30
0.0
 70
   192
  0
VERTEX
  5
62BE
  8
0
 10
69.52882373436303
 20
438.9877161664094
 30
-35.0
 70
   192
  0
VERTEX
  5
62BF
  8
0
 10
-69.52882373436321
 20
438.9877161664094
 30
-35.0
 70
   192
  0
VERTEX
  5
62C0
  8
0
 10
-69.52882373436321
 20
438.9877161664094
 30
0.0
 70
   192
  0
VERTEX
  5
62C1
  8
0
 10
0.0
 20
0.0
 30
0.0
 70
   128
 71
     1
 72
     2
 73
    -3
  0
VERTEX
  5
62C2
  8
0
 10
0.0
 20
0.0
 30
0.0
 70
   128
 71
    -1
 72
     3
 73
     4
  0
VERTEX
  5
62C3
  8
0
 10
0.0
 20
0.0
 30
0.0
 70
   128
 71
     5
 72
     6
 73
    -7
  0
VERTEX
  5
62C4
  8
0
 10
0.0
 20
0.0
 30
0.0
 70
   128
 71
    -5
 72
     7
 73
     8
  0
VERTEX
  5
62C5
  8
0
 10
0.0
 20
0.0
 30
0.0
 70
   128
 71
     9
 72
    10
 73
   -11
  0
VERTEX
  5
62C6
  8
0
 10
0.0
 20
0.0
 30
0.0
 70
   128
 71
    -9
 72
    11
 73
    12
  0
VERTEX
  5
62C7
  8
0
 10
0.0
 20
0.0
 30
0.0
 70
   128
 71
     1
 72
     4
 73
   -10
  0
VERTEX
  5
62C8
  8
0
 10
0.0
 20
0.0
 30
0.0
 70
   128
 71
    -1
 72
    10
 73
     9
  0
VERTEX
  5
62C9
  8
0
 10
0.0
 20
0.0
 30
0.0
 70
   128
 71
    12
 72
    11
 73
    -5
  0
VERTEX
  5
62CA
  8
0
 10
0.0
 20
0.0
 30
0.0
 70
   128
 71
   -12
 72
     5
 73
     8
  0
SEQEND
  5
6662
  8
0
  0
POLYLINE
  5
62CB
  8
0
 66
     1
 10
0.0
 20
0.0
 30
0.0
 70
    64
 71
     4
 72
     2
  0
VERTEX
  5
62CC
  8
0
 10
215.0
 20
-225.0
 30
0.0
 70
   192
  0
VERTEX
  5
62CD
  8
0
 10
214.9999999999999
 20
225.0
 30
0.0
 70
   192
  0
VERTEX
  5
62CE
  8
0
 10
214.9999999999999
 20
225.0
 30
-0.5
 70
   192
  0
VERTEX
  5
62CF
  8
0
 10
215.0
 20
-225.0
 30
-0.5
 70
   192
  0
VERTEX
  5
62D0
  8
0
 10
0.0
 20
0.0
 30
0.0
 70
   128
 71
     3
 72
     4
 73
    -1
  0
VERTEX
  5
62D1
  8
0
 10
0.0
 20
0.0
 30
0.0
 70
   128
 71
     2
 72
    -3
 73
     1
  0
SEQEND
  5
6663
  8
0
  0
POLYLINE
  5
62D2
  8
0
 66
     1
 10
0.0
 20
0.0
 30
0.0
 70
    64
 71
    12
 72
    10
  0
VERTEX
  5
62D3
  8
0
 10
-215.0000000000001
 20
-225.0
 30
-0.5
 70
   192
  0
VERTEX
  5
62D4
  8
0
 10
-215.0000000000001
 20
-225.0
 30
0.0
 70
   192
  0
VERTEX
  5
62D5
  8
0
 10
-173.9386537906138
 20
-351.3738292428818
 30
0.0
 70
   192
  0
VERTEX
  5
62D6
  8
0
 10
-173.9386537906138
 20
-351.3738292428818
 30
-0.5
 70
   192
  0
VERTEX
  5
62D7
  8
0
 10
215.0
 20
-225.0000000000001
 30
0.0
 70
   192
  0
VERTEX
  5
62D8
  8
0
 10
215.0
 20
-225.0
 30
-0.5
 70
   192
  0
VERTEX
  5
62D9
  8
0
 10
173.9386537906136
 20
-351.3738292428818
 30
-0.5
 70
   192
  0
VERTEX
  5
62DA
  8
0
 10
173.9386537906136
 20
-351.3738292428818
 30
0.0
 70
   192
  0
VERTEX
  5
62DB
  8
0
 10
66.43865379061357
 20
-429.4771510034581
 30
-0.5
 70
   192
  0
VERTEX
  5
62DC
  8
0
 10
-66.43865379061384
 20
-429.4771510034581
 30
-0.5
 70
   192
  0
VERTEX
  5
62DD
  8
0
 10
-66.43865379061384
 20
-429.4771510034581
 30
0.0
 70
   192
  0
VERTEX
  5
62DE
  8
0
 10
66.43865379061357
 20
-429.4771510034581
 30
0.0
 70
   192
  0
VERTEX
  5
62DF
  8
0
 10
0.0
 20
0.0
 30
0.0
 70
   128
 71
     1
 72
     2
 73
    -3
  0
VERTEX
  5
62E0
  8
0
 10
0.0
 20
0.0
 30
0.0
 70
   128
 71
     4
 72
    -1
 73
     3
  0
VERTEX
  5
62E1
  8
0
 10
0.0
 20
0.0
 30
0.0
 70
   128
 71
     5
 72
     6
 73
    -7
  0
VERTEX
  5
62E2
  8
0
 10
0.0
 20
0.0
 30
0.0
 70
   128
 71
     8
 72
    -5
 73
     7
  0
VERTEX
  5
62E3
  8
0
 10
0.0
 20
0.0
 30
0.0
 70
   128
 71
     9
 72
    10
 73
   -11
  0
VERTEX
  5
62E4
  8
0
 10
0.0
 20
0.0
 30
0.0
 70
   128
 71
    12
 72
    -9
 73
    11
  0
VERTEX
  5
62E5
  8
0
 10
0.0
 20
0.0
 30
0.0
 70
   128
 71
    10
 72
     4
 73
    -3
  0
VERTEX
  5
62E6
  8
0
 10
0.0
 20
0.0
 30
0.0
 70
   128
 71
    11
 72
   -10
 73
     3
  0
VERTEX
  5
62E7
  8
0
 10
0.0
 20
0.0
 30
0.0
 70
   128
 71
     7
 72
     9
 73
   -12
  0
VERTEX
  5
62E8
  8
0
 10
0.0
 20
0.0
 30
0.0
 70
   128
 71
     8
 72
    -7
 73
    12
  0
SEQEND
  5
6664
  8
0
  0
POLYLINE
  5
62E9
  8
0
 66
     1
 10
0.0
 20
0.0
 30
0.0
 70
    64
 71
     4
 72
     2
  0
VERTEX
  5
62EA
  8
0
 10
-215.0
 20
225.0000000000001
 30
0.0
 70
   192
  0
VERTEX
  5
62EB
  8
0
 10
-215.0
 20
225.0000000000001
 30
-0.5
 70
   192
  0
VERTEX
  5
62EC
  8
0
 10
-215.0000000000001
 20
-225.0
 30
-0.5
 70
   192
  0
VERTEX
  5
62ED
  8
0
 10
-215.0000000000001
 20
-225.0
 30
0.0
 70
   192
  0
VERTEX
  5
62EE
  8
0
 10
0.0
 20
0.0
 30
0.0
 70
   128
 71
     1
 72
     4
 73
    -3
  0
VERTEX
  5
62EF
  8
0
 10
0.0
 20
0.0
 30
0.0
 70
   128
 71
    -1
 72
     3
 73
     2
  0
SEQEND
  5
6665
  8
0
  0
POLYLINE
  5
62F0
  8
0
 66
     1
 10
0.0
 20
0.0
 30
0.0
 70
    64
 71
    12
 72
    10
  0
VERTEX
  5
62F1
  8
0
 10
-165.8484838468642
 20
-345.4959767199569
 30
0.0
 70
   192
  0
VERTEX
  5
62F2
  8
0
 10
-204.9999999999999
 20
-225.0
 30
0.0
 70
   192
  0
VERTEX
  5
62F3
  8
0
 10
-204.9999999999998
 20
-225.0
 30
-0.5
 70
   192
  0
VERTEX
  5
62F4
  8
0
 10
-165.8484838468642
 20
-345.4959767199569
 30
-0.5
 70
   192
  0
VERTEX
  5
62F5
  8
0
 10
165.848483846864
 20
-345.495976719957
 30
-0.5
 70
   192
  0
VERTEX
  5
62F6
  8
0
 10
204.9999999999997
 20
-225.0000000000001
 30
-0.5
 70
   192
  0
VERTEX
  5
62F7
  8
0
 10
204.9999999999998
 20
-225.0000000000001
 30
0.0
 70
   192
  0
VERTEX
  5
62F8
  8
0
 10
165.848483846864
 20
-345.495976719957
 30
0.0
 70
   192
  0
VERTEX
  5
62F9
  8
0
 10
-63.34848384686428
 20
-419.9665858405064
 30
0.0
 70
   192
  0
VERTEX
  5
62FA
  8
0
 10
-63.34848384686428
 20
-419.9665858405064
 30
-0.5
 70
   192
  0
VERTEX
  5
62FB
  8
0
 10
63.34848384686403
 20
-419.9665858405064
 30
-0.5
 70
   192
  0
VERTEX
  5
62FC
  8
0
 10
63.34848384686403
 20
-419.9665858405064
 30
0.0
 70
   192
  0
VERTEX
  5
62FD
  8
0
 10
0.0
 20
0.0
 30
0.0
 70
   128
 71
     1
 72
     2
 73
    -3
  0
VERTEX
  5
62FE
  8
0
 10
0.0
 20
0.0
 30
0.0
 70
   128
 71
    -1
 72
     3
 73
     4
  0
VERTEX
  5
62FF
  8
0
 10
0.0
 20
0.0
 30
0.0
 70
   128
 71
     5
 72
     6
 73
    -7
  0
VERTEX
  5
6300
  8
0
 10
0.0
 20
0.0
 30
0.0
 70
   128
 71
    -5
 72
     7
 73
     8
  0
VERTEX
  5
6301
  8
0
 10
0.0
 20
0.0
 30
0.0
 70
   128
 71
     9
 72
    10
 73
   -11
  0
VERTEX
  5
6302
  8
0
 10
0.0
 20
0.0
 30
0.0
 70
   128
 71
    -9
 72
    11
 73
    12
  0
VERTEX
  5
6303
  8
0
 10
0.0
 20
0.0
 30
0.0
 70
   128
 71
     1
 72
     4
 73
   -10
  0
VERTEX
  5
6304
  8
0
 10
0.0
 20
0.0
 30
0.0
 70
   128
 71
    -1
 72
    10
 73
     9
  0
VERTEX
  5
6305
  8
0
 10
0.0
 20
0.0
 30
0.0
 70
   128
 71
    12
 72
    11
 73
    -5
  0
VERTEX
  5
6306
  8
0
 10
0.0
 20
0.0
 30
0.0
 70
   128
 71
   -12
 72
     5
 73
     8
  0
SEQEND
  5
6666
  8
0
  0
POLYLINE
  5
6307
  8
0
 66
     1
 10
0.0
 20
0.0
 30
0.0
 70
    64
 71
     4
 72
     2
  0
VERTEX
  5
6308
  8
0
 10
204.9999999999998
 20
225.0
 30
0.0
 70
   192
  0
VERTEX
  5
6309
  8
0
 10
204.9999999999998
 20
225.0
 30
-0.5
 70
   192
  0
VERTEX
  5
630A
  8
0
 10
204.9999999999998
 20
-225.0000000000001
 30
-0.5
 70
   192
  0
VERTEX
  5
630B
  8
0
 10
204.9999999999998
 20
-225.0000000000001
 30
0.0
 70
   192
  0
VERTEX
  5
630C
  8
0
 10
0.0
 20
0.0
 30
0.0
 70
   128
 71
     1
 72
     4
 73
    -3
  0
VERTEX
  5
630D
  8
0
 10
0.0
 20
0.0
 30
0.0
 70
   128
 71
    -1
 72
     3
 73
     2
  0
SEQEND
  5
6667
  8
0
  0
POLYLINE
  5
630E
  8
0
 66
     1
 10
0.0
 20
0.0
 30
0.0
 70
    64
 71
    12
 72
    10
  0
VERTEX
  5
630F
  8
0
 10
165.848483846864
 20
345.495976719957
 30
0.0
 70
   192
  0
VERTEX
  5
6310
  8
0
 10
204.9999999999998
 20
225.0
 30
0.0
 70
   192
  0
VERTEX
  5
6311
  8
0
 10
204.9999999999998
 20
225.0
 30
-0.5
 70
   192
  0
VERTEX
  5
6312
  8
0
 10
165.848483846864
 20
345.495976719957
 30
-0.5
 70
   192
  0
VERTEX
  5
6313
  8
0
 10
-165.8484838468642
 20
345.495976719957
 30
-0.5
 70
   192
  0
VERTEX
  5
6314
  8
0
 10
-204.9999999999999
 20
225.0
 30
-0.5
 70
   192
  0
VERTEX
  5
6315
  8
0
 10
-204.9999999999999
 20
225.0000000000001
 30
0.0
 70
   192
  0
VERTEX
  5
6316
  8
0
 10
-165.8484838468642
 20
345.495976719957
 30
0.0
 70
   192
  0
VERTEX
  5
6317
  8
0
 10
63.34848384686409
 20
419.9665858405064
 30
0.0
 70
   192
  0
VERTEX
  5
6318
  8
0
 10
63.34848384686409
 20
419.9665858405064
 30
-0.5
 70
   192
  0
VERTEX
  5
6319
  8
0
 10
-63.34848384686426
 20
419.9665858405064
 30
-0.5
 70
   192
  0
VERTEX
  5
631A
  8
0
 10
-63.34848384686426
 20
419.9665858405064
 30
0.0
 70
   192
  0
VERTEX
  5
631B
  8
0
 10
0.0
 20
0.0
 30
0.0
 70
   128
 71
     1
 72
     2
 73
    -3
  0
VERTEX
  5
631C
  8
0
 10
0.0
 20
0.0
 30
0.0
 70
   128
 71
    -1
 72
     3
 73
     4
  0
VERTEX
  5
631D
  8
0
 10
0.0
 20
0.0
 30
0.0
 70
   128
 71
     5
 72
     6
 73
    -7
  0
VERTEX
  5
631E
  8
0
 10
0.0
 20
0.0
 30
0.0
 70
   128
 71
    -5
 72
     7
 73
     8
  0
VERTEX
  5
631F
  8
0
 10
0.0
 20
0.0
 30
0.0
 70
   128
 71
     9
 72
    10
 73
   -11
  0
VERTEX
  5
6320
  8
0
 10
0.0
 20
0.0
 30
0.0
 70
   128
 71
    -9
 72
    11
 73
    12
  0
VERTEX
  5
6321
  8
0
 10
0.0
 20
0.0
 30
0.0
 70
   128
 71
     1
 72
     4
 73
   -10
  0
VERTEX
  5
6322
  8
0
 10
0.0
 20
0.0
 30
0.0
 70
   128
 71
    -1
 72
    10
 73
     9
  0
VERTEX
  5
6323
  8
0
 10
0.0
 20
0.0
 30
0.0
 70
   128
 71
    12
 72
    11
 73
    -5
  0
VERTEX
  5
6324
  8
0
 10
0.0
 20
0.0
 30
0.0
 70
   128
 71
   -12
 72
     5
 73
     8
  0
SEQEND
  5
6668
  8
0
  0
POLYLINE
  5
6325
  8
0
 66
     1
 10
0.0
 20
0.0
 30
0.0
 70
    64
 71
     4
 72
     2
  0
VERTEX
  5
6326
  8
0
 10
-204.9999999999998
 20
-225.0
 30
0.0
 70
   192
  0
VERTEX
  5
6327
  8
0
 10
-204.9999999999999
 20
225.0000000000001
 30
0.0
 70
   192
  0
VERTEX
  5
6328
  8
0
 10
-204.9999999999999
 20
225.0000000000001
 30
-0.5
 70
   192
  0
VERTEX
  5
6329
  8
0
 10
-204.9999999999998
 20
-225.0
 30
-0.5
 70
   192
  0
VERTEX
  5
632A
  8
0
 10
0.0
 20
0.0
 30
0.0
 70
   128
 71
     3
 72
     4
 73
    -1
  0
VERTEX
  5
632B
  8
0
 10
0.0
 20
0.0
 30
0.0
 70
   128
 71
     2
 72
    -3
 73
     1
  0
SEQEND
  5
6669
  8
0
  0
POLYLINE
  5
632C
  8
0
 66
     1
 10
0.0
 20
0.0
 30
0.0
 70
    64
 71
    12
 72
    10
  0
VERTEX
  5
632D
  8
0
 10
214.9999999999998
 20
225.0
 30
-0.5
 70
   192
  0
VERTEX
  5
632E
  8
0
 10
214.9999999999998
 20
225.0
 30
0.0
 70
   192
  0
VERTEX
  5
632F
  8
0
 10
173.9386537906136
 20
351.3738292428817
 30
0.0
 70
   192
  0
VERTEX
  5
6330
  8
0
 10
173.9386537906136
 20
351.3738292428817
 30
-0.5
 70
   192
  0
VERTEX
  5
6331
  8
0
 10
-215.0
 20
225.0
 30
0.0
 70
   192
  0
VERTEX
  5
6332
  8
0
 10
-215.0
 20
225.0000000000001
 30
-0.5
 70
   192
  0
VERTEX
  5
6333
  8
0
 10
-173.9386537906137
 20
351.3738292428817
 30
-0.5
 70
   192
  0
VERTEX
  5
6334
  8
0
 10
-173.9386537906137
 20
351.3738292428817
 30
0.0
 70
   192
  0
VERTEX
  5
6335
  8
0
 10
-66.43865379061376
 20
429.4771510034579
 30
-0.5
 70
   192
  0
VERTEX
  5
6336
  8
0
 10
66.43865379061357
 20
429.4771510034579
 30
-0.5
 70
   192
  0
VERTEX
  5
6337
  8
0
 10
66.43865379061357
 20
429.4771510034579
 30
0.0
 70
   192
  0
VERTEX
  5
6338
  8
0
 10
-66.43865379061376
 20
429.4771510034579
 30
0.0
 70
   192
  0
VERTEX
  5
6339
  8
0
 10
0.0
 20
0.0
 30
0.0
 70
   128
 71
     1
 72
     2
 73
    -3
  0
VERTEX
  5
633A
  8
0
 10
0.0
 20
0.0
 30
0.0
 70
   128
 71
     4
 72
    -1
 73
     3
  0
VERTEX
  5
633B
  8
0
 10
0.0
 20
0.0
 30
0.0
 70
   128
 71
     5
 72
     6
 73
    -7
  0
VERTEX
  5
633C
  8
0
 10
0.0
 20
0.0
 30
0.0
 70
   128
 71
     8
 72
    -5
 73
     7
  0
VERTEX
  5
633D
  8
0
 10
0.0
 20
0.0
 30
0.0
 70
   128
 71
     9
 72
    10
 73
   -11
  0
VERTEX
  5
633E
  8
0
 10
0.0
 20
0.0
 30
0.0
 70
   128
 71
    12
 72
    -9
 73
    11
  0
VERTEX
  5
633F
  8
0
 10
0.0
 20
0.0
 30
0.0
 70
   128
 71
    10
 72
     4
 73
    -3
  0
VERTEX
  5
6340
  8
0
 10
0.0
 20
0.0
 30
0.0
 70
   128
 71
    11
 72
   -10
 73
     3
  0
VERTEX
  5
6341
  8
0
 10
0.0
 20
0.0
 30
0.0
 70
   128
 71
     7
 72
     9
 73
   -12
  0
VERTEX
  5
6342
  8
0
 10
0.0
 20
0.0
 30
0.0
 70
   128
 71
     8
 72
    -7
 73
    12
  0
SEQEND
  5
666A
  8
0
  0
POLYLINE
  5
6343
  8
0
 66
     1
 10
0.0
 20
0.0
 30
0.0
 70
    64
 71
    24
 72
    24
  0
VERTEX
  5
6344
  8
0
 10
215.0
 20
-225.0
 30
-0.5
 70
   192
  0
VERTEX
  5
6345
  8
0
 10
214.9999999999999
 20
225.0
 30
-0.5
 70
   192
  0
VERTEX
  5
6346
  8
0
 10
173.9386537906136
 20
351.3738292428817
 30
-0.5
 70
   192
  0
VERTEX
  5
6347
  8
0
 10
66.43865379061357
 20
429.4771510034579
 30
-0.5
 70
   192
  0
VERTEX
  5
6348
  8
0
 10
-66.43865379061376
 20
429.4771510034579
 30
-0.5
 70
   192
  0
VERTEX
  5
6349
  8
0
 10
-173.9386537906137
 20
351.3738292428817
 30
-0.5
 70
   192
  0
VERTEX
  5
634A
  8
0
 10
-215.0
 20
225.0
 30
-0.5
 70
   192
  0
VERTEX
  5
634B
  8
0
 10
-215.0000000000001
 20
-225.0
 30
-0.5
 70
   192
  0
VERTEX
  5
634C
  8
0
 10
-173.9386537906138
 20
-351.3738292428818
 30
-0.5
 70
   192
  0
VERTEX
  5
634D
  8
0
 10
-66.43865379061384
 20
-429.4771510034581
 30
-0.5
 70
   192
  0
VERTEX
  5
634E
  8
0
 10
66.43865379061357
 20
-429.4771510034581
 30
-0.5
 70
   192
  0
VERTEX
  5
634F
  8
0
 10
173.9386537906136
 20
-351.3738292428818
 30
-0.5
 70
   192
  0
VERTEX
  5
6350
  8
0
 10
204.9999999999997
 20
-225.0000000000001
 30
-0.5
 70
   192
  0
VERTEX
  5
6351
  8
0
 10
165.848483846864
 20
-345.495976719957
 30
-0.5
 70
   192
  0
VERTEX
  5
6352
  8
0
 10
63.34848384686403
 20
-419.9665858405064
 30
-0.5
 70
   192
  0
VERTEX
  5
6353
  8
0
 10
-63.34848384686428
 20
-419.9665858405064
 30
-0.5
 70
   192
  0
VERTEX
  5
6354
  8
0
 10
-165.8484838468642
 20
-345.4959767199569
 30
-0.5
 70
   192
  0
VERTEX
  5
6355
  8
0
 10
-204.9999999999999
 20
-225.0
 30
-0.5
 70
   192
  0
VERTEX
  5
6356
  8
0
 10
-204.9999999999999
 20
225.0000000000001
 30
-0.5
 70
   192
  0
VERTEX
  5
6357
  8
0
 10
-165.8484838468642
 20
345.495976719957
 30
-0.5
 70
   192
  0
VERTEX
  5
6358
  8
0
 10
-63.34848384686426
 20
419.9665858405064
 30
-0.5
 70
   192
  0
VERTEX
  5
6359
  8
0
 10
63.34848384686409
 20
419.9665858405064
 30
-0.5
 70
   192
  0
VERTEX
  5
635A
  8
0
 10
165.848483846864
 20
345.495976719957
 30
-0.5
 70
   192
  0
VERTEX
  5
635B
  8
0
 10
204.9999999999998
 20
225.0
 30
-0.5
 70
   192
  0
VERTEX
  5
635C
  8
0
 10
0.0
 20
0.0
 30
0.0
 70
   128
 71
    -1
 72
    13
 73
   -14
  0
VERTEX
  5
635D
  8
0
 10
0.0
 20
0.0
 30
0.0
 70
   128
 71
    12
 72
    -1
 73
   -14
  0
VERTEX
  5
635E
  8
0
 10
0.0
 20
0.0
 30
0.0
 70
   128
 71
   -15
 72
    11
 73
   -12
  0
VERTEX
  5
635F
  8
0
 10
0.0
 20
0.0
 30
0.0
 70
   128
 71
    14
 72
   -15
 73
   -12
  0
VERTEX
  5
6360
  8
0
 10
0.0
 20
0.0
 30
0.0
 70
   128
 71
   -16
 72
    10
 73
   -11
  0
VERTEX
  5
6361
  8
0
 10
0.0
 20
0.0
 30
0.0
 70
   128
 71
    15
 72
   -16
 73
   -11
  0
VERTEX
  5
6362
  8
0
 10
0.0
 20
0.0
 30
0.0
 70
   128
 71
   -17
 72
     9
 73
   -10
  0
VERTEX
  5
6363
  8
0
 10
0.0
 20
0.0
 30
0.0
 70
   128
 71
    16
 72
   -17
 73
   -10
  0
VERTEX
  5
6364
  8
0
 10
0.0
 20
0.0
 30
0.0
 70
   128
 71
   -18
 72
     8
 73
    -9
  0
VERTEX
  5
6365
  8
0
 10
0.0
 20
0.0
 30
0.0
 70
   128
 71
    17
 72
   -18
 73
    -9
  0
VERTEX
  5
6366
  8
0
 10
0.0
 20
0.0
 30
0.0
 70
   128
 71
   -19
 72
     7
 73
    -8
  0
VERTEX
  5
6367
  8
0
 10
0.0
 20
0.0
 30
0.0
 70
   128
 71
    18
 72
   -19
 73
    -8
  0
VERTEX
  5
6368
  8
0
 10
0.0
 20
0.0
 30
0.0
 70
   128
 71
   -20
 72
     6
 73
    -7
  0
VERTEX
  5
6369
  8
0
 10
0.0
 20
0.0
 30
0.0
 70
   128
 71
    19
 72
   -20
 73
    -7
  0
VERTEX
  5
636A
  8
0
 10
0.0
 20
0.0
 30
0.0
 70
   128
 71
   -21
 72
     5
 73
    -6
  0
VERTEX
  5
636B
  8
0
 10
0.0
 20
0.0
 30
0.0
 70
   128
 71
    20
 72
   -21
 73
    -6
  0
VERTEX
  5
636C
  8
0
 10
0.0
 20
0.0
 30
0.0
 70
   128
 71
   -22
 72
     4
 73
    -5
  0
VERTEX
  5
636D
  8
0
 10
0.0
 20
0.0
 30
0.0
 70
   128
 71
    21
 72
   -22
 73
    -5
  0
VERTEX
  5
636E
  8
0
 10
0.0
 20
0.0
 30
0.0
 70
   128
 71
   -23
 72
     3
 73
    -4
  0
VERTEX
  5
636F
  8
0
 10
0.0
 20
0.0
 30
0.0
 70
   128
 71
    22
 72
   -23
 73
    -4
  0
VERTEX
  5
6370
  8
0
 10
0.0
 20
0.0
 30
0.0
 70
   128
 71
   -24
 72
     2
 73
    -3
  0
VERTEX
  5
6371
  8
0
 10
0.0
 20
0.0
 30
0.0
 70
   128
 71
    23
 72
   -24
 73
    -3
  0
VERTEX
  5
6372
  8
0
 10
0.0
 20
0.0
 30
0.0
 70
   128
 71
   -13
 72
     1
 73
    -2
  0
VERTEX
  5
6373
  8
0
 10
0.0
 20
0.0
 30
0.0
 70
   128
 71
    24
 72
   -13
 73
    -2
  0
SEQEND
  5
666B
  8
0
  0
POLYLINE
  5
6374
  8
0
 66
     1
 10
0.0
 20
0.0
 30
0.0
 70
    64
 71
    24
 72
    24
  0
VERTEX
  5
6375
  8
0
 10
-204.9999999999999
 20
225.0000000000001
 30
0.0
 70
   192
  0
VERTEX
  5
6376
  8
0
 10
-204.9999999999998
 20
-225.0
 30
0.0
 70
   192
  0
VERTEX
  5
6377
  8
0
 10
-165.8484838468642
 20
-345.4959767199569
 30
0.0
 70
   192
  0
VERTEX
  5
6378
  8
0
 10
-63.34848384686428
 20
-419.9665858405064
 30
0.0
 70
   192
  0
VERTEX
  5
6379
  8
0
 10
63.34848384686403
 20
-419.9665858405064
 30
0.0
 70
   192
  0
VERTEX
  5
637A
  8
0
 10
165.848483846864
 20
-345.495976719957
 30
0.0
 70
   192
  0
VERTEX
  5
637B
  8
0
 10
204.9999999999997
 20
-225.0000000000001
 30
0.0
 70
   192
  0
VERTEX
  5
637C
  8
0
 10
204.9999999999998
 20
225.0
 30
0.0
 70
   192
  0
VERTEX
  5
637D
  8
0
 10
165.848483846864
 20
345.495976719957
 30
0.0
 70
   192
  0
VERTEX
  5
637E
  8
0
 10
63.34848384686409
 20
419.9665858405064
 30
0.0
 70
   192
  0
VERTEX
  5
637F
  8
0
 10
-63.34848384686426
 20
419.9665858405064
 30
0.0
 70
   192
  0
VERTEX
  5
6380
  8
0
 10
-165.8484838468642
 20
345.495976719957
 30
0.0
 70
   192
  0
VERTEX
  5
6381
  8
0
 10
-189.9999999999998
 20
-225.0
 30
0.0
 70
   192
  0
VERTEX
  5
6382
  8
0
 10
-190.0000000000001
 20
225.0000000000001
 30
0.0
 70
   192
  0
VERTEX
  5
6383
  8
0
 10
-153.7132289312401
 20
336.67919793557
 30
0.0
 70
   192
  0
VERTEX
  5
6384
  8
0
 10
-58.7132289312401
 20
405.7007380960792
 30
0.0
 70
   192
  0
VERTEX
  5
6385
  8
0
 10
58.71322893123993
 20
405.7007380960792
 30
0.0
 70
   192
  0
VERTEX
  5
6386
  8
0
 10
153.7132289312399
 20
336.67919793557
 30
0.0
 70
   192
  0
VERTEX
  5
6387
  8
0
 10
189.9999999999999
 20
225.0
 30
0.0
 70
   192
  0
VERTEX
  5
6388
  8
0
 10
189.9999999999999
 20
-225.0000000000001
 30
0.0
 70
   192
  0
VERTEX
  5
6389
  8
0
 10
153.7132289312398
 20
-336.67919793557
 30
0.0
 70
   192
  0
VERTEX
  5
638A
  8
0
 10
58.71322893123985
 20
-405.7007380960791
 30
0.0
 70
   192
  0
VERTEX
  5
638B
  8
0
 10
-58.7132289312401
 20
-405.7007380960791
 30
0.0
 70
   192
  0
VERTEX
  5
638C
  8
0
 10
-153.71322893124
 20
-336.6791979355698
 30
0.0
 70
   192
  0
VERTEX
  5
638D
  8
0
 10
0.0
 20
0.0
 30
0.0
 70
   128
 71
    -2
 72
    13
 73
   -14
  0
VERTEX
  5
638E
  8
0
 10
0.0
 20
0.0
 30
0.0
 70
   128
 71
     1
 72
    -2
 73
   -14
  0
VERTEX
  5
638F
  8
0
 10
0.0
 20
0.0
 30
0.0
 70
   128
 71
   -15
 72
    12
 73
    -1
  0
VERTEX
  5
6390
  8
0
 10
0.0
 20
0.0
 30
0.0
 70
   128
 71
    14
 72
   -15
 73
    -1
  0
VERTEX
  5
6391
  8
0
 10
0.0
 20
0.0
 30
0.0
 70
   128
 71
   -16
 72
    11
 73
   -12
  0
VERTEX
  5
6392
  8
0
 10
0.0
 20
0.0
 30
0.0
 70
   128
 71
    15
 72
   -16
 73
   -12
  0
VERTEX
  5
6393
  8
0
 10
0.0
 20
0.0
 30
0.0
 70
   128
 71
   -17
 72
    10
 73
   -11
  0
VERTEX
  5
6394
  8
0
 10
0.0
 20
0.0
 30
0.0
 70
   128
 71
    16
 72
   -17
 73
   -11
  0
VERTEX
  5
6395
  8
0
 10
0.0
 20
0.0
 30
0.0
 70
   128
 71
   -18
 72
     9
 73
   -10
  0
VERTEX
  5
6396
  8
0
 10
0.0
 20
0.0
 30
0.0
 70
   128
 71
    17
 72
   -18
 73
   -10
  0
VERTEX
  5
6397
  8
0
 10
0.0
 20
0.0
 30
0.0
 70
   128
 71
   -19
 72
     8
 73
    -9
  0
VERTEX
  5
6398
  8
0
 10
0.0
 20
0.0
 30
0.0
 70
   128
 71
    18
 72
   -19
 73
    -9
  0
VERTEX
  5
6399
  8
0
 10
0.0
 20
0.0
 30
0.0
 70
   128
 71
   -20
 72
     7
 73
    -8
  0
VERTEX
  5
639A
  8
0
 10
0.0
 20
0.0
 30
0.0
 70
   128
 71
    19
 72
   -20
 73
    -8
  0
VERTEX
  5
639B
  8
0
 10
0.0
 20
0.0
 30
0.0
 70
   128
 71
   -21
 72
     6
 73
    -7
  0
VERTEX
  5
639C
  8
0
 10
0.0
 20
0.0
 30
0.0
 70
   128
 71
    20
 72
   -21
 73
    -7
  0
VERTEX
  5
639D
  8
0
 10
0.0
 20
0.0
 30
0.0
 70
   128
 71
   -22
 72
     5
 73
    -6
  0
VERTEX
  5
639E
  8
0
 10
0.0
 20
0.0
 30
0.0
 70
   128
 71
    21
 72
   -22
 73
    -6
  0
VERTEX
  5
639F
  8
0
 10
0.0
 20
0.0
 30
0.0
 70
   128
 71
   -23
 72
     4
 73
    -5
  0
VERTEX
  5
63A0
  8
0
 10
0.0
 20
0.0
 30
0.0
 70
   128
 71
    22
 72
   -23
 73
    -5
  0
VERTEX
  5
63A1
  8
0
 10
0.0
 20
0.0
 30
0.0
 70
   128
 71
   -24
 72
     3
 73
    -4
  0
VERTEX
  5
63A2
  8
0
 10
0.0
 20
0.0
 30
0.0
 70
   128
 71
    23
 72
   -24
 73
    -4
  0
VERTEX
  5
63A3
  8
0
 10
0.0
 20
0.0
 30
0.0
 70
   128
 71
   -13
 72
     2
 73
    -3
  0
VERTEX
  5
63A4
  8
0
 10
0.0
 20
0.0
 30
0.0
 70
   128
 71
    24
 72
   -13
 73
    -3
  0
SEQEND
  5
666C
  8
0
  0
POLYLINE
  5
63A5
  8
0
 66
     1
 10
0.0
 20
0.0
 30
0.0
 70
    64
 71
     4
 72
     2
  0
VERTEX
  5
63A6
  8
0
 10
-190.0000000000001
 20
225.0000000000001
 30
0.0
 70
   192
  0
VERTEX
  5
63A7
  8
0
 10
-190.0000000000001
 20
225.0000000000001
 30
-0.5
 70
   192
  0
VERTEX
  5
63A8
  8
0
 10
-189.9999999999998
 20
-225.0
 30
-0.5
 70
   192
  0
VERTEX
  5
63A9
  8
0
 10
-189.9999999999998
 20
-225.0
 30
0.0
 70
   192
  0
VERTEX
  5
63AA
  8
0
 10
0.0
 20
0.0
 30
0.0
 70
   128
 71
     1
 72
     4
 73
    -3
  0
VERTEX
  5
63AB
  8
0
 10
0.0
 20
0.0
 30
0.0
 70
   128
 71
    -1
 72
     3
 73
     2
  0
SEQEND
  5
666D
  8
0
  0
POLYLINE
  5
63AC
  8
0
 66
     1
 10
0.0
 20
0.0
 30
0.0
 70
    64
 71
    12
 72
    10
  0
VERTEX
  5
63AD
  8
0
 10
189.9999999999999
 20
225.0
 30
-0.5
 70
   192
  0
VERTEX
  5
63AE
  8
0
 10
189.9999999999999
 20
225.0
 30
0.0
 70
   192
  0
VERTEX
  5
63AF
  8
0
 10
153.7132289312399
 20
336.67919793557
 30
0.0
 70
   192
  0
VERTEX
  5
63B0
  8
0
 10
153.7132289312399
 20
336.67919793557
 30
-0.5
 70
   192
  0
VERTEX
  5
63B1
  8
0
 10
-190.0000000000001
 20
225.0
 30
0.0
 70
   192
  0
VERTEX
  5
63B2
  8
0
 10
-190.0000000000001
 20
225.0000000000001
 30
-0.5
 70
   192
  0
VERTEX
  5
63B3
  8
0
 10
-153.7132289312401
 20
336.67919793557
 30
-0.5
 70
   192
  0
VERTEX
  5
63B4
  8
0
 10
-153.7132289312401
 20
336.67919793557
 30
0.0
 70
   192
  0
VERTEX
  5
63B5
  8
0
 10
-58.7132289312401
 20
405.7007380960792
 30
-0.5
 70
   192
  0
VERTEX
  5
63B6
  8
0
 10
58.71322893123993
 20
405.7007380960792
 30
-0.5
 70
   192
  0
VERTEX
  5
63B7
  8
0
 10
58.71322893123993
 20
405.7007380960792
 30
0.0
 70
   192
  0
VERTEX
  5
63B8
  8
0
 10
-58.7132289312401
 20
405.7007380960792
 30
0.0
 70
   192
  0
VERTEX
  5
63B9
  8
0
 10
0.0
 20
0.0
 30
0.0
 70
   128
 71
     1
 72
     2
 73
    -3
  0
VERTEX
  5
63BA
  8
0
 10
0.0
 20
0.0
 30
0.0
 70
   128
 71
     4
 72
    -1
 73
     3
  0
VERTEX
  5
63BB
  8
0
 10
0.0
 20
0.0
 30
0.0
 70
   128
 71
     5
 72
     6
 73
    -7
  0
VERTEX
  5
63BC
  8
0
 10
0.0
 20
0.0
 30
0.0
 70
   128
 71
     8
 72
    -5
 73
     7
  0
VERTEX
  5
63BD
  8
0
 10
0.0
 20
0.0
 30
0.0
 70
   128
 71
     9
 72
    10
 73
   -11
  0
VERTEX
  5
63BE
  8
0
 10
0.0
 20
0.0
 30
0.0
 70
   128
 71
    12
 72
    -9
 73
    11
  0
VERTEX
  5
63BF
  8
0
 10
0.0
 20
0.0
 30
0.0
 70
   128
 71
    10
 72
     4
 73
    -3
  0
VERTEX
  5
63C0
  8
0
 10
0.0
 20
0.0
 30
0.0
 70
   128
 71
    11
 72
   -10
 73
     3
  0
VERTEX
  5
63C1
  8
0
 10
0.0
 20
0.0
 30
0.0
 70
   128
 71
     7
 72
     9
 73
   -12
  0
VERTEX
  5
63C2
  8
0
 10
0.0
 20
0.0
 30
0.0
 70
   128
 71
     8
 72
    -7
 73
    12
  0
SEQEND
  5
666E
  8
0
  0
POLYLINE
  5
63C3
  8
0
 66
     1
 10
0.0
 20
0.0
 30
0.0
 70
    64
 71
     4
 72
     2
  0
VERTEX
  5
63C4
  8
0
 10
189.9999999999999
 20
-225.0000000000001
 30
0.0
 70
   192
  0
VERTEX
  5
63C5
  8
0
 10
189.9999999999999
 20
225.0
 30
0.0
 70
   192
  0
VERTEX
  5
63C6
  8
0
 10
189.9999999999999
 20
225.0
 30
-0.5
 70
   192
  0
VERTEX
  5
63C7
  8
0
 10
189.9999999999999
 20
-225.0000000000001
 30
-0.5
 70
   192
  0
VERTEX
  5
63C8
  8
0
 10
0.0
 20
0.0
 30
0.0
 70
   128
 71
     3
 72
     4
 73
    -1
  0
VERTEX
  5
63C9
  8
0
 10
0.0
 20
0.0
 30
0.0
 70
   128
 71
     2
 72
    -3
 73
     1
  0
SEQEND
  5
666F
  8
0
  0
POLYLINE
  5
63CA
  8
0
 66
     1
 10
0.0
 20
0.0
 30
0.0
 70
    64
 71
    12
 72
    10
  0
VERTEX
  5
63CB
  8
0
 10
-190.0
 20
-225.0
 30
-0.5
 70
   192
  0
VERTEX
  5
63CC
  8
0
 10
-190.0
 20
-225.0
 30
0.0
 70
   192
  0
VERTEX
  5
63CD
  8
0
 10
-153.71322893124
 20
-336.6791979355698
 30
0.0
 70
   192
  0
VERTEX
  5
63CE
  8
0
 10
-153.71322893124
 20
-336.6791979355698
 30
-0.5
 70
   192
  0
VERTEX
  5
63CF
  8
0
 10
189.9999999999998
 20
-225.0000000000001
 30
0.0
 70
   192
  0
VERTEX
  5
63D0
  8
0
 10
189.9999999999999
 20
-225.0000000000001
 30
-0.5
 70
   192
  0
VERTEX
  5
63D1
  8
0
 10
153.7132289312398
 20
-336.67919793557
 30
-0.5
 70
   192
  0
VERTEX
  5
63D2
  8
0
 10
153.7132289312398
 20
-336.67919793557
 30
0.0
 70
   192
  0
VERTEX
  5
63D3
  8
0
 10
58.71322893123985
 20
-405.7007380960791
 30
-0.5
 70
   192
  0
VERTEX
  5
63D4
  8
0
 10
-58.7132289312401
 20
-405.7007380960791
 30
-0.5
 70
   192
  0
VERTEX
  5
63D5
  8
0
 10
-58.7132289312401
 20
-405.7007380960791
 30
0.0
 70
   192
  0
VERTEX
  5
63D6
  8
0
 10
58.71322893123985
 20
-405.7007380960791
 30
0.0
 70
   192
  0
VERTEX
  5
63D7
  8
0
 10
0.0
 20
0.0
 30
0.0
 70
   128
 71
     1
 72
     2
 73
    -3
  0
VERTEX
  5
63D8
  8
0
 10
0.0
 20
0.0
 30
0.0
 70
   128
 71
     4
 72
    -1
 73
     3
  0
VERTEX
  5
63D9
  8
0
 10
0.0
 20
0.0
 30
0.0
 70
   128
 71
     5
 72
     6
 73
    -7
  0
VERTEX
  5
63DA
  8
0
 10
0.0
 20
0.0
 30
0.0
 70
   128
 71
     8
 72
    -5
 73
     7
  0
VERTEX
  5
63DB
  8
0
 10
0.0
 20
0.0
 30
0.0
 70
   128
 71
     9
 72
    10
 73
   -11
  0
VERTEX
  5
63DC
  8
0
 10
0.0
 20
0.0
 30
0.0
 70
   128
 71
    12
 72
    -9
 73
    11
  0
VERTEX
  5
63DD
  8
0
 10
0.0
 20
0.0
 30
0.0
 70
   128
 71
    10
 72
     4
 73
    -3
  0
VERTEX
  5
63DE
  8
0
 10
0.0
 20
0.0
 30
0.0
 70
   128
 71
    11
 72
   -10
 73
     3
  0
VERTEX
  5
63DF
  8
0
 10
0.0
 20
0.0
 30
0.0
 70
   128
 71
     7
 72
     9
 73
   -12
  0
VERTEX
  5
63E0
  8
0
 10
0.0
 20
0.0
 30
0.0
 70
   128
 71
     8
 72
    -7
 73
    12
  0
SEQEND
  5
6670
  8
0
  0
POLYLINE
  5
63E1
  8
0
 66
     1
 10
0.0
 20
0.0
 30
0.0
 70
    64
 71
    12
 72
    10
  0
VERTEX
  5
63E2
  8
0
 10
-190.0000000000001
 20
225.0000000000001
 30
-0.5
 70
   192
  0
VERTEX
  5
63E3
  8
0
 10
-189.9999999999998
 20
-225.0
 30
-0.5
 70
   192
  0
VERTEX
  5
63E4
  8
0
 10
-153.71322893124
 20
-336.6791979355698
 30
-0.5
 70
   192
  0
VERTEX
  5
63E5
  8
0
 10
-58.7132289312401
 20
-405.7007380960791
 30
-0.5
 70
   192
  0
VERTEX
  5
63E6
  8
0
 10
58.71322893123985
 20
-405.7007380960791
 30
-0.5
 70
   192
  0
VERTEX
  5
63E7
  8
0
 10
153.7132289312398
 20
-336.67919793557
 30
-0.5
 70
   192
  0
VERTEX
  5
63E8
  8
0
 10
189.9999999999998
 20
-225.0000000000001
 30
-0.5
 70
   192
  0
VERTEX
  5
63E9
  8
0
 10
189.9999999999999
 20
225.0
 30
-0.5
 70
   192
  0
VERTEX
  5
63EA
  8
0
 10
153.7132289312399
 20
336.67919793557
 30
-0.5
 70
   192
  0
VERTEX
  5
63EB
  8
0
 10
58.71322893123993
 20
405.7007380960792
 30
-0.5
 70
   192
  0
VERTEX
  5
63EC
  8
0
 10
-58.7132289312401
 20
405.7007380960792
 30
-0.5
 70
   192
  0
VERTEX
  5
63ED
  8
0
 10
-153.7132289312401
 20
336.67919793557
 30
-0.5
 70
   192
  0
VERTEX
  5
63EE
  8
0
 10
0.0
 20
0.0
 30
0.0
 70
   128
 71
    11
 72
    12
 73
    -1
  0
VERTEX
  5
63EF
  8
0
 10
0.0
 20
0.0
 30
0.0
 70
   128
 71
    10
 72
   -11
 73
    -1
  0
VERTEX
  5
63F0
  8
0
 10
0.0
 20
0.0
 30
0.0
 70
   128
 71
     9
 72
   -10
 73
    -1
  0
VERTEX
  5
63F1
  8
0
 10
0.0
 20
0.0
 30
0.0
 70
   128
 71
     8
 72
    -9
 73
    -1
  0
VERTEX
  5
63F2
  8
0
 10
0.0
 20
0.0
 30
0.0
 70
   128
 71
     7
 72
    -8
 73
    -1
  0
VERTEX
  5
63F3
  8
0
 10
0.0
 20
0.0
 30
0.0
 70
   128
 71
     6
 72
    -7
 73
    -1
  0
VERTEX
  5
63F4
  8
0
 10
0.0
 20
0.0
 30
0.0
 70
   128
 71
     5
 72
    -6
 73
    -1
  0
VERTEX
  5
63F5
  8
0
 10
0.0
 20
0.0
 30
0.0
 70
   128
 71
     4
 72
    -5
 73
    -1
  0
VERTEX
  5
63F6
  8
0
 10
0.0
 20
0.0
 30
0.0
 70
   128
 71
     3
 72
    -4
 73
    -1
  0
VERTEX
  5
63F7
  8
0
 10
0.0
 20
0.0
 30
0.0
 70
   128
 71
     2
 72
    -3
 73
     1
  0
SEQEND
  5
6671
  8
0
  0
POLYLINE
  5
63F8
  8
0
 66
     1
 10
0.0
 20
0.0
 30
0.0
 70
    64
 71
     4
 72
     2
  0
VERTEX
  5
63F9
  8
0
 10
214.9999999999999
 20
-225.0000000000001
 30
-10.5
 70
   192
  0
VERTEX
  5
63FA
  8
0
 10
214.9999999999999
 20
225.0
 30
-10.5
 70
   192
  0
VERTEX
  5
63FB
  8
0
 10
214.9999999999999
 20
225.0
 30
-35.0
 70
   192
  0
VERTEX
  5
63FC
  8
0
 10
214.9999999999999
 20
-225.0
 30
-35.0
 70
   192
  0
VERTEX
  5
63FD
  8
0
 10
0.0
 20
0.0
 30
0.0
 70
   128
 71
     3
 72
     4
 73
    -1
  0
VERTEX
  5
63FE
  8
0
 10
0.0
 20
0.0
 30
0.0
 70
   128
 71
     2
 72
    -3
 73
     1
  0
SEQEND
  5
6672
  8
0
  0
POLYLINE
  5
63FF
  8
0
 66
     1
 10
0.0
 20
0.0
 30
0.0
 70
    64
 71
    12
 72
    10
  0
VERTEX
  5
6400
  8
0
 10
-214.9999999999999
 20
-225.0
 30
-35.0
 70
   192
  0
VERTEX
  5
6401
  8
0
 10
-214.9999999999998
 20
-225.0000000000001
 30
-10.5
 70
   192
  0
VERTEX
  5
6402
  8
0
 10
-173.9386537906137
 20
-351.3738292428817
 30
-10.5
 70
   192
  0
VERTEX
  5
6403
  8
0
 10
-173.9386537906137
 20
-351.3738292428817
 30
-35.0
 70
   192
  0
VERTEX
  5
6404
  8
0
 10
214.9999999999998
 20
-225.0000000000001
 30
-10.5
 70
   192
  0
VERTEX
  5
6405
  8
0
 10
214.9999999999998
 20
-225.0000000000001
 30
-35.0
 70
   192
  0
VERTEX
  5
6406
  8
0
 10
173.9386537906135
 20
-351.3738292428818
 30
-35.0
 70
   192
  0
VERTEX
  5
6407
  8
0
 10
173.9386537906135
 20
-351.3738292428817
 30
-10.5
 70
   192
  0
VERTEX
  5
6408
  8
0
 10
66.43865379061353
 20
-429.4771510034579
 30
-35.0
 70
   192
  0
VERTEX
  5
6409
  8
0
 10
-66.4386537906138
 20
-429.4771510034579
 30
-35.0
 70
   192
  0
VERTEX
  5
640A
  8
0
 10
-66.43865379061374
 20
-429.4771510034579
 30
-10.5
 70
   192
  0
VERTEX
  5
640B
  8
0
 10
66.43865379061356
 20
-429.4771510034579
 30
-10.5
 70
   192
  0
VERTEX
  5
640C
  8
0
 10
0.0
 20
0.0
 30
0.0
 70
   128
 71
     1
 72
     2
 73
    -3
  0
VERTEX
  5
640D
  8
0
 10
0.0
 20
0.0
 30
0.0
 70
   128
 71
     4
 72
    -1
 73
     3
  0
VERTEX
  5
640E
  8
0
 10
0.0
 20
0.0
 30
0.0
 70
   128
 71
     5
 72
     6
 73
    -7
  0
VERTEX
  5
640F
  8
0
 10
0.0
 20
0.0
 30
0.0
 70
   128
 71
     8
 72
    -5
 73
     7
  0
VERTEX
  5
6410
  8
0
 10
0.0
 20
0.0
 30
0.0
 70
   128
 71
     9
 72
    10
 73
   -11
  0
VERTEX
  5
6411
  8
0
 10
0.0
 20
0.0
 30
0.0
 70
   128
 71
    12
 72
    -9
 73
    11
  0
VERTEX
  5
6412
  8
0
 10
0.0
 20
0.0
 30
0.0
 70
   128
 71
    10
 72
     4
 73
    -3
  0
VERTEX
  5
6413
  8
0
 10
0.0
 20
0.0
 30
0.0
 70
   128
 71
    11
 72
   -10
 73
     3
  0
VERTEX
  5
6414
  8
0
 10
0.0
 20
0.0
 30
0.0
 70
   128
 71
     7
 72
     9
 73
   -12
  0
VERTEX
  5
6415
  8
0
 10
0.0
 20
0.0
 30
0.0
 70
   128
 71
     8
 72
    -7
 73
    12
  0
SEQEND
  5
6673
  8
0
  0
POLYLINE
  5
6416
  8
0
 66
     1
 10
0.0
 20
0.0
 30
0.0
 70
    64
 71
     4
 72
     2
  0
VERTEX
  5
6417
  8
0
 10
-214.9999999999998
 20
-225.0000000000001
 30
-10.5
 70
   192
  0
VERTEX
  5
6418
  8
0
 10
-214.9999999999999
 20
225.0000000000001
 30
-10.5
 70
   192
  0
VERTEX
  5
6419
  8
0
 10
-214.9999999999998
 20
225.0000000000001
 30
-35.0
 70
   192
  0
VERTEX
  5
641A
  8
0
 10
-214.9999999999998
 20
-225.0000000000001
 30
-35.0
 70
   192
  0
VERTEX
  5
641B
  8
0
 10
0.0
 20
0.0
 30
0.0
 70
   128
 71
     1
 72
     4
 73
    -3
  0
VERTEX
  5
641C
  8
0
 10
0.0
 20
0.0
 30
0.0
 70
   128
 71
    -1
 72
     3
 73
     2
  0
SEQEND
  5
6674
  8
0
  0
POLYLINE
  5
641D
  8
0
 66
     1
 10
0.0
 20
0.0
 30
0.0
 70
    64
 71
    12
 72
    10
  0
VERTEX
  5
641E
  8
0
 10
214.9999999999998
 20
225.0
 30
-35.0
 70
   192
  0
VERTEX
  5
641F
  8
0
 10
214.9999999999999
 20
225.0
 30
-10.5
 70
   192
  0
VERTEX
  5
6420
  8
0
 10
173.9386537906135
 20
351.3738292428817
 30
-10.5
 70
   192
  0
VERTEX
  5
6421
  8
0
 10
173.9386537906135
 20
351.3738292428817
 30
-35.0
 70
   192
  0
VERTEX
  5
6422
  8
0
 10
-214.9999999999999
 20
225.0000000000001
 30
-10.5
 70
   192
  0
VERTEX
  5
6423
  8
0
 10
-214.9999999999999
 20
225.0000000000001
 30
-35.0
 70
   192
  0
VERTEX
  5
6424
  8
0
 10
-173.9386537906137
 20
351.3738292428817
 30
-35.0
 70
   192
  0
VERTEX
  5
6425
  8
0
 10
-173.9386537906137
 20
351.3738292428816
 30
-10.5
 70
   192
  0
VERTEX
  5
6426
  8
0
 10
-66.43865379061374
 20
429.4771510034579
 30
-35.0
 70
   192
  0
VERTEX
  5
6427
  8
0
 10
66.43865379061356
 20
429.4771510034579
 30
-35.0
 70
   192
  0
VERTEX
  5
6428
  8
0
 10
66.43865379061353
 20
429.4771510034579
 30
-10.5
 70
   192
  0
VERTEX
  5
6429
  8
0
 10
-66.4386537906138
 20
429.4771510034579
 30
-10.5
 70
   192
  0
VERTEX
  5
642A
  8
0
 10
0.0
 20
0.0
 30
0.0
 70
   128
 71
     1
 72
     2
 73
    -3
  0
VERTEX
  5
642B
  8
0
 10
0.0
 20
0.0
 30
0.0
 70
   128
 71
     4
 72
    -1
 73
     3
  0
VERTEX
  5
642C
  8
0
 10
0.0
 20
0.0
 30
0.0
 70
   128
 71
     5
 72
     6
 73
    -7
  0
VERTEX
  5
642D
  8
0
 10
0.0
 20
0.0
 30
0.0
 70
   128
 71
     8
 72
    -5
 73
     7
  0
VERTEX
  5
642E
  8
0
 10
0.0
 20
0.0
 30
0.0
 70
   128
 71
     9
 72
    10
 73
   -11
  0
VERTEX
  5
642F
  8
0
 10
0.0
 20
0.0
 30
0.0
 70
   128
 71
    12
 72
    -9
 73
    11
  0
VERTEX
  5
6430
  8
0
 10
0.0
 20
0.0
 30
0.0
 70
   128
 71
    10
 72
     4
 73
    -3
  0
VERTEX
  5
6431
  8
0
 10
0.0
 20
0.0
 30
0.0
 70
   128
 71
    11
 72
   -10
 73
     3
  0
VERTEX
  5
6432
  8
0
 10
0.0
 20
0.0
 30
0.0
 70
   128
 71
     7
 72
     9
 73
   -12
  0
VERTEX
  5
6433
  8
0
 10
0.0
 20
0.0
 30
0.0
 70
   128
 71
     8
 72
    -7
 73
    12
  0
SEQEND
  5
6675
  8
0
  0
POLYLINE
  5
6434
  8
0
 66
     1
 10
0.0
 20
0.0
 30
0.0
 70
    64
 71
    12
 72
    10
  0
VERTEX
  5
6435
  8
0
 10
214.9999999999999
 20
-225.0000000000001
 30
-10.5
 70
   192
  0
VERTEX
  5
6436
  8
0
 10
214.9999999999998
 20
225.0000000000001
 30
-10.5
 70
   192
  0
VERTEX
  5
6437
  8
0
 10
173.9386537906135
 20
351.3738292428817
 30
-10.5
 70
   192
  0
VERTEX
  5
6438
  8
0
 10
66.43865379061353
 20
429.4771510034579
 30
-10.5
 70
   192
  0
VERTEX
  5
6439
  8
0
 10
-66.4386537906138
 20
429.4771510034579
 30
-10.5
 70
   192
  0
VERTEX
  5
643A
  8
0
 10
-173.9386537906137
 20
351.3738292428816
 30
-10.5
 70
   192
  0
VERTEX
  5
643B
  8
0
 10
-214.9999999999998
 20
225.0000000000001
 30
-10.5
 70
   192
  0
VERTEX
  5
643C
  8
0
 10
-214.9999999999999
 20
-225.0000000000001
 30
-10.5
 70
   192
  0
VERTEX
  5
643D
  8
0
 10
-173.9386537906137
 20
-351.3738292428817
 30
-10.5
 70
   192
  0
VERTEX
  5
643E
  8
0
 10
-66.43865379061374
 20
-429.4771510034579
 30
-10.5
 70
   192
  0
VERTEX
  5
643F
  8
0
 10
66.43865379061356
 20
-429.4771510034579
 30
-10.5
 70
   192
  0
VERTEX
  5
6440
  8
0
 10
173.9386537906135
 20
-351.3738292428817
 30
-10.5
 70
   192
  0
VERTEX
  5
6441
  8
0
 10
0.0
 20
0.0
 30
0.0
 70
   128
 71
     1
 72
    12
 73
   -11
  0
VERTEX
  5
6442
  8
0
 10
0.0
 20
0.0
 30
0.0
 70
   128
 71
    -1
 72
    11
 73
   -10
  0
VERTEX
  5
6443
  8
0
 10
0.0
 20
0.0
 30
0.0
 70
   128
 71
    -1
 72
    10
 73
    -9
  0
VERTEX
  5
6444
  8
0
 10
0.0
 20
0.0
 30
0.0
 70
   128
 71
    -1
 72
     9
 73
    -8
  0
VERTEX
  5
6445
  8
0
 10
0.0
 20
0.0
 30
0.0
 70
   128
 71
    -1
 72
     8
 73
    -7
  0
VERTEX
  5
6446
  8
0
 10
0.0
 20
0.0
 30
0.0
 70
   128
 71
    -1
 72
     7
 73
    -6
  0
VERTEX
  5
6447
  8
0
 10
0.0
 20
0.0
 30
0.0
 70
   128
 71
    -1
 72
     6
 73
    -5
  0
VERTEX
  5
6448
  8
0
 10
0.0
 20
0.0
 30
0.0
 70
   128
 71
    -1
 72
     5
 73
    -4
  0
VERTEX
  5
6449
  8
0
 10
0.0
 20
0.0
 30
0.0
 70
   128
 71
    -1
 72
     4
 73
    -3
  0
VERTEX
  5
644A
  8
0
 10
0.0
 20
0.0
 30
0.0
 70
   128
 71
    -1
 72
     3
 73
     2
  0
SEQEND
  5
6676
  8
0
  0
ENDBLK
  5
665C
  8
0
  0
BLOCK
  8
0
  2
*X2
 70
     1
 10
0.0
 20
0.0
 30
0.0
  3
*X2
  1

  0
POLYLINE
  5
644C
  8
0
 66
     1
 10
0.0
 20
0.0
 30
0.0
 70
    64
 71
     6
 72
     4
  0
VERTEX
  5
644D
  8
0
 10
119.9999999999999
 20
229.9999999999998
 30
-13.5
 70
   192
  0
VERTEX
  5
644E
  8
0
 10
122.9999999999999
 20
229.9999999999998
 30
-13.5
 70
   192
  0
VERTEX
  5
644F
  8
0
 10
122.9999999999999
 20
229.9999999999998
 30
-20.5
 70
   192
  0
VERTEX
  5
6450
  8
0
 10
85.99999999999994
 20
229.9999999999999
 30
-20.5
 70
   192
  0
VERTEX
  5
6451
  8
0
 10
85.99999999999994
 20
229.9999999999999
 30
-17.5
 70
   192
  0
VERTEX
  5
6452
  8
0
 10
119.9999999999999
 20
229.9999999999998
 30
-17.5
 70
   192
  0
VERTEX
  5
6453
  8
0
 10
0.0
 20
0.0
 30
0.0
 70
   128
 71
     6
 72
     5
 73
    -4
  0
VERTEX
  5
6454
  8
0
 10
0.0
 20
0.0
 30
0.0
 70
   128
 71
    -6
 72
     4
 73
    -3
  0
VERTEX
  5
6455
  8
0
 10
0.0
 20
0.0
 30
0.0
 70
   128
 71
     3
 72
     2
 73
    -1
  0
VERTEX
  5
6456
  8
0
 10
0.0
 20
0.0
 30
0.0
 70
   128
 71
    -3
 72
     1
 73
    -6
  0
SEQEND
  5
6679
  8
0
  0
POLYLINE
  5
6457
  8
0
 66
     1
 10
0.0
 20
0.0
 30
0.0
 70
    64
 71
     8
 72
     6
  0
VERTEX
  5
6458
  8
0
 10
119.9999999999999
 20
251.9999999999998
 30
-13.5
 70
   192
  0
VERTEX
  5
6459
  8
0
 10
119.9999999999999
 20
229.9999999999998
 30
-13.5
 70
   192
  0
VERTEX
  5
645A
  8
0
 10
122.9999999999999
 20
229.9999999999998
 30
-13.5
 70
   192
  0
VERTEX
  5
645B
  8
0
 10
122.9999999999999
 20
194.9999999999998
 30
-13.5
 70
   192
  0
VERTEX
  5
645C
  8
0
 10
42.99999999999997
 20
194.9999999999998
 30
-13.5
 70
   192
  0
VERTEX
  5
645D
  8
0
 10
42.99999999999996
 20
229.9999999999998
 30
-13.5
 70
   192
  0
VERTEX
  5
645E
  8
0
 10
45.99999999999996
 20
229.9999999999998
 30
-13.5
 70
   192
  0
VERTEX
  5
645F
  8
0
 10
45.99999999999995
 20
251.9999999999998
 30
-13.5
 70
   192
  0
VERTEX
  5
6460
  8
0
 10
0.0
 20
0.0
 30
0.0
 70
   128
 71
     5
 72
     6
 73
    -7
  0
VERTEX
  5
6461
  8
0
 10
0.0
 20
0.0
 30
0.0
 70
   128
 71
     8
 72
     1
 73
    -2
  0
VERTEX
  5
6462
  8
0
 10
0.0
 20
0.0
 30
0.0
 70
   128
 71
     7
 72
    -8
 73
    -2
  0
VERTEX
  5
6463
  8
0
 10
0.0
 20
0.0
 30
0.0
 70
   128
 71
     4
 72
    -5
 73
    -7
  0
VERTEX
  5
6464
  8
0
 10
0.0
 20
0.0
 30
0.0
 70
   128
 71
    -2
 72
    -4
 73
    -7
  0
VERTEX
  5
6465
  8
0
 10
0.0
 20
0.0
 30
0.0
 70
   128
 71
     2
 72
     3
 73
    -4
  0
SEQEND
  5
667A
  8
0
  0
POLYLINE
  5
6466
  8
0
 66
     1
 10
0.0
 20
0.0
 30
0.0
 70
    64
 71
     6
 72
     4
  0
VERTEX
  5
6467
  8
0
 10
122.9999999999999
 20
254.9999999999998
 30
-10.5
 70
   192
  0
VERTEX
  5
6468
  8
0
 10
122.9999999999999
 20
254.9999999999998
 30
-20.5
 70
   192
  0
VERTEX
  5
6469
  8
0
 10
122.9999999999999
 20
229.9999999999998
 30
-20.5
 70
   192
  0
VERTEX
  5
646A
  8
0
 10
122.9999999999999
 20
229.9999999999998
 30
-13.5
 70
   192
  0
VERTEX
  5
646B
  8
0
 10
122.9999999999999
 20
194.9999999999998
 30
-13.5
 70
   192
  0
VERTEX
  5
646C
  8
0
 10
122.9999999999999
 20
194.9999999999998
 30
-10.5
 70
   192
  0
VERTEX
  5
646D
  8
0
 10
0.0
 20
0.0
 30
0.0
 70
   128
 71
     4
 72
     3
 73
    -2
  0
VERTEX
  5
646E
  8
0
 10
0.0
 20
0.0
 30
0.0
 70
   128
 71
    -4
 72
     2
 73
    -1
  0
VERTEX
  5
646F
  8
0
 10
0.0
 20
0.0
 30
0.0
 70
   128
 71
     1
 72
     6
 73
    -5
  0
VERTEX
  5
6470
  8
0
 10
0.0
 20
0.0
 30
0.0
 70
   128
 71
    -1
 72
     5
 73
    -4
  0
SEQEND
  5
667B
  8
0
  0
POLYLINE
  5
6471
  8
0
 66
     1
 10
0.0
 20
0.0
 30
0.0
 70
    64
 71
     4
 72
     2
  0
VERTEX
  5
6472
  8
0
 10
122.9999999999999
 20
194.9999999999998
 30
-10.5
 70
   192
  0
VERTEX
  5
6473
  8
0
 10
122.9999999999999
 20
194.9999999999998
 30
-13.5
 70
   192
  0
VERTEX
  5
6474
  8
0
 10
42.99999999999997
 20
194.9999999999998
 30
-13.5
 70
   192
  0
VERTEX
  5
6475
  8
0
 10
42.99999999999997
 20
194.9999999999998
 30
-10.5
 70
   192
  0
VERTEX
  5
6476
  8
0
 10
0.0
 20
0.0
 30
0.0
 70
   128
 71
     1
 72
     4
 73
    -3
  0
VERTEX
  5
6477
  8
0
 10
0.0
 20
0.0
 30
0.0
 70
   128
 71
    -1
 72
     3
 73
     2
  0
SEQEND
  5
667C
  8
0
  0
POLYLINE
  5
6478
  8
0
 66
     1
 10
0.0
 20
0.0
 30
0.0
 70
    64
 71
     6
 72
     4
  0
VERTEX
  5
6479
  8
0
 10
42.99999999999996
 20
229.9999999999998
 30
-20.5
 70
   192
  0
VERTEX
  5
647A
  8
0
 10
42.99999999999996
 20
229.9999999999998
 30
-13.5
 70
   192
  0
VERTEX
  5
647B
  8
0
 10
42.99999999999997
 20
194.9999999999998
 30
-13.5
 70
   192
  0
VERTEX
  5
647C
  8
0
 10
42.99999999999997
 20
194.9999999999998
 30
-10.5
 70
   192
  0
VERTEX
  5
647D
  8
0
 10
42.99999999999995
 20
254.9999999999998
 30
-10.5
 70
   192
  0
VERTEX
  5
647E
  8
0
 10
42.99999999999995
 20
254.9999999999998
 30
-20.5
 70
   192
  0
VERTEX
  5
647F
  8
0
 10
0.0
 20
0.0
 30
0.0
 70
   128
 71
     6
 72
     1
 73
    -2
  0
VERTEX
  5
6480
  8
0
 10
0.0
 20
0.0
 30
0.0
 70
   128
 71
     5
 72
    -6
 73
    -2
  0
VERTEX
  5
6481
  8
0
 10
0.0
 20
0.0
 30
0.0
 70
   128
 71
     3
 72
     4
 73
    -5
  0
VERTEX
  5
6482
  8
0
 10
0.0
 20
0.0
 30
0.0
 70
   128
 71
     2
 72
    -3
 73
    -5
  0
SEQEND
  5
667D
  8
0
  0
POLYLINE
  5
6483
  8
0
 66
     1
 10
0.0
 20
0.0
 30
0.0
 70
    64
 71
     4
 72
     2
  0
VERTEX
  5
6484
  8
0
 10
42.99999999999996
 20
254.9999999999998
 30
-10.5
 70
   192
  0
VERTEX
  5
6485
  8
0
 10
122.9999999999999
 20
254.9999999999998
 30
-10.5
 70
   192
  0
VERTEX
  5
6486
  8
0
 10
122.9999999999999
 20
254.9999999999998
 30
-20.5
 70
   192
  0
VERTEX
  5
6487
  8
0
 10
42.99999999999995
 20
254.9999999999998
 30
-20.5
 70
   192
  0
VERTEX
  5
6488
  8
0
 10
0.0
 20
0.0
 30
0.0
 70
   128
 71
     3
 72
     4
 73
    -1
  0
VERTEX
  5
6489
  8
0
 10
0.0
 20
0.0
 30
0.0
 70
   128
 71
     2
 72
    -3
 73
     1
  0
SEQEND
  5
667E
  8
0
  0
POLYLINE
  5
648A
  8
0
 66
     1
 10
0.0
 20
0.0
 30
0.0
 70
    64
 71
     4
 72
     2
  0
VERTEX
  5
648B
  8
0
 10
42.99999999999997
 20
194.9999999999998
 30
-10.5
 70
   192
  0
VERTEX
  5
648C
  8
0
 10
42.99999999999996
 20
254.9999999999998
 30
-10.5
 70
   192
  0
VERTEX
  5
648D
  8
0
 10
122.9999999999999
 20
254.9999999999998
 30
-10.5
 70
   192
  0
VERTEX
  5
648E
  8
0
 10
122.9999999999999
 20
194.9999999999998
 30
-10.5
 70
   192
  0
VERTEX
  5
648F
  8
0
 10
0.0
 20
0.0
 30
0.0
 70
   128
 71
     1
 72
     4
 73
    -3
  0
VERTEX
  5
6490
  8
0
 10
0.0
 20
0.0
 30
0.0
 70
   128
 71
    -1
 72
     3
 73
     2
  0
SEQEND
  5
667F
  8
0
  0
POLYLINE
  5
6491
  8
0
 66
     1
 10
0.0
 20
0.0
 30
0.0
 70
    64
 71
     4
 72
     2
  0
VERTEX
  5
6492
  8
0
 10
80.00000000000004
 20
249.9999999999999
 30
-20.5
 70
   192
  0
VERTEX
  5
6493
  8
0
 10
80.00000000000004
 20
229.9999999999999
 30
-20.5
 70
   192
  0
VERTEX
  5
6494
  8
0
 10
80.00000000000004
 20
229.9999999999998
 30
-17.5
 70
   192
  0
VERTEX
  5
6495
  8
0
 10
80.00000000000004
 20
249.9999999999999
 30
-17.5
 70
   192
  0
VERTEX
  5
6496
  8
0
 10
0.0
 20
0.0
 30
0.0
 70
   128
 71
     1
 72
     4
 73
    -3
  0
VERTEX
  5
6497
  8
0
 10
0.0
 20
0.0
 30
0.0
 70
   128
 71
    -1
 72
     3
 73
     2
  0
SEQEND
  5
6680
  8
0
  0
POLYLINE
  5
6498
  8
0
 66
     1
 10
0.0
 20
0.0
 30
0.0
 70
    64
 71
     6
 72
     4
  0
VERTEX
  5
6499
  8
0
 10
80.00000000000004
 20
229.9999999999999
 30
-17.5
 70
   192
  0
VERTEX
  5
649A
  8
0
 10
80.00000000000003
 20
229.9999999999999
 30
-20.5
 70
   192
  0
VERTEX
  5
649B
  8
0
 10
42.99999999999996
 20
229.9999999999998
 30
-20.5
 70
   192
  0
VERTEX
  5
649C
  8
0
 10
42.99999999999996
 20
229.9999999999998
 30
-13.5
 70
   192
  0
VERTEX
  5
649D
  8
0
 10
45.99999999999996
 20
229.9999999999998
 30
-13.5
 70
   192
  0
VERTEX
  5
649E
  8
0
 10
45.99999999999996
 20
229.9999999999998
 30
-17.5
 70
   192
  0
VERTEX
  5
649F
  8
0
 10
0.0
 20
0.0
 30
0.0
 70
   128
 71
     6
 72
     5
 73
    -4
  0
VERTEX
  5
64A0
  8
0
 10
0.0
 20
0.0
 30
0.0
 70
   128
 71
    -6
 72
     4
 73
    -3
  0
VERTEX
  5
64A1
  8
0
 10
0.0
 20
0.0
 30
0.0
 70
   128
 71
     3
 72
     2
 73
    -1
  0
VERTEX
  5
64A2
  8
0
 10
0.0
 20
0.0
 30
0.0
 70
   128
 71
    -3
 72
     1
 73
    -6
  0
SEQEND
  5
6681
  8
0
  0
POLYLINE
  5
64A3
  8
0
 66
     1
 10
0.0
 20
0.0
 30
0.0
 70
    64
 71
     4
 72
     2
  0
VERTEX
  5
64A4
  8
0
 10
85.99999999999994
 20
229.9999999999998
 30
-20.5
 70
   192
  0
VERTEX
  5
64A5
  8
0
 10
85.99999999999994
 20
249.9999999999999
 30
-20.5
 70
   192
  0
VERTEX
  5
64A6
  8
0
 10
85.99999999999994
 20
249.9999999999999
 30
-17.5
 70
   192
  0
VERTEX
  5
64A7
  8
0
 10
85.99999999999994
 20
229.9999999999999
 30
-17.5
 70
   192
  0
VERTEX
  5
64A8
  8
0
 10
0.0
 20
0.0
 30
0.0
 70
   128
 71
     1
 72
     4
 73
    -3
  0
VERTEX
  5
64A9
  8
0
 10
0.0
 20
0.0
 30
0.0
 70
   128
 71
    -1
 72
     3
 73
     2
  0
SEQEND
  5
6682
  8
0
  0
POLYLINE
  5
64AA
  8
0
 66
     1
 10
0.0
 20
0.0
 30
0.0
 70
    64
 71
     4
 72
     2
  0
VERTEX
  5
64AB
  8
0
 10
85.99999999999994
 20
249.9999999999999
 30
-20.5
 70
   192
  0
VERTEX
  5
64AC
  8
0
 10
80.00000000000004
 20
249.9999999999999
 30
-20.5
 70
   192
  0
VERTEX
  5
64AD
  8
0
 10
80.00000000000004
 20
249.9999999999999
 30
-17.5
 70
   192
  0
VERTEX
  5
64AE
  8
0
 10
85.99999999999994
 20
249.9999999999999
 30
-17.5
 70
   192
  0
VERTEX
  5
64AF
  8
0
 10
0.0
 20
0.0
 30
0.0
 70
   128
 71
     1
 72
     4
 73
    -3
  0
VERTEX
  5
64B0
  8
0
 10
0.0
 20
0.0
 30
0.0
 70
   128
 71
    -1
 72
     3
 73
     2
  0
SEQEND
  5
6683
  8
0
  0
POLYLINE
  5
64B1
  8
0
 66
     1
 10
0.0
 20
0.0
 30
0.0
 70
    64
 71
     8
 72
     6
  0
VERTEX
  5
64B2
  8
0
 10
80.00000000000004
 20
249.9999999999999
 30
-20.5
 70
   192
  0
VERTEX
  5
64B3
  8
0
 10
80.00000000000004
 20
229.9999999999998
 30
-20.5
 70
   192
  0
VERTEX
  5
64B4
  8
0
 10
42.99999999999996
 20
229.9999999999998
 30
-20.5
 70
   192
  0
VERTEX
  5
64B5
  8
0
 10
42.99999999999995
 20
254.9999999999998
 30
-20.5
 70
   192
  0
VERTEX
  5
64B6
  8
0
 10
122.9999999999999
 20
254.9999999999998
 30
-20.5
 70
   192
  0
VERTEX
  5
64B7
  8
0
 10
122.9999999999999
 20
229.9999999999998
 30
-20.5
 70
   192
  0
VERTEX
  5
64B8
  8
0
 10
85.99999999999994
 20
229.9999999999999
 30
-20.5
 70
   192
  0
VERTEX
  5
64B9
  8
0
 10
85.99999999999994
 20
249.9999999999999
 30
-20.5
 70
   192
  0
VERTEX
  5
64BA
  8
0
 10
0.0
 20
0.0
 30
0.0
 70
   128
 71
     6
 72
     7
 73
    -8
  0
VERTEX
  5
64BB
  8
0
 10
0.0
 20
0.0
 30
0.0
 70
   128
 71
     5
 72
    -6
 73
    -8
  0
VERTEX
  5
64BC
  8
0
 10
0.0
 20
0.0
 30
0.0
 70
   128
 71
    -1
 72
     4
 73
    -5
  0
VERTEX
  5
64BD
  8
0
 10
0.0
 20
0.0
 30
0.0
 70
   128
 71
     8
 72
    -1
 73
    -5
  0
VERTEX
  5
64BE
  8
0
 10
0.0
 20
0.0
 30
0.0
 70
   128
 71
     2
 72
     3
 73
    -4
  0
VERTEX
  5
64BF
  8
0
 10
0.0
 20
0.0
 30
0.0
 70
   128
 71
     1
 72
    -2
 73
    -4
  0
SEQEND
  5
6684
  8
0
  0
POLYLINE
  5
64C0
  8
0
 66
     1
 10
0.0
 20
0.0
 30
0.0
 70
    64
 71
     4
 72
     2
  0
VERTEX
  5
64C1
  8
0
 10
119.9999999999999
 20
229.9999999999998
 30
-13.5
 70
   192
  0
VERTEX
  5
64C2
  8
0
 10
119.9999999999999
 20
251.9999999999998
 30
-13.5
 70
   192
  0
VERTEX
  5
64C3
  8
0
 10
119.9999999999999
 20
251.9999999999998
 30
-17.5
 70
   192
  0
VERTEX
  5
64C4
  8
0
 10
119.9999999999999
 20
229.9999999999998
 30
-17.5
 70
   192
  0
VERTEX
  5
64C5
  8
0
 10
0.0
 20
0.0
 30
0.0
 70
   128
 71
     3
 72
     4
 73
    -1
  0
VERTEX
  5
64C6
  8
0
 10
0.0
 20
0.0
 30
0.0
 70
   128
 71
     2
 72
    -3
 73
     1
  0
SEQEND
  5
6685
  8
0
  0
POLYLINE
  5
64C7
  8
0
 66
     1
 10
0.0
 20
0.0
 30
0.0
 70
    64
 71
     4
 72
     2
  0
VERTEX
  5
64C8
  8
0
 10
45.99999999999996
 20
229.9999999999998
 30
-13.5
 70
   192
  0
VERTEX
  5
64C9
  8
0
 10
45.99999999999994
 20
251.9999999999998
 30
-13.5
 70
   192
  0
VERTEX
  5
64CA
  8
0
 10
45.99999999999995
 20
251.9999999999998
 30
-17.5
 70
   192
  0
VERTEX
  5
64CB
  8
0
 10
45.99999999999996
 20
229.9999999999998
 30
-17.5
 70
   192
  0
VERTEX
  5
64CC
  8
0
 10
0.0
 20
0.0
 30
0.0
 70
   128
 71
     1
 72
     4
 73
    -3
  0
VERTEX
  5
64CD
  8
0
 10
0.0
 20
0.0
 30
0.0
 70
   128
 71
    -1
 72
     3
 73
     2
  0
SEQEND
  5
6686
  8
0
  0
POLYLINE
  5
64CE
  8
0
 66
     1
 10
0.0
 20
0.0
 30
0.0
 70
    64
 71
     4
 72
     2
  0
VERTEX
  5
64CF
  8
0
 10
119.9999999999999
 20
251.9999999999998
 30
-13.5
 70
   192
  0
VERTEX
  5
64D0
  8
0
 10
119.9999999999999
 20
251.9999999999998
 30
-17.5
 70
   192
  0
VERTEX
  5
64D1
  8
0
 10
45.99999999999994
 20
251.9999999999998
 30
-17.5
 70
   192
  0
VERTEX
  5
64D2
  8
0
 10
45.99999999999996
 20
251.9999999999998
 30
-13.5
 70
   192
  0
VERTEX
  5
64D3
  8
0
 10
0.0
 20
0.0
 30
0.0
 70
   128
 71
     1
 72
     4
 73
    -3
  0
VERTEX
  5
64D4
  8
0
 10
0.0
 20
0.0
 30
0.0
 70
   128
 71
    -1
 72
     3
 73
     2
  0
SEQEND
  5
6687
  8
0
  0
POLYLINE
  5
64D5
  8
0
 66
     1
 10
0.0
 20
0.0
 30
0.0
 70
    64
 71
     8
 72
     6
  0
VERTEX
  5
64D6
  8
0
 10
80.00000000000003
 20
229.9999999999999
 30
-17.5
 70
   192
  0
VERTEX
  5
64D7
  8
0
 10
45.99999999999996
 20
229.9999999999998
 30
-17.5
 70
   192
  0
VERTEX
  5
64D8
  8
0
 10
45.99999999999996
 20
251.9999999999998
 30
-17.5
 70
   192
  0
VERTEX
  5
64D9
  8
0
 10
119.9999999999999
 20
251.9999999999998
 30
-17.5
 70
   192
  0
VERTEX
  5
64DA
  8
0
 10
119.9999999999999
 20
229.9999999999998
 30
-17.5
 70
   192
  0
VERTEX
  5
64DB
  8
0
 10
85.99999999999994
 20
229.9999999999998
 30
-17.5
 70
   192
  0
VERTEX
  5
64DC
  8
0
 10
85.99999999999994
 20
249.9999999999999
 30
-17.5
 70
   192
  0
VERTEX
  5
64DD
  8
0
 10
80.00000000000004
 20
249.9999999999999
 30
-17.5
 70
   192
  0
VERTEX
  5
64DE
  8
0
 10
0.0
 20
0.0
 30
0.0
 70
   128
 71
     7
 72
     6
 73
    -5
  0
VERTEX
  5
64DF
  8
0
 10
0.0
 20
0.0
 30
0.0
 70
   128
 71
    -7
 72
     5
 73
    -4
  0
VERTEX
  5
64E0
  8
0
 10
0.0
 20
0.0
 30
0.0
 70
   128
 71
    -4
 72
     8
 73
    -7
  0
VERTEX
  5
64E1
  8
0
 10
0.0
 20
0.0
 30
0.0
 70
   128
 71
     4
 72
    -3
 73
    -8
  0
VERTEX
  5
64E2
  8
0
 10
0.0
 20
0.0
 30
0.0
 70
   128
 71
     3
 72
     2
 73
    -1
  0
VERTEX
  5
64E3
  8
0
 10
0.0
 20
0.0
 30
0.0
 70
   128
 71
    -3
 72
     1
 73
    -8
  0
SEQEND
  5
6688
  8
0
  0
ENDBLK
  5
6678
  8
0
  0
BLOCK
  8
0
  2
*X3
 70
     1
 10
0.0
 20
0.0
 30
0.0
  3
*X3
  1

  0
POLYLINE
  5
64E5
  8
0
 66
     1
 10
0.0
 20
0.0
 30
0.0
 70
    64
 71
     6
 72
     4
  0
VERTEX
  5
64E6
  8
0
 10
-85.99999999999997
 20
229.9999999999999
 30
-17.5
 70
   192
  0
VERTEX
  5
64E7
  8
0
 10
-120.0
 20
229.9999999999999
 30
-17.5
 70
   192
  0
VERTEX
  5
64E8
  8
0
 10
-120.0
 20
229.9999999999999
 30
-13.5
 70
   192
  0
VERTEX
  5
64E9
  8
0
 10
-123.0
 20
229.9999999999999
 30
-13.5
 70
   192
  0
VERTEX
  5
64EA
  8
0
 10
-123.0
 20
229.9999999999999
 30
-20.5
 70
   192
  0
VERTEX
  5
64EB
  8
0
 10
-85.99999999999997
 20
229.9999999999999
 30
-20.5
 70
   192
  0
VERTEX
  5
64EC
  8
0
 10
0.0
 20
0.0
 30
0.0
 70
   128
 71
     6
 72
     1
 73
    -2
  0
VERTEX
  5
64ED
  8
0
 10
0.0
 20
0.0
 30
0.0
 70
   128
 71
     5
 72
    -6
 73
    -2
  0
VERTEX
  5
64EE
  8
0
 10
0.0
 20
0.0
 30
0.0
 70
   128
 71
     3
 72
     4
 73
    -5
  0
VERTEX
  5
64EF
  8
0
 10
0.0
 20
0.0
 30
0.0
 70
   128
 71
     2
 72
    -3
 73
    -5
  0
SEQEND
  5
668B
  8
0
  0
POLYLINE
  5
64F0
  8
0
 66
     1
 10
0.0
 20
0.0
 30
0.0
 70
    64
 71
     6
 72
     4
  0
VERTEX
  5
64F1
  8
0
 10
-43.0
 20
194.9999999999998
 30
-13.5
 70
   192
  0
VERTEX
  5
64F2
  8
0
 10
-43.0
 20
194.9999999999998
 30
-10.5
 70
   192
  0
VERTEX
  5
64F3
  8
0
 10
-42.99999999999999
 20
254.9999999999998
 30
-10.5
 70
   192
  0
VERTEX
  5
64F4
  8
0
 10
-42.99999999999999
 20
254.9999999999998
 30
-20.5
 70
   192
  0
VERTEX
  5
64F5
  8
0
 10
-42.99999999999999
 20
229.9999999999999
 30
-20.5
 70
   192
  0
VERTEX
  5
64F6
  8
0
 10
-42.99999999999999
 20
229.9999999999999
 30
-13.5
 70
   192
  0
VERTEX
  5
64F7
  8
0
 10
0.0
 20
0.0
 30
0.0
 70
   128
 71
     6
 72
     5
 73
    -4
  0
VERTEX
  5
64F8
  8
0
 10
0.0
 20
0.0
 30
0.0
 70
   128
 71
    -6
 72
     4
 73
    -3
  0
VERTEX
  5
64F9
  8
0
 10
0.0
 20
0.0
 30
0.0
 70
   128
 71
     3
 72
     2
 73
    -1
  0
VERTEX
  5
64FA
  8
0
 10
0.0
 20
0.0
 30
0.0
 70
   128
 71
    -3
 72
     1
 73
    -6
  0
SEQEND
  5
668C
  8
0
  0
POLYLINE
  5
64FB
  8
0
 66
     1
 10
0.0
 20
0.0
 30
0.0
 70
    64
 71
     4
 72
     2
  0
VERTEX
  5
64FC
  8
0
 10
-43.0
 20
194.9999999999998
 30
-10.5
 70
   192
  0
VERTEX
  5
64FD
  8
0
 10
-43.0
 20
194.9999999999998
 30
-13.5
 70
   192
  0
VERTEX
  5
64FE
  8
0
 10
-123.0
 20
194.9999999999997
 30
-13.5
 70
   192
  0
VERTEX
  5
64FF
  8
0
 10
-123.0
 20
194.9999999999997
 30
-10.5
 70
   192
  0
VERTEX
  5
6500
  8
0
 10
0.0
 20
0.0
 30
0.0
 70
   128
 71
     1
 72
     4
 73
    -3
  0
VERTEX
  5
6501
  8
0
 10
0.0
 20
0.0
 30
0.0
 70
   128
 71
    -1
 72
     3
 73
     2
  0
SEQEND
  5
668D
  8
0
  0
POLYLINE
  5
6502
  8
0
 66
     1
 10
0.0
 20
0.0
 30
0.0
 70
    64
 71
     6
 72
     4
  0
VERTEX
  5
6503
  8
0
 10
-123.0
 20
194.9999999999997
 30
-13.5
 70
   192
  0
VERTEX
  5
6504
  8
0
 10
-123.0
 20
194.9999999999997
 30
-10.5
 70
   192
  0
VERTEX
  5
6505
  8
0
 10
-123.0
 20
254.9999999999998
 30
-10.5
 70
   192
  0
VERTEX
  5
6506
  8
0
 10
-123.0
 20
254.9999999999998
 30
-20.5
 70
   192
  0
VERTEX
  5
6507
  8
0
 10
-123.0
 20
229.9999999999999
 30
-20.5
 70
   192
  0
VERTEX
  5
6508
  8
0
 10
-123.0
 20
229.9999999999999
 30
-13.5
 70
   192
  0
VERTEX
  5
6509
  8
0
 10
0.0
 20
0.0
 30
0.0
 70
   128
 71
     4
 72
     5
 73
    -6
  0
VERTEX
  5
650A
  8
0
 10
0.0
 20
0.0
 30
0.0
 70
   128
 71
     3
 72
    -4
 73
    -6
  0
VERTEX
  5
650B
  8
0
 10
0.0
 20
0.0
 30
0.0
 70
   128
 71
     1
 72
     2
 73
    -3
  0
VERTEX
  5
650C
  8
0
 10
0.0
 20
0.0
 30
0.0
 70
   128
 71
     6
 72
    -1
 73
    -3
  0
SEQEND
  5
668E
  8
0
  0
POLYLINE
  5
650D
  8
0
 66
     1
 10
0.0
 20
0.0
 30
0.0
 70
    64
 71
     4
 72
     2
  0
VERTEX
  5
650E
  8
0
 10
-123.0
 20
254.9999999999998
 30
-10.5
 70
   192
  0
VERTEX
  5
650F
  8
0
 10
-42.99999999999999
 20
254.9999999999998
 30
-10.5
 70
   192
  0
VERTEX
  5
6510
  8
0
 10
-42.99999999999999
 20
254.9999999999998
 30
-20.5
 70
   192
  0
VERTEX
  5
6511
  8
0
 10
-123.0
 20
254.9999999999998
 30
-20.5
 70
   192
  0
VERTEX
  5
6512
  8
0
 10
0.0
 20
0.0
 30
0.0
 70
   128
 71
     3
 72
     4
 73
    -1
  0
VERTEX
  5
6513
  8
0
 10
0.0
 20
0.0
 30
0.0
 70
   128
 71
     2
 72
    -3
 73
     1
  0
SEQEND
  5
668F
  8
0
  0
POLYLINE
  5
6514
  8
0
 66
     1
 10
0.0
 20
0.0
 30
0.0
 70
    64
 71
     8
 72
     6
  0
VERTEX
  5
6515
  8
0
 10
-123.0
 20
229.9999999999999
 30
-13.5
 70
   192
  0
VERTEX
  5
6516
  8
0
 10
-120.0
 20
229.9999999999999
 30
-13.5
 70
   192
  0
VERTEX
  5
6517
  8
0
 10
-120.0
 20
251.9999999999998
 30
-13.5
 70
   192
  0
VERTEX
  5
6518
  8
0
 10
-45.99999999999999
 20
251.9999999999998
 30
-13.5
 70
   192
  0
VERTEX
  5
6519
  8
0
 10
-45.99999999999999
 20
229.9999999999998
 30
-13.5
 70
   192
  0
VERTEX
  5
651A
  8
0
 10
-42.99999999999999
 20
229.9999999999998
 30
-13.5
 70
   192
  0
VERTEX
  5
651B
  8
0
 10
-43.0
 20
194.9999999999998
 30
-13.5
 70
   192
  0
VERTEX
  5
651C
  8
0
 10
-123.0
 20
194.9999999999997
 30
-13.5
 70
   192
  0
VERTEX
  5
651D
  8
0
 10
0.0
 20
0.0
 30
0.0
 70
   128
 71
    -5
 72
     1
 73
    -2
  0
VERTEX
  5
651E
  8
0
 10
0.0
 20
0.0
 30
0.0
 70
   128
 71
     3
 72
     4
 73
    -5
  0
VERTEX
  5
651F
  8
0
 10
0.0
 20
0.0
 30
0.0
 70
   128
 71
     2
 72
    -3
 73
    -5
  0
VERTEX
  5
6520
  8
0
 10
0.0
 20
0.0
 30
0.0
 70
   128
 71
     7
 72
     8
 73
    -1
  0
VERTEX
  5
6521
  8
0
 10
0.0
 20
0.0
 30
0.0
 70
   128
 71
    -5
 72
    -7
 73
    -1
  0
VERTEX
  5
6522
  8
0
 10
0.0
 20
0.0
 30
0.0
 70
   128
 71
     5
 72
     6
 73
    -7
  0
SEQEND
  5
6690
  8
0
  0
POLYLINE
  5
6523
  8
0
 66
     1
 10
0.0
 20
0.0
 30
0.0
 70
    64
 71
     4
 72
     2
  0
VERTEX
  5
6524
  8
0
 10
-123.0
 20
254.9999999999998
 30
-10.5
 70
   192
  0
VERTEX
  5
6525
  8
0
 10
-42.99999999999999
 20
254.9999999999998
 30
-10.5
 70
   192
  0
VERTEX
  5
6526
  8
0
 10
-43.0
 20
194.9999999999998
 30
-10.5
 70
   192
  0
VERTEX
  5
6527
  8
0
 10
-123.0
 20
194.9999999999997
 30
-10.5
 70
   192
  0
VERTEX
  5
6528
  8
0
 10
0.0
 20
0.0
 30
0.0
 70
   128
 71
     1
 72
     4
 73
    -3
  0
VERTEX
  5
6529
  8
0
 10
0.0
 20
0.0
 30
0.0
 70
   128
 71
    -1
 72
     3
 73
     2
  0
SEQEND
  5
6691
  8
0
  0
POLYLINE
  5
652A
  8
0
 66
     1
 10
0.0
 20
0.0
 30
0.0
 70
    64
 71
     6
 72
     4
  0
VERTEX
  5
652B
  8
0
 10
-45.99999999999999
 20
229.9999999999999
 30
-17.5
 70
   192
  0
VERTEX
  5
652C
  8
0
 10
-80.00000000000007
 20
229.9999999999999
 30
-17.5
 70
   192
  0
VERTEX
  5
652D
  8
0
 10
-80.00000000000007
 20
229.9999999999999
 30
-20.5
 70
   192
  0
VERTEX
  5
652E
  8
0
 10
-42.99999999999999
 20
229.9999999999998
 30
-20.5
 70
   192
  0
VERTEX
  5
652F
  8
0
 10
-42.99999999999999
 20
229.9999999999999
 30
-13.5
 70
   192
  0
VERTEX
  5
6530
  8
0
 10
-45.99999999999999
 20
229.9999999999999
 30
-13.5
 70
   192
  0
VERTEX
  5
6531
  8
0
 10
0.0
 20
0.0
 30
0.0
 70
   128
 71
     5
 72
     6
 73
    -1
  0
VERTEX
  5
6532
  8
0
 10
0.0
 20
0.0
 30
0.0
 70
   128
 71
     4
 72
    -5
 73
    -1
  0
VERTEX
  5
6533
  8
0
 10
0.0
 20
0.0
 30
0.0
 70
   128
 71
     2
 72
     3
 73
    -4
  0
VERTEX
  5
6534
  8
0
 10
0.0
 20
0.0
 30
0.0
 70
   128
 71
     1
 72
    -2
 73
    -4
  0
SEQEND
  5
6692
  8
0
  0
POLYLINE
  5
6535
  8
0
 66
     1
 10
0.0
 20
0.0
 30
0.0
 70
    64
 71
     4
 72
     2
  0
VERTEX
  5
6536
  8
0
 10
-80.00000000000007
 20
229.9999999999999
 30
-17.5
 70
   192
  0
VERTEX
  5
6537
  8
0
 10
-80.00000000000007
 20
249.9999999999999
 30
-17.5
 70
   192
  0
VERTEX
  5
6538
  8
0
 10
-80.00000000000007
 20
249.9999999999999
 30
-20.5
 70
   192
  0
VERTEX
  5
6539
  8
0
 10
-80.00000000000007
 20
229.9999999999999
 30
-20.5
 70
   192
  0
VERTEX
  5
653A
  8
0
 10
0.0
 20
0.0
 30
0.0
 70
   128
 71
     3
 72
     4
 73
    -1
  0
VERTEX
  5
653B
  8
0
 10
0.0
 20
0.0
 30
0.0
 70
   128
 71
     2
 72
    -3
 73
     1
  0
SEQEND
  5
6693
  8
0
  0
POLYLINE
  5
653C
  8
0
 66
     1
 10
0.0
 20
0.0
 30
0.0
 70
    64
 71
     4
 72
     2
  0
VERTEX
  5
653D
  8
0
 10
-80.00000000000007
 20
249.9999999999999
 30
-17.5
 70
   192
  0
VERTEX
  5
653E
  8
0
 10
-85.99999999999997
 20
249.9999999999999
 30
-17.5
 70
   192
  0
VERTEX
  5
653F
  8
0
 10
-85.99999999999997
 20
249.9999999999999
 30
-20.5
 70
   192
  0
VERTEX
  5
6540
  8
0
 10
-80.00000000000007
 20
249.9999999999999
 30
-20.5
 70
   192
  0
VERTEX
  5
6541
  8
0
 10
0.0
 20
0.0
 30
0.0
 70
   128
 71
     3
 72
     4
 73
    -1
  0
VERTEX
  5
6542
  8
0
 10
0.0
 20
0.0
 30
0.0
 70
   128
 71
     2
 72
    -3
 73
     1
  0
SEQEND
  5
6694
  8
0
  0
POLYLINE
  5
6543
  8
0
 66
     1
 10
0.0
 20
0.0
 30
0.0
 70
    64
 71
     4
 72
     2
  0
VERTEX
  5
6544
  8
0
 10
-85.99999999999997
 20
249.9999999999999
 30
-17.5
 70
   192
  0
VERTEX
  5
6545
  8
0
 10
-85.99999999999997
 20
229.9999999999999
 30
-17.5
 70
   192
  0
VERTEX
  5
6546
  8
0
 10
-85.99999999999997
 20
229.9999999999999
 30
-20.5
 70
   192
  0
VERTEX
  5
6547
  8
0
 10
-85.99999999999997
 20
249.9999999999999
 30
-20.5
 70
   192
  0
VERTEX
  5
6548
  8
0
 10
0.0
 20
0.0
 30
0.0
 70
   128
 71
     3
 72
     4
 73
    -1
  0
VERTEX
  5
6549
  8
0
 10
0.0
 20
0.0
 30
0.0
 70
   128
 71
     2
 72
    -3
 73
     1
  0
SEQEND
  5
6695
  8
0
  0
POLYLINE
  5
654A
  8
0
 66
     1
 10
0.0
 20
0.0
 30
0.0
 70
    64
 71
     8
 72
     6
  0
VERTEX
  5
654B
  8
0
 10
-85.99999999999997
 20
229.9999999999999
 30
-20.5
 70
   192
  0
VERTEX
  5
654C
  8
0
 10
-123.0
 20
229.9999999999999
 30
-20.5
 70
   192
  0
VERTEX
  5
654D
  8
0
 10
-123.0
 20
254.9999999999998
 30
-20.5
 70
   192
  0
VERTEX
  5
654E
  8
0
 10
-42.99999999999999
 20
254.9999999999998
 30
-20.5
 70
   192
  0
VERTEX
  5
654F
  8
0
 10
-42.99999999999999
 20
229.9999999999998
 30
-20.5
 70
   192
  0
VERTEX
  5
6550
  8
0
 10
-80.00000000000007
 20
229.9999999999999
 30
-20.5
 70
   192
  0
VERTEX
  5
6551
  8
0
 10
-80.00000000000007
 20
249.9999999999999
 30
-20.5
 70
   192
  0
VERTEX
  5
6552
  8
0
 10
-85.99999999999997
 20
249.9999999999999
 30
-20.5
 70
   192
  0
VERTEX
  5
6553
  8
0
 10
0.0
 20
0.0
 30
0.0
 70
   128
 71
     5
 72
     6
 73
    -7
  0
VERTEX
  5
6554
  8
0
 10
0.0
 20
0.0
 30
0.0
 70
   128
 71
     4
 72
    -5
 73
    -7
  0
VERTEX
  5
6555
  8
0
 10
0.0
 20
0.0
 30
0.0
 70
   128
 71
    -8
 72
     3
 73
    -4
  0
VERTEX
  5
6556
  8
0
 10
0.0
 20
0.0
 30
0.0
 70
   128
 71
     7
 72
    -8
 73
    -4
  0
VERTEX
  5
6557
  8
0
 10
0.0
 20
0.0
 30
0.0
 70
   128
 71
     1
 72
     2
 73
    -3
  0
VERTEX
  5
6558
  8
0
 10
0.0
 20
0.0
 30
0.0
 70
   128
 71
     8
 72
    -1
 73
    -3
  0
SEQEND
  5
6696
  8
0
  0
POLYLINE
  5
6559
  8
0
 66
     1
 10
0.0
 20
0.0
 30
0.0
 70
    64
 71
     4
 72
     2
  0
VERTEX
  5
655A
  8
0
 10
-45.99999999999999
 20
229.9999999999998
 30
-13.5
 70
   192
  0
VERTEX
  5
655B
  8
0
 10
-45.99999999999999
 20
251.9999999999998
 30
-13.5
 70
   192
  0
VERTEX
  5
655C
  8
0
 10
-45.99999999999999
 20
251.9999999999998
 30
-17.5
 70
   192
  0
VERTEX
  5
655D
  8
0
 10
-45.99999999999999
 20
229.9999999999998
 30
-17.5
 70
   192
  0
VERTEX
  5
655E
  8
0
 10
0.0
 20
0.0
 30
0.0
 70
   128
 71
     3
 72
     4
 73
    -1
  0
VERTEX
  5
655F
  8
0
 10
0.0
 20
0.0
 30
0.0
 70
   128
 71
     2
 72
    -3
 73
     1
  0
SEQEND
  5
6697
  8
0
  0
POLYLINE
  5
6560
  8
0
 66
     1
 10
0.0
 20
0.0
 30
0.0
 70
    64
 71
     4
 72
     2
  0
VERTEX
  5
6561
  8
0
 10
-120.0
 20
229.9999999999999
 30
-13.5
 70
   192
  0
VERTEX
  5
6562
  8
0
 10
-120.0
 20
251.9999999999998
 30
-13.5
 70
   192
  0
VERTEX
  5
6563
  8
0
 10
-120.0
 20
251.9999999999998
 30
-17.5
 70
   192
  0
VERTEX
  5
6564
  8
0
 10
-120.0
 20
229.9999999999999
 30
-17.5
 70
   192
  0
VERTEX
  5
6565
  8
0
 10
0.0
 20
0.0
 30
0.0
 70
   128
 71
     1
 72
     4
 73
    -3
  0
VERTEX
  5
6566
  8
0
 10
0.0
 20
0.0
 30
0.0
 70
   128
 71
    -1
 72
     3
 73
     2
  0
SEQEND
  5
6698
  8
0
  0
POLYLINE
  5
6567
  8
0
 66
     1
 10
0.0
 20
0.0
 30
0.0
 70
    64
 71
     4
 72
     2
  0
VERTEX
  5
6568
  8
0
 10
-45.99999999999999
 20
251.9999999999998
 30
-13.5
 70
   192
  0
VERTEX
  5
6569
  8
0
 10
-45.99999999999999
 20
251.9999999999998
 30
-17.5
 70
   192
  0
VERTEX
  5
656A
  8
0
 10
-120.0
 20
251.9999999999998
 30
-17.5
 70
   192
  0
VERTEX
  5
656B
  8
0
 10
-120.0
 20
251.9999999999998
 30
-13.5
 70
   192
  0
VERTEX
  5
656C
  8
0
 10
0.0
 20
0.0
 30
0.0
 70
   128
 71
     1
 72
     4
 73
    -3
  0
VERTEX
  5
656D
  8
0
 10
0.0
 20
0.0
 30
0.0
 70
   128
 71
    -1
 72
     3
 73
     2
  0
SEQEND
  5
6699
  8
0
  0
POLYLINE
  5
656E
  8
0
 66
     1
 10
0.0
 20
0.0
 30
0.0
 70
    64
 71
     8
 72
     6
  0
VERTEX
  5
656F
  8
0
 10
-120.0
 20
229.9999999999999
 30
-17.5
 70
   192
  0
VERTEX
  5
6570
  8
0
 10
-120.0
 20
251.9999999999998
 30
-17.5
 70
   192
  0
VERTEX
  5
6571
  8
0
 10
-45.99999999999999
 20
251.9999999999998
 30
-17.5
 70
   192
  0
VERTEX
  5
6572
  8
0
 10
-45.99999999999999
 20
229.9999999999999
 30
-17.5
 70
   192
  0
VERTEX
  5
6573
  8
0
 10
-80.00000000000007
 20
229.9999999999999
 30
-17.5
 70
   192
  0
VERTEX
  5
6574
  8
0
 10
-80.00000000000007
 20
249.9999999999999
 30
-17.5
 70
   192
  0
VERTEX
  5
6575
  8
0
 10
-85.99999999999997
 20
249.9999999999999
 30
-17.5
 70
   192
  0
VERTEX
  5
6576
  8
0
 10
-85.99999999999997
 20
229.9999999999999
 30
-17.5
 70
   192
  0
VERTEX
  5
6577
  8
0
 10
0.0
 20
0.0
 30
0.0
 70
   128
 71
     6
 72
     5
 73
    -4
  0
VERTEX
  5
6578
  8
0
 10
0.0
 20
0.0
 30
0.0
 70
   128
 71
    -6
 72
     4
 73
    -3
  0
VERTEX
  5
6579
  8
0
 10
0.0
 20
0.0
 30
0.0
 70
   128
 71
    -3
 72
     7
 73
    -6
  0
VERTEX
  5
657A
  8
0
 10
0.0
 20
0.0
 30
0.0
 70
   128
 71
     3
 72
    -2
 73
    -7
  0
VERTEX
  5
657B
  8
0
 10
0.0
 20
0.0
 30
0.0
 70
   128
 71
     2
 72
     1
 73
    -8
  0
VERTEX
  5
657C
  8
0
 10
0.0
 20
0.0
 30
0.0
 70
   128
 71
    -2
 72
     8
 73
    -7
  0
SEQEND
  5
669A
  8
0
  0
ENDBLK
  5
668A
  8
0
  0
BLOCK
  8
0
  2
*X4
 70
     1
 10
0.0
 20
0.0
 30
0.0
  3
*X4
  1

  0
POLYLINE
  5
657E
  8
0
 66
     1
 10
0.0
 20
0.0
 30
0.0
 70
    64
 71
    10
 72
     8
  0
VERTEX
  5
657F
  8
0
 10
125.0
 20
-58.50000000000006
 30
-15.5
 70
   192
  0
VERTEX
  5
6580
  8
0
 10
125.0
 20
-51.50000000000008
 30
-15.5
 70
   192
  0
VERTEX
  5
6581
  8
0
 10
120.0
 20
-51.50000000000007
 30
-15.5
 70
   192
  0
VERTEX
  5
6582
  8
0
 10
120.0
 20
-58.50000000000006
 30
-15.5
 70
   192
  0
VERTEX
  5
6583
  8
0
 10
120.0
 20
-55.00000000000007
 30
-12.0
 70
   192
  0
VERTEX
  5
6584
  8
0
 10
125.0
 20
-55.00000000000007
 30
-12.0
 70
   192
  0
VERTEX
  5
6585
  8
0
 10
120.0
 20
-57.47487373415299
 30
-13.02512626584708
 70
   192
  0
VERTEX
  5
6586
  8
0
 10
125.0
 20
-57.47487373415299
 30
-13.02512626584708
 70
   192
  0
VERTEX
  5
6587
  8
0
 10
120.0
 20
-52.52512626584716
 30
-13.02512626584709
 70
   192
  0
VERTEX
  5
6588
  8
0
 10
125.0
 20
-52.52512626584716
 30
-13.02512626584709
 70
   192
  0
VERTEX
  5
6589
  8
0
 10
0.0
 20
0.0
 30
0.0
 70
   128
 71
     7
 72
     4
 73
    -1
  0
VERTEX
  5
658A
  8
0
 10
0.0
 20
0.0
 30
0.0
 70
   128
 71
    -7
 72
     1
 73
     8
  0
VERTEX
  5
658B
  8
0
 10
0.0
 20
0.0
 30
0.0
 70
   128
 71
     6
 72
     5
 73
    -7
  0
VERTEX
  5
658C
  8
0
 10
0.0
 20
0.0
 30
0.0
 70
   128
 71
    -6
 72
     7
 73
     8
  0
VERTEX
  5
658D
  8
0
 10
0.0
 20
0.0
 30
0.0
 70
   128
 71
    10
 72
     9
 73
    -5
  0
VERTEX
  5
658E
  8
0
 10
0.0
 20
0.0
 30
0.0
 70
   128
 71
   -10
 72
     5
 73
     6
  0
VERTEX
  5
658F
  8
0
 10
0.0
 20
0.0
 30
0.0
 70
   128
 71
     2
 72
     3
 73
    -9
  0
VERTEX
  5
6590
  8
0
 10
0.0
 20
0.0
 30
0.0
 70
   128
 71
    -2
 72
     9
 73
    10
  0
SEQEND
  5
669D
  8
0
  0
POLYLINE
  5
6591
  8
0
 66
     1
 10
0.0
 20
0.0
 30
0.0
 70
    64
 71
     8
 72
     6
  0
VERTEX
  5
6592
  8
0
 10
115.0
 20
-203.6602540378444
 30
-10.5
 70
   192
  0
VERTEX
  5
6593
  8
0
 10
115.0
 20
-203.6602540378444
 30
-20.5
 70
   192
  0
VERTEX
  5
6594
  8
0
 10
118.6602540378444
 20
-200.0
 30
-20.5
 70
   192
  0
VERTEX
  5
6595
  8
0
 10
118.6602540378444
 20
-200.0
 30
-10.5
 70
   192
  0
VERTEX
  5
6596
  8
0
 10
110.0
 20
-205.0
 30
-10.5
 70
   192
  0
VERTEX
  5
6597
  8
0
 10
110.0
 20
-205.0
 30
-20.5
 70
   192
  0
VERTEX
  5
6598
  8
0
 10
120.0
 20
-195.0
 30
-20.5
 70
   192
  0
VERTEX
  5
6599
  8
0
 10
120.0
 20
-195.0
 30
-10.5
 70
   192
  0
VERTEX
  5
659A
  8
0
 10
0.0
 20
0.0
 30
0.0
 70
   128
 71
     1
 72
     2
 73
    -3
  0
VERTEX
  5
659B
  8
0
 10
0.0
 20
0.0
 30
0.0
 70
   128
 71
    -1
 72
     3
 73
     4
  0
VERTEX
  5
659C
  8
0
 10
0.0
 20
0.0
 30
0.0
 70
   128
 71
     5
 72
     6
 73
    -2
  0
VERTEX
  5
659D
  8
0
 10
0.0
 20
0.0
 30
0.0
 70
   128
 71
    -5
 72
     2
 73
     1
  0
VERTEX
  5
659E
  8
0
 10
0.0
 20
0.0
 30
0.0
 70
   128
 71
     4
 72
     3
 73
    -7
  0
VERTEX
  5
659F
  8
0
 10
0.0
 20
0.0
 30
0.0
 70
   128
 71
    -4
 72
     7
 73
     8
  0
SEQEND
  5
669E
  8
0
  0
POLYLINE
  5
65A0
  8
0
 66
     1
 10
0.0
 20
0.0
 30
0.0
 70
    64
 71
     4
 72
     2
  0
VERTEX
  5
65A1
  8
0
 10
110.0
 20
-205.0
 30
-10.5
 70
   192
  0
VERTEX
  5
65A2
  8
0
 10
110.0
 20
-205.0
 30
-20.5
 70
   192
  0
VERTEX
  5
65A3
  8
0
 10
-50.00000000000001
 20
-205.0
 30
-20.5
 70
   192
  0
VERTEX
  5
65A4
  8
0
 10
-50.00000000000003
 20
-205.0
 30
-10.5
 70
   192
  0
VERTEX
  5
65A5
  8
0
 10
0.0
 20
0.0
 30
0.0
 70
   128
 71
     1
 72
     4
 73
    -3
  0
VERTEX
  5
65A6
  8
0
 10
0.0
 20
0.0
 30
0.0
 70
   128
 71
    -1
 72
     3
 73
     2
  0
SEQEND
  5
669F
  8
0
  0
POLYLINE
  5
65A7
  8
0
 66
     1
 10
0.0
 20
0.0
 30
0.0
 70
    64
 71
     8
 72
     6
  0
VERTEX
  5
65A8
  8
0
 10
-58.6602540378444
 20
-200.0
 30
-10.5
 70
   192
  0
VERTEX
  5
65A9
  8
0
 10
-58.6602540378444
 20
-200.0
 30
-20.5
 70
   192
  0
VERTEX
  5
65AA
  8
0
 10
-55.00000000000001
 20
-203.6602540378444
 30
-20.5
 70
   192
  0
VERTEX
  5
65AB
  8
0
 10
-55.00000000000001
 20
-203.6602540378444
 30
-10.5
 70
   192
  0
VERTEX
  5
65AC
  8
0
 10
-60.00000000000001
 20
-195.0
 30
-10.5
 70
   192
  0
VERTEX
  5
65AD
  8
0
 10
-60.00000000000001
 20
-195.0
 30
-20.5
 70
   192
  0
VERTEX
  5
65AE
  8
0
 10
-50.00000000000001
 20
-205.0
 30
-20.5
 70
   192
  0
VERTEX
  5
65AF
  8
0
 10
-50.00000000000001
 20
-205.0
 30
-10.5
 70
   192
  0
VERTEX
  5
65B0
  8
0
 10
0.0
 20
0.0
 30
0.0
 70
   128
 71
     1
 72
     2
 73
    -3
  0
VERTEX
  5
65B1
  8
0
 10
0.0
 20
0.0
 30
0.0
 70
   128
 71
    -1
 72
     3
 73
     4
  0
VERTEX
  5
65B2
  8
0
 10
0.0
 20
0.0
 30
0.0
 70
   128
 71
     5
 72
     6
 73
    -2
  0
VERTEX
  5
65B3
  8
0
 10
0.0
 20
0.0
 30
0.0
 70
   128
 71
    -5
 72
     2
 73
     1
  0
VERTEX
  5
65B4
  8
0
 10
0.0
 20
0.0
 30
0.0
 70
   128
 71
     4
 72
     3
 73
    -7
  0
VERTEX
  5
65B5
  8
0
 10
0.0
 20
0.0
 30
0.0
 70
   128
 71
    -4
 72
     7
 73
     8
  0
SEQEND
  5
66A0
  8
0
  0
POLYLINE
  5
65B6
  8
0
 66
     1
 10
0.0
 20
0.0
 30
0.0
 70
    64
 71
     4
 72
     2
  0
VERTEX
  5
65B7
  8
0
 10
-60.00000000000001
 20
-195.0
 30
-10.5
 70
   192
  0
VERTEX
  5
65B8
  8
0
 10
-60.00000000000001
 20
-195.0
 30
-20.5
 70
   192
  0
VERTEX
  5
65B9
  8
0
 10
-60.0
 20
-15.0
 30
-20.5
 70
   192
  0
VERTEX
  5
65BA
  8
0
 10
-60.0
 20
-15.0
 30
-10.5
 70
   192
  0
VERTEX
  5
65BB
  8
0
 10
0.0
 20
0.0
 30
0.0
 70
   128
 71
     1
 72
     4
 73
    -3
  0
VERTEX
  5
65BC
  8
0
 10
0.0
 20
0.0
 30
0.0
 70
   128
 71
    -1
 72
     3
 73
     2
  0
SEQEND
  5
66A1
  8
0
  0
POLYLINE
  5
65BD
  8
0
 66
     1
 10
0.0
 20
0.0
 30
0.0
 70
    64
 71
     8
 72
     6
  0
VERTEX
  5
65BE
  8
0
 10
-55.0
 20
-6.339745962155613
 30
-10.5
 70
   192
  0
VERTEX
  5
65BF
  8
0
 10
-55.0
 20
-6.339745962155613
 30
-20.5
 70
   192
  0
VERTEX
  5
65C0
  8
0
 10
-58.66025403784438
 20
-10.0
 30
-20.5
 70
   192
  0
VERTEX
  5
65C1
  8
0
 10
-58.66025403784438
 20
-10.0
 30
-10.5
 70
   192
  0
VERTEX
  5
65C2
  8
0
 10
-49.99999999999999
 20
-4.999999999999998
 30
-10.5
 70
   192
  0
VERTEX
  5
65C3
  8
0
 10
-50.0
 20
-4.999999999999999
 30
-20.5
 70
   192
  0
VERTEX
  5
65C4
  8
0
 10
-59.99999999999999
 20
-15.00000000000001
 30
-20.5
 70
   192
  0
VERTEX
  5
65C5
  8
0
 10
-60.0
 20
-15.0
 30
-10.5
 70
   192
  0
VERTEX
  5
65C6
  8
0
 10
0.0
 20
0.0
 30
0.0
 70
   128
 71
     1
 72
     2
 73
    -3
  0
VERTEX
  5
65C7
  8
0
 10
0.0
 20
0.0
 30
0.0
 70
   128
 71
    -1
 72
     3
 73
     4
  0
VERTEX
  5
65C8
  8
0
 10
0.0
 20
0.0
 30
0.0
 70
   128
 71
     5
 72
     6
 73
    -2
  0
VERTEX
  5
65C9
  8
0
 10
0.0
 20
0.0
 30
0.0
 70
   128
 71
    -5
 72
     2
 73
     1
  0
VERTEX
  5
65CA
  8
0
 10
0.0
 20
0.0
 30
0.0
 70
   128
 71
     4
 72
     3
 73
    -7
  0
VERTEX
  5
65CB
  8
0
 10
0.0
 20
0.0
 30
0.0
 70
   128
 71
    -4
 72
     7
 73
     8
  0
SEQEND
  5
66A2
  8
0
  0
POLYLINE
  5
65CC
  8
0
 66
     1
 10
0.0
 20
0.0
 30
0.0
 70
    64
 71
     4
 72
     2
  0
VERTEX
  5
65CD
  8
0
 10
-50.0
 20
-4.999999999999999
 30
-10.5
 70
   192
  0
VERTEX
  5
65CE
  8
0
 10
-50.0
 20
-4.999999999999999
 30
-20.5
 70
   192
  0
VERTEX
  5
65CF
  8
0
 10
110.0
 20
-5.000000000000003
 30
-20.5
 70
   192
  0
VERTEX
  5
65D0
  8
0
 10
110.0
 20
-5.000000000000001
 30
-10.5
 70
   192
  0
VERTEX
  5
65D1
  8
0
 10
0.0
 20
0.0
 30
0.0
 70
   128
 71
     1
 72
     4
 73
    -3
  0
VERTEX
  5
65D2
  8
0
 10
0.0
 20
0.0
 30
0.0
 70
   128
 71
    -1
 72
     3
 73
     2
  0
SEQEND
  5
66A3
  8
0
  0
POLYLINE
  5
65D3
  8
0
 66
     1
 10
0.0
 20
0.0
 30
0.0
 70
    64
 71
     8
 72
     6
  0
VERTEX
  5
65D4
  8
0
 10
118.6602540378444
 20
-10.0
 30
-10.5
 70
   192
  0
VERTEX
  5
65D5
  8
0
 10
118.6602540378444
 20
-10.0
 30
-20.5
 70
   192
  0
VERTEX
  5
65D6
  8
0
 10
115.0
 20
-6.33974596215562
 30
-20.5
 70
   192
  0
VERTEX
  5
65D7
  8
0
 10
115.0
 20
-6.33974596215562
 30
-10.5
 70
   192
  0
VERTEX
  5
65D8
  8
0
 10
120.0
 20
-15.0
 30
-10.5
 70
   192
  0
VERTEX
  5
65D9
  8
0
 10
120.0
 20
-15.0
 30
-20.5
 70
   192
  0
VERTEX
  5
65DA
  8
0
 10
110.0
 20
-5.000000000000007
 30
-20.5
 70
   192
  0
VERTEX
  5
65DB
  8
0
 10
110.0
 20
-5.000000000000003
 30
-10.5
 70
   192
  0
VERTEX
  5
65DC
  8
0
 10
0.0
 20
0.0
 30
0.0
 70
   128
 71
     1
 72
     2
 73
    -3
  0
VERTEX
  5
65DD
  8
0
 10
0.0
 20
0.0
 30
0.0
 70
   128
 71
    -1
 72
     3
 73
     4
  0
VERTEX
  5
65DE
  8
0
 10
0.0
 20
0.0
 30
0.0
 70
   128
 71
     5
 72
     6
 73
    -2
  0
VERTEX
  5
65DF
  8
0
 10
0.0
 20
0.0
 30
0.0
 70
   128
 71
    -5
 72
     2
 73
     1
  0
VERTEX
  5
65E0
  8
0
 10
0.0
 20
0.0
 30
0.0
 70
   128
 71
     4
 72
     3
 73
    -7
  0
VERTEX
  5
65E1
  8
0
 10
0.0
 20
0.0
 30
0.0
 70
   128
 71
    -4
 72
     7
 73
     8
  0
SEQEND
  5
66A4
  8
0
  0
POLYLINE
  5
65E2
  8
0
 66
     1
 10
0.0
 20
0.0
 30
0.0
 70
    64
 71
    12
 72
    12
  0
VERTEX
  5
65E3
  8
0
 10
120.0
 20
-15.0
 30
-10.5
 70
   192
  0
VERTEX
  5
65E4
  8
0
 10
120.0
 20
-15.0
 30
-20.5
 70
   192
  0
VERTEX
  5
65E5
  8
0
 10
120.0
 20
-195.0
 30
-20.5
 70
   192
  0
VERTEX
  5
65E6
  8
0
 10
120.0
 20
-195.0
 30
-10.5
 70
   192
  0
VERTEX
  5
65E7
  8
0
 10
120.0
 20
-51.50000000000008
 30
-15.5
 70
   192
  0
VERTEX
  5
65E8
  8
0
 10
120.0
 20
-52.52512626584716
 30
-13.02512626584709
 70
   192
  0
VERTEX
  5
65E9
  8
0
 10
120.0
 20
-55.00000000000007
 30
-12.0
 70
   192
  0
VERTEX
  5
65EA
  8
0
 10
120.0
 20
-57.47487373415299
 30
-13.02512626584708
 70
   192
  0
VERTEX
  5
65EB
  8
0
 10
120.0
 20
-58.50000000000006
 30
-15.5
 70
   192
  0
VERTEX
  5
65EC
  8
0
 10
120.0
 20
-57.47487373415299
 30
-17.97487373415292
 70
   192
  0
VERTEX
  5
65ED
  8
0
 10
120.0
 20
-55.00000000000007
 30
-19.0
 70
   192
  0
VERTEX
  5
65EE
  8
0
 10
120.0
 20
-52.52512626584716
 30
-17.97487373415292
 70
   192
  0
VERTEX
  5
65EF
  8
0
 10
0.0
 20
0.0
 30
0.0
 70
   128
 71
     6
 72
    -5
 73
    -1
  0
VERTEX
  5
65F0
  8
0
 10
0.0
 20
0.0
 30
0.0
 70
   128
 71
    -1
 72
     7
 73
    -6
  0
VERTEX
  5
65F1
  8
0
 10
0.0
 20
0.0
 30
0.0
 70
   128
 71
    -7
 72
     1
 73
    -4
  0
VERTEX
  5
65F2
  8
0
 10
0.0
 20
0.0
 30
0.0
 70
   128
 71
    -4
 72
     8
 73
    -7
  0
VERTEX
  5
65F3
  8
0
 10
0.0
 20
0.0
 30
0.0
 70
   128
 71
     4
 72
    -3
 73
    -9
  0
VERTEX
  5
65F4
  8
0
 10
0.0
 20
0.0
 30
0.0
 70
   128
 71
    -4
 72
     9
 73
    -8
  0
VERTEX
  5
65F5
  8
0
 10
0.0
 20
0.0
 30
0.0
 70
   128
 71
    -3
 72
    10
 73
    -9
  0
VERTEX
  5
65F6
  8
0
 10
0.0
 20
0.0
 30
0.0
 70
   128
 71
    -3
 72
    11
 73
   -10
  0
VERTEX
  5
65F7
  8
0
 10
0.0
 20
0.0
 30
0.0
 70
   128
 71
     3
 72
    -2
 73
   -11
  0
VERTEX
  5
65F8
  8
0
 10
0.0
 20
0.0
 30
0.0
 70
   128
 71
    -2
 72
    12
 73
   -11
  0
VERTEX
  5
65F9
  8
0
 10
0.0
 20
0.0
 30
0.0
 70
   128
 71
     2
 72
    -1
 73
    -5
  0
VERTEX
  5
65FA
  8
0
 10
0.0
 20
0.0
 30
0.0
 70
   128
 71
    -2
 72
     5
 73
   -12
  0
SEQEND
  5
66A5
  8
0
  0
POLYLINE
  5
65FB
  8
0
 66
     1
 10
0.0
 20
0.0
 30
0.0
 70
    64
 71
    16
 72
    14
  0
VERTEX
  5
65FC
  8
0
 10
120.0
 20
-195.0
 30
-20.5
 70
   192
  0
VERTEX
  5
65FD
  8
0
 10
118.6602540378444
 20
-200.0
 30
-20.5
 70
   192
  0
VERTEX
  5
65FE
  8
0
 10
115.0
 20
-203.6602540378444
 30
-20.5
 70
   192
  0
VERTEX
  5
65FF
  8
0
 10
110.0
 20
-205.0
 30
-20.5
 70
   192
  0
VERTEX
  5
6600
  8
0
 10
-50.00000000000003
 20
-205.0
 30
-20.5
 70
   192
  0
VERTEX
  5
6601
  8
0
 10
-55.00000000000001
 20
-203.6602540378444
 30
-20.5
 70
   192
  0
VERTEX
  5
6602
  8
0
 10
-58.6602540378444
 20
-200.0
 30
-20.5
 70
   192
  0
VERTEX
  5
6603
  8
0
 10
-60.00000000000001
 20
-195.0
 30
-20.5
 70
   192
  0
VERTEX
  5
6604
  8
0
 10
-60.0
 20
-15.0
 30
-20.5
 70
   192
  0
VERTEX
  5
6605
  8
0
 10
-58.66025403784438
 20
-10.0
 30
-20.5
 70
   192
  0
VERTEX
  5
6606
  8
0
 10
-55.0
 20
-6.339745962155613
 30
-20.5
 70
   192
  0
VERTEX
  5
6607
  8
0
 10
-49.99999999999999
 20
-4.999999999999998
 30
-20.5
 70
   192
  0
VERTEX
  5
6608
  8
0
 10
110.0
 20
-5.000000000000001
 30
-20.5
 70
   192
  0
VERTEX
  5
6609
  8
0
 10
115.0
 20
-6.33974596215562
 30
-20.5
 70
   192
  0
VERTEX
  5
660A
  8
0
 10
118.6602540378444
 20
-10.0
 30
-20.5
 70
   192
  0
VERTEX
  5
660B
  8
0
 10
120.0
 20
-15.0
 30
-20.5
 70
   192
  0
VERTEX
  5
660C
  8
0
 10
0.0
 20
0.0
 30
0.0
 70
   128
 71
    15
 72
    16
 73
    -1
  0
VERTEX
  5
660D
  8
0
 10
0.0
 20
0.0
 30
0.0
 70
   128
 71
    14
 72
   -15
 73
    -1
  0
VERTEX
  5
660E
  8
0
 10
0.0
 20
0.0
 30
0.0
 70
   128
 71
    13
 72
   -14
 73
    -1
  0
VERTEX
  5
660F
  8
0
 10
0.0
 20
0.0
 30
0.0
 70
   128
 71
    12
 72
   -13
 73
    -1
  0
VERTEX
  5
6610
  8
0
 10
0.0
 20
0.0
 30
0.0
 70
   128
 71
    11
 72
   -12
 73
    -1
  0
VERTEX
  5
6611
  8
0
 10
0.0
 20
0.0
 30
0.0
 70
   128
 71
    10
 72
   -11
 73
    -1
  0
VERTEX
  5
6612
  8
0
 10
0.0
 20
0.0
 30
0.0
 70
   128
 71
     9
 72
   -10
 73
    -1
  0
VERTEX
  5
6613
  8
0
 10
0.0
 20
0.0
 30
0.0
 70
   128
 71
     8
 72
    -9
 73
    -1
  0
VERTEX
  5
6614
  8
0
 10
0.0
 20
0.0
 30
0.0
 70
   128
 71
     7
 72
    -8
 73
    -1
  0
VERTEX
  5
6615
  8
0
 10
0.0
 20
0.0
 30
0.0
 70
   128
 71
     6
 72
    -7
 73
    -1
  0
VERTEX
  5
6616
  8
0
 10
0.0
 20
0.0
 30
0.0
 70
   128
 71
     5
 72
    -6
 73
    -1
  0
VERTEX
  5
6617
  8
0
 10
0.0
 20
0.0
 30
0.0
 70
   128
 71
     4
 72
    -5
 73
    -1
  0
VERTEX
  5
6618
  8
0
 10
0.0
 20
0.0
 30
0.0
 70
   128
 71
     3
 72
    -4
 73
    -1
  0
VERTEX
  5
6619
  8
0
 10
0.0
 20
0.0
 30
0.0
 70
   128
 71
     2
 72
    -3
 73
     1
  0
SEQEND
  5
66A6
  8
0
  0
POLYLINE
  5
661A
  8
0
 66
     1
 10
0.0
 20
0.0
 30
0.0
 70
    64
 71
    16
 72
    14
  0
VERTEX
  5
661B
  8
0
 10
110.0
 20
-205.0
 30
-10.5
 70
   192
  0
VERTEX
  5
661C
  8
0
 10
-50.00000000000001
 20
-205.0
 30
-10.5
 70
   192
  0
VERTEX
  5
661D
  8
0
 10
-55.00000000000001
 20
-203.6602540378444
 30
-10.5
 70
   192
  0
VERTEX
  5
661E
  8
0
 10
-58.6602540378444
 20
-200.0
 30
-10.5
 70
   192
  0
VERTEX
  5
661F
  8
0
 10
-60.00000000000001
 20
-195.0
 30
-10.5
 70
   192
  0
VERTEX
  5
6620
  8
0
 10
-59.99999999999999
 20
-15.00000000000001
 30
-10.5
 70
   192
  0
VERTEX
  5
6621
  8
0
 10
-58.66025403784438
 20
-10.0
 30
-10.5
 70
   192
  0
VERTEX
  5
6622
  8
0
 10
-55.0
 20
-6.339745962155613
 30
-10.5
 70
   192
  0
VERTEX
  5
6623
  8
0
 10
-50.0
 20
-4.999999999999999
 30
-10.5
 70
   192
  0
VERTEX
  5
6624
  8
0
 10
110.0
 20
-5.000000000000007
 30
-10.5
 70
   192
  0
VERTEX
  5
6625
  8
0
 10
115.0
 20
-6.33974596215562
 30
-10.5
 70
   192
  0
VERTEX
  5
6626
  8
0
 10
118.6602540378444
 20
-10.0
 30
-10.5
 70
   192
  0
VERTEX
  5
6627
  8
0
 10
120.0
 20
-15.0
 30
-10.5
 70
   192
  0
VERTEX
  5
6628
  8
0
 10
120.0
 20
-195.0
 30
-10.5
 70
   192
  0
VERTEX
  5
6629
  8
0
 10
118.6602540378444
 20
-200.0
 30
-10.5
 70
   192
  0
VERTEX
  5
662A
  8
0
 10
115.0
 20
-203.6602540378444
 30
-10.5
 70
   192
  0
VERTEX
  5
662B
  8
0
 10
0.0
 20
0.0
 30
0.0
 70
   128
 71
     1
 72
    16
 73
   -15
  0
VERTEX
  5
662C
  8
0
 10
0.0
 20
0.0
 30
0.0
 70
   128
 71
    -1
 72
    15
 73
   -14
  0
VERTEX
  5
662D
  8
0
 10
0.0
 20
0.0
 30
0.0
 70
   128
 71
    -1
 72
    14
 73
   -13
  0
VERTEX
  5
662E
  8
0
 10
0.0
 20
0.0
 30
0.0
 70
   128
 71
    -1
 72
    13
 73
   -12
  0
VERTEX
  5
662F
  8
0
 10
0.0
 20
0.0
 30
0.0
 70
   128
 71
    -1
 72
    12
 73
   -11
  0
VERTEX
  5
6630
  8
0
 10
0.0
 20
0.0
 30
0.0
 70
   128
 71
    -1
 72
    11
 73
   -10
  0
VERTEX
  5
6631
  8
0
 10
0.0
 20
0.0
 30
0.0
 70
   128
 71
    -1
 72
    10
 73
    -9
  0
VERTEX
  5
6632
  8
0
 10
0.0
 20
0.0
 30
0.0
 70
   128
 71
    -1
 72
     9
 73
    -8
  0
VERTEX
  5
6633
  8
0
 10
0.0
 20
0.0
 30
0.0
 70
   128
 71
    -1
 72
     8
 73
    -7
  0
VERTEX
  5
6634
  8
0
 10
0.0
 20
0.0
 30
0.0
 70
   128
 71
    -1
 72
     7
 73
    -6
  0
VERTEX
  5
6635
  8
0
 10
0.0
 20
0.0
 30
0.0
 70
   128
 71
    -1
 72
     6
 73
    -5
  0
VERTEX
  5
6636
  8
0
 10
0.0
 20
0.0
 30
0.0
 70
   128
 71
    -1
 72
     5
 73
    -4
  0
VERTEX
  5
6637
  8
0
 10
0.0
 20
0.0
 30
0.0
 70
   128
 71
    -1
 72
     4
 73
    -3
  0
VERTEX
  5
6638
  8
0
 10
0.0
 20
0.0
 30
0.0
 70
   128
 71
    -1
 72
     3
 73
     2
  0
SEQEND
  5
66A7
  8
0
  0
POLYLINE
  5
6639
  8
0
 66
     1
 10
0.0
 20
0.0
 30
0.0
 70
    64
 71
    10
 72
     8
  0
VERTEX
  5
663A
  8
0
 10
125.0
 20
-51.50000000000007
 30
-15.5
 70
   192
  0
VERTEX
  5
663B
  8
0
 10
125.0
 20
-58.50000000000006
 30
-15.5
 70
   192
  0
VERTEX
  5
663C
  8
0
 10
120.0
 20
-58.50000000000006
 30
-15.5
 70
   192
  0
VERTEX
  5
663D
  8
0
 10
120.0
 20
-51.50000000000007
 30
-15.5
 70
   192
  0
VERTEX
  5
663E
  8
0
 10
120.0
 20
-55.00000000000007
 30
-19.0
 70
   192
  0
VERTEX
  5
663F
  8
0
 10
125.0
 20
-55.00000000000007
 30
-19.0
 70
   192
  0
VERTEX
  5
6640
  8
0
 10
120.0
 20
-52.52512626584716
 30
-17.97487373415292
 70
   192
  0
VERTEX
  5
6641
  8
0
 10
125.0
 20
-52.52512626584716
 30
-17.97487373415292
 70
   192
  0
VERTEX
  5
6642
  8
0
 10
120.0
 20
-57.47487373415299
 30
-17.97487373415292
 70
   192
  0
VERTEX
  5
6643
  8
0
 10
125.0
 20
-57.47487373415299
 30
-17.97487373415292
 70
   192
  0
VERTEX
  5
6644
  8
0
 10
0.0
 20
0.0
 30
0.0
 70
   128
 71
     8
 72
     7
 73
    -4
  0
VERTEX
  5
6645
  8
0
 10
0.0
 20
0.0
 30
0.0
 70
   128
 71
    -8
 72
     4
 73
     1
  0
VERTEX
  5
6646
  8
0
 10
0.0
 20
0.0
 30
0.0
 70
   128
 71
     6
 72
     5
 73
    -7
  0
VERTEX
  5
6647
  8
0
 10
0.0
 20
0.0
 30
0.0
 70
   128
 71
    -6
 72
     7
 73
     8
  0
VERTEX
  5
6648
  8
0
 10
0.0
 20
0.0
 30
0.0
 70
   128
 71
    10
 72
     9
 73
    -5
  0
VERTEX
  5
6649
  8
0
 10
0.0
 20
0.0
 30
0.0
 70
   128
 71
   -10
 72
     5
 73
     6
  0
VERTEX
  5
664A
  8
0
 10
0.0
 20
0.0
 30
0.0
 70
   128
 71
     2
 72
     3
 73
    -9
  0
VERTEX
  5
664B
  8
0
 10
0.0
 20
0.0
 30
0.0
 70
   128
 71
    -2
 72
     9
 73
    10
  0
SEQEND
  5
66A8
  8
0
  0
POLYLINE
  5
664C
  8
0
 66
     1
 10
0.0
 20
0.0
 30
0.0
 70
    64
 71
     8
 72
     6
  0
VERTEX
  5
664D
  8
0
 10
125.0
 20
-58.50000000000006
 30
-15.5
 70
   192
  0
VERTEX
  5
664E
  8
0
 10
125.0
 20
-57.47487373415299
 30
-17.97487373415292
 70
   192
  0
VERTEX
  5
664F
  8
0
 10
125.0
 20
-55.00000000000007
 30
-19.0
 70
   192
  0
VERTEX
  5
6650
  8
0
 10
125.0
 20
-52.52512626584716
 30
-17.97487373415292
 70
   192
  0
VERTEX
  5
6651
  8
0
 10
125.0
 20
-51.50000000000008
 30
-15.5
 70
   192
  0
VERTEX
  5
6652
  8
0
 10
125.0
 20
-52.52512626584716
 30
-13.02512626584709
 70
   192
  0
VERTEX
  5
6653
  8
0
 10
125.0
 20
-55.00000000000007
 30
-12.0
 70
   192
  0
VERTEX
  5
6654
  8
0
 10
125.0
 20
-57.47487373415299
 30
-13.02512626584708
 70
   192
  0
VERTEX
  5
6655
  8
0
 10
0.0
 20
0.0
 30
0.0
 70
   128
 71
     7
 72
     8
 73
    -1
  0
VERTEX
  5
6656
  8
0
 10
0.0
 20
0.0
 30
0.0
 70
   128
 71
     6
 72
    -7
 73
    -1
  0
VERTEX
  5
6657
  8
0
 10
0.0
 20
0.0
 30
0.0
 70
   128
 71
     5
 72
    -6
 73
    -1
  0
VERTEX
  5
6658
  8
0
 10
0.0
 20
0.0
 30
0.0
 70
   128
 71
     4
 72
    -5
 73
    -1
  0
VERTEX
  5
6659
  8
0
 10
0.0
 20
0.0
 30
0.0
 70
   128
 71
     3
 72
    -4
 73
    -1
  0
VERTEX
  5
665A
  8
0
 10
0.0
 20
0.0
 30
0.0
 70
   128
 71
     2
 72
    -3
 73
     1
  0
SEQEND
  5
66A9
  8
0
  0
ENDBLK
  5
669C
  8
0
  0
ENDSEC
  0
SECTION
  2
ENTITIES
  0
INSERT
  5
5DA3
  8
0
  2
*X1
 10
0.0
 20
0.0
 30
0.0
  0
INSERT
  5
5DA4
  8
0
  2
*X2
 10
0.0
 20
0.0
 30
0.0
  0
INSERT
  5
5DA5
  8
0
  2
*X3
 10
0.0
 20
0.0
 30
0.0
  0
INSERT
  5
5DA6
  8
0
  2
*X4
 10
0.0
 20
0.0
 30
0.0
  0
ENDSEC
  0
EOF
