  0
SECTION
  2
HEADER
  9
$ACADVER
  1
AC1009
  9
$DWGCODEPAGE
  3
ansi_1250
  9
$INSBASE
 10
0.0
 20
0.0
 30
0.0
  9
$EXTMIN
 10
-300.0
 20
-600.0
 30
-19.00000000000008
  9
$EXTMAX
 10
300.0000000000001
 20
600.0000000000002
 30
2.000000000000036
  9
$LIMMIN
 10
0.0
 20
0.0
  9
$LIMMAX
 10
420.0
 20
297.0
  9
$ORTHOMODE
 70
     0
  9
$REGENMODE
 70
     1
  9
$FILLMODE
 70
     1
  9
$QTEXTMODE
 70
     0
  9
$MIRRTEXT
 70
     0
  9
$DRAGMODE
 70
     2
  9
$LTSCALE
 40
1.0
  9
$OSMODE
 70
   511
  9
$ATTMODE
 70
     1
  9
$TEXTSIZE
 40
2.5
  9
$TRACEWID
 40
1.0
  9
$TEXTSTYLE
  7
STANDARD
  9
$CLAYER
  8
0
  9
$CELTYPE
  6
BYLAYER
  9
$CECOLOR
 62
   256
  9
$DIMSCALE
 40
1.0
  9
$DIMASZ
 40
2.5
  9
$DIMEXO
 40
0.625
  9
$DIMDLI
 40
3.75
  9
$DIMRND
 40
0.0
  9
$DIMDLE
 40
0.0
  9
$DIMEXE
 40
1.25
  9
$DIMTP
 40
0.0
  9
$DIMTM
 40
0.0
  9
$DIMTXT
 40
2.5
  9
$DIMCEN
 40
-2.5
  9
$DIMTSZ
 40
0.0
  9
$DIMTOL
 70
     0
  9
$DIMLIM
 70
     0
  9
$DIMTIH
 70
     0
  9
$DIMTOH
 70
     0
  9
$DIMSE1
 70
     0
  9
$DIMSE2
 70
     0
  9
$DIMTAD
 70
     1
  9
$DIMZIN
 70
     8
  9
$DIMBLK
  1

  9
$DIMASO
 70
     1
  9
$DIMSHO
 70
     1
  9
$DIMPOST
  1

  9
$DIMAPOST
  1

  9
$DIMALT
 70
     0
  9
$DIMALTD
 70
     3
  9
$DIMALTF
 40
0.03937007874016
  9
$DIMLFAC
 40
1.0
  9
$DIMTOFL
 70
     1
  9
$DIMTVP
 40
0.0
  9
$DIMTIX
 70
     0
  9
$DIMSOXD
 70
     0
  9
$DIMSAH
 70
     0
  9
$DIMBLK1
  1

  9
$DIMBLK2
  1

  9
$DIMSTYLE
  2
ISO-25
  9
$DIMCLRD
 70
     0
  9
$DIMCLRE
 70
     0
  9
$DIMCLRT
 70
     0
  9
$DIMTFAC
 40
1.0
  9
$DIMGAP
 40
0.625
  9
$LUNITS
 70
     2
  9
$LUPREC
 70
     3
  9
$SKETCHINC
 40
1.0
  9
$FILLETRAD
 40
10.0
  9
$AUNITS
 70
     0
  9
$AUPREC
 70
     0
  9
$MENU
  1
.
  9
$ELEVATION
 40
0.0
  9
$PELEVATION
 40
0.0
  9
$THICKNESS
 40
0.0
  9
$LIMCHECK
 70
     0
  9
$CHAMFERA
 40
10.0
  9
$CHAMFERB
 40
10.0
  9
$SKPOLY
 70
     0
  9
$TDCREATE
 40
2455022.720692848
  9
$TDUPDATE
 40
2460523.38087581
  9
$TDINDWG
 40
0.021163831
  9
$TDUSRTIMER
 40
0.021163831
  9
$USRTIMER
 70
     1
  9
$ANGBASE
 50
0.0
  9
$ANGDIR
 70
     0
  9
$PDMODE
 70
     0
  9
$PDSIZE
 40
0.0
  9
$PLINEWID
 40
0.0
  9
$COORDS
 70
     1
  9
$SPLFRAME
 70
     0
  9
$SPLINETYPE
 70
     6
  9
$SPLINESEGS
 70
     8
  9
$ATTDIA
 70
     0
  9
$ATTREQ
 70
     1
  9
$HANDLING
 70
     1
  9
$HANDSEED
  5
113F
  9
$SURFTAB1
 70
     6
  9
$SURFTAB2
 70
     6
  9
$SURFTYPE
 70
     6
  9
$SURFU
 70
     6
  9
$SURFV
 70
     6
  9
$UCSNAME
  2

  9
$UCSORG
 10
0.0
 20
0.0
 30
0.0
  9
$UCSXDIR
 10
1.0
 20
0.0
 30
0.0
  9
$UCSYDIR
 10
0.0
 20
1.0
 30
0.0
  9
$PUCSNAME
  2

  9
$PUCSORG
 10
0.0
 20
0.0
 30
0.0
  9
$PUCSXDIR
 10
1.0
 20
0.0
 30
0.0
  9
$PUCSYDIR
 10
0.0
 20
1.0
 30
0.0
  9
$USERI1
 70
     0
  9
$USERI2
 70
     0
  9
$USERI3
 70
     0
  9
$USERI4
 70
     0
  9
$USERI5
 70
     0
  9
$USERR1
 40
0.0
  9
$USERR2
 40
0.0
  9
$USERR3
 40
0.0
  9
$USERR4
 40
0.0
  9
$USERR5
 40
0.0
  9
$WORLDVIEW
 70
     1
  9
$SHADEDGE
 70
     3
  9
$SHADEDIF
 70
    70
  9
$TILEMODE
 70
     1
  9
$MAXACTVP
 70
    64
  9
$PLIMCHECK
 70
     0
  9
$PEXTMIN
 10
1.000000000000000E+20
 20
1.000000000000000E+20
 30
1.000000000000000E+20
  9
$PEXTMAX
 10
-1.000000000000000E+20
 20
-1.000000000000000E+20
 30
-1.000000000000000E+20
  9
$PLIMMIN
 10
0.0
 20
0.0
  9
$PLIMMAX
 10
0.0
 20
0.0
  9
$UNITMODE
 70
     0
  9
$VISRETAIN
 70
     1
  9
$PLINEGEN
 70
     0
  9
$PSLTSCALE
 70
     1
  0
ENDSEC
  0
SECTION
  2
TABLES
  0
TABLE
  2
VPORT
 70
     1
  0
VPORT
  2
*ACTIVE
 70
     0
 10
0.0
 20
0.0
 11
1.0
 21
1.0
 12
-94.88447817080785
 22
-61.72179995171888
 13
0.0
 23
0.0
 14
10.0
 24
10.0
 15
10.0
 25
10.0
 16
0.5773502691896226
 26
0.5773502691896226
 36
0.5773502691896226
 17
-134.1869158878504
 27
-0.0000000000000746
 37
0.0000000000000213
 40
767.0332180551246
 41
1.89041095890411
 42
50.0
 43
0.0
 44
0.0
 50
0.0
 51
0.0
 71
    16
 72
  1000
 73
     1
 74
     3
 75
     0
 76
     0
 77
     0
 78
     0
  0
ENDTAB
  0
TABLE
  2
LTYPE
 70
     1
  0
LTYPE
  2
CONTINUOUS
 70
     0
  3
Solid line
 72
    65
 73
     0
 40
0.0
  0
ENDTAB
  0
TABLE
  2
LAYER
 70
     1
  0
LAYER
  2
0
 70
     0
 62
     7
  6
CONTINUOUS
  0
ENDTAB
  0
TABLE
  2
STYLE
 70
     2
  0
STYLE
  2
STANDARD
 70
     0
 40
0.0
 41
1.0
 50
0.0
 71
     0
 42
2.5
  3
arial.ttf
  4

  0
STYLE
  2
ANNOTATIVE
 70
     0
 40
0.0
 41
1.0
 50
0.0
 71
     0
 42
2.5
  3
arial.ttf
  4

  0
ENDTAB
  0
TABLE
  2
VIEW
 70
     0
  0
ENDTAB
  0
TABLE
  2
UCS
 70
     0
  0
ENDTAB
  0
TABLE
  2
APPID
 70
     2
  0
APPID
  2
ACAD
 70
     0
  0
APPID
  2
ACADANNOTATIVE
 70
     0
  0
ENDTAB
  0
TABLE
  2
DIMSTYLE
 70
     2
  0
DIMSTYLE
  2
ISO-25
 70
     0
  3

  4

  5

  6

  7

 40
1.0
 41
2.5
 42
0.625
 43
3.75
 44
1.25
 45
0.0
 46
0.0
 47
0.0
 48
0.0
140
2.5
141
-2.5
142
0.0
143
0.03937007874016
144
1.0
145
0.0
146
1.0
147
0.625
 71
     0
 72
     0
 73
     0
 74
     0
 75
     0
 76
     0
 77
     1
 78
     8
170
     0
171
     3
172
     1
173
     0
174
     0
175
     0
176
     0
177
     0
178
     0
  0
DIMSTYLE
  2
ANNOTATIVE
 70
     0
  3

  4

  5

  6

  7

 40
0.0
 41
2.5
 42
0.625
 43
3.75
 44
1.25
 45
0.0
 46
0.0
 47
0.0
 48
0.0
140
2.5
141
-2.5
142
0.0
143
0.03937007874016
144
1.0
145
0.0
146
1.0
147
0.625
 71
     0
 72
     0
 73
     0
 74
     0
 75
     0
 76
     0
 77
     1
 78
     8
170
     0
171
     3
172
     1
173
     0
174
     0
175
     0
176
     0
177
     0
178
     0
  0
ENDTAB
  0
ENDSEC
  0
SECTION
  2
BLOCKS
  0
BLOCK
  8
0
  2
$MODEL_SPACE
 70
     0
 10
0.0
 20
0.0
 30
0.0
  3
$MODEL_SPACE
  1

  0
ENDBLK
  5
21
  8
0
  0
BLOCK
 67
     1
  8
0
  2
$PAPER_SPACE
 70
     0
 10
0.0
 20
0.0
 30
0.0
  3
$PAPER_SPACE
  1

  0
ENDBLK
  5
1D
 67
     1
  8
0
  0
BLOCK
  8
0
  2
*X1
 70
     1
 10
0.0
 20
0.0
 30
0.0
  3
*X1
  1

  0
POLYLINE
  5
C19
  8
0
 66
     1
 10
0.0
 20
0.0
 30
0.0
 70
    64
 71
     4
 72
     2
  0
VERTEX
  5
C1A
  8
0
 10
-299.9999999999999
 20
600.0000000000001
 30
0.0
 70
   192
  0
VERTEX
  5
C1B
  8
0
 10
-299.9999999999999
 20
600.0000000000001
 30
2.0
 70
   192
  0
VERTEX
  5
C1C
  8
0
 10
-299.9999999999999
 20
-599.9999999999999
 30
2.0
 70
   192
  0
VERTEX
  5
C1D
  8
0
 10
-299.9999999999999
 20
-599.9999999999999
 30
0.0
 70
   192
  0
VERTEX
  5
C1E
  8
0
 10
0.0
 20
0.0
 30
0.0
 70
   128
 71
     1
 72
     4
 73
    -3
  0
VERTEX
  5
C1F
  8
0
 10
0.0
 20
0.0
 30
0.0
 70
   128
 71
    -1
 72
     3
 73
     2
  0
SEQEND
  5
10E1
  8
0
  0
POLYLINE
  5
C20
  8
0
 66
     1
 10
0.0
 20
0.0
 30
0.0
 70
    64
 71
     4
 72
     2
  0
VERTEX
  5
C21
  8
0
 10
-299.9999999999999
 20
-599.9999999999999
 30
0.0
 70
   192
  0
VERTEX
  5
C22
  8
0
 10
-299.9999999999999
 20
-599.9999999999999
 30
2.0
 70
   192
  0
VERTEX
  5
C23
  8
0
 10
300.0000000000001
 20
-599.9999999999998
 30
2.0
 70
   192
  0
VERTEX
  5
C24
  8
0
 10
300.0000000000001
 20
-599.9999999999998
 30
0.0
 70
   192
  0
VERTEX
  5
C25
  8
0
 10
0.0
 20
0.0
 30
0.0
 70
   128
 71
     1
 72
     4
 73
    -3
  0
VERTEX
  5
C26
  8
0
 10
0.0
 20
0.0
 30
0.0
 70
   128
 71
    -1
 72
     3
 73
     2
  0
SEQEND
  5
10E2
  8
0
  0
POLYLINE
  5
C27
  8
0
 66
     1
 10
0.0
 20
0.0
 30
0.0
 70
    64
 71
     4
 72
     2
  0
VERTEX
  5
C28
  8
0
 10
300.0000000000001
 20
-599.9999999999998
 30
0.0
 70
   192
  0
VERTEX
  5
C29
  8
0
 10
300.0000000000001
 20
-599.9999999999998
 30
2.0
 70
   192
  0
VERTEX
  5
C2A
  8
0
 10
300.0000000000001
 20
600.0000000000002
 30
2.0
 70
   192
  0
VERTEX
  5
C2B
  8
0
 10
300.0000000000001
 20
600.0000000000002
 30
0.0
 70
   192
  0
VERTEX
  5
C2C
  8
0
 10
0.0
 20
0.0
 30
0.0
 70
   128
 71
     1
 72
     4
 73
    -3
  0
VERTEX
  5
C2D
  8
0
 10
0.0
 20
0.0
 30
0.0
 70
   128
 71
    -1
 72
     3
 73
     2
  0
SEQEND
  5
10E3
  8
0
  0
POLYLINE
  5
C2E
  8
0
 66
     1
 10
0.0
 20
0.0
 30
0.0
 70
    64
 71
     4
 72
     2
  0
VERTEX
  5
C2F
  8
0
 10
300.0000000000001
 20
600.0000000000002
 30
0.0
 70
   192
  0
VERTEX
  5
C30
  8
0
 10
300.0000000000001
 20
600.0000000000002
 30
2.0
 70
   192
  0
VERTEX
  5
C31
  8
0
 10
-299.9999999999999
 20
600.0000000000001
 30
2.0
 70
   192
  0
VERTEX
  5
C32
  8
0
 10
-299.9999999999999
 20
600.0000000000001
 30
0.0
 70
   192
  0
VERTEX
  5
C33
  8
0
 10
0.0
 20
0.0
 30
0.0
 70
   128
 71
     1
 72
     4
 73
    -3
  0
VERTEX
  5
C34
  8
0
 10
0.0
 20
0.0
 30
0.0
 70
   128
 71
    -1
 72
     3
 73
     2
  0
SEQEND
  5
10E4
  8
0
  0
POLYLINE
  5
C35
  8
0
 66
     1
 10
0.0
 20
0.0
 30
0.0
 70
    64
 71
     4
 72
     2
  0
VERTEX
  5
C36
  8
0
 10
-299.9999999999999
 20
600.0000000000001
 30
2.0
 70
   192
  0
VERTEX
  5
C37
  8
0
 10
-299.9999999999999
 20
-599.9999999999999
 30
2.0
 70
   192
  0
VERTEX
  5
C38
  8
0
 10
300.0000000000001
 20
-599.9999999999998
 30
2.0
 70
   192
  0
VERTEX
  5
C39
  8
0
 10
300.0000000000001
 20
600.0000000000002
 30
2.0
 70
   192
  0
VERTEX
  5
C3A
  8
0
 10
0.0
 20
0.0
 30
0.0
 70
   128
 71
     3
 72
     4
 73
    -1
  0
VERTEX
  5
C3B
  8
0
 10
0.0
 20
0.0
 30
0.0
 70
   128
 71
     2
 72
    -3
 73
     1
  0
SEQEND
  5
10E5
  8
0
  0
POLYLINE
  5
C3C
  8
0
 66
     1
 10
0.0
 20
0.0
 30
0.0
 70
    64
 71
     4
 72
     2
  0
VERTEX
  5
C3D
  8
0
 10
-299.9999999999999
 20
-599.9999999999999
 30
0.0
 70
   192
  0
VERTEX
  5
C3E
  8
0
 10
300.0000000000001
 20
-599.9999999999998
 30
0.0
 70
   192
  0
VERTEX
  5
C3F
  8
0
 10
300.0000000000001
 20
600.0000000000002
 30
0.0
 70
   192
  0
VERTEX
  5
C40
  8
0
 10
-299.9999999999999
 20
600.0000000000001
 30
0.0
 70
   192
  0
VERTEX
  5
C41
  8
0
 10
0.0
 20
0.0
 30
0.0
 70
   128
 71
     1
 72
     4
 73
    -3
  0
VERTEX
  5
C42
  8
0
 10
0.0
 20
0.0
 30
0.0
 70
   128
 71
    -1
 72
     3
 73
     2
  0
SEQEND
  5
10E6
  8
0
  0
ENDBLK
  5
10E0
  8
0
  0
BLOCK
  8
0
  2
*X2
 70
     1
 10
0.0
 20
0.0
 30
0.0
  3
*X2
  1

  0
POLYLINE
  5
C44
  8
0
 66
     1
 10
0.0
 20
0.0
 30
0.0
 70
    64
 71
     8
 72
     6
  0
VERTEX
  5
C45
  8
0
 10
-247.3749999999998
 20
586.2475952641918
 30
-14.0
 70
   192
  0
VERTEX
  5
C46
  8
0
 10
-248.7475952641913
 20
584.8750000000001
 30
-14.0
 70
   192
  0
VERTEX
  5
C47
  8
0
 10
-248.7475952641913
 20
584.8750000000001
 30
-19.0
 70
   192
  0
VERTEX
  5
C48
  8
0
 10
-247.3749999999998
 20
586.2475952641918
 30
-19.0
 70
   192
  0
VERTEX
  5
C49
  8
0
 10
-249.2499999999997
 20
583.0000000000002
 30
-14.0
 70
   192
  0
VERTEX
  5
C4A
  8
0
 10
-249.2499999999997
 20
583.0000000000002
 30
-19.0
 70
   192
  0
VERTEX
  5
C4B
  8
0
 10
-245.4999999999998
 20
586.7500000000001
 30
-14.0
 70
   192
  0
VERTEX
  5
C4C
  8
0
 10
-245.4999999999998
 20
586.7500000000001
 30
-19.0
 70
   192
  0
VERTEX
  5
C4D
  8
0
 10
0.0
 20
0.0
 30
0.0
 70
   128
 71
     1
 72
     2
 73
    -3
  0
VERTEX
  5
C4E
  8
0
 10
0.0
 20
0.0
 30
0.0
 70
   128
 71
     4
 72
    -1
 73
     3
  0
VERTEX
  5
C4F
  8
0
 10
0.0
 20
0.0
 30
0.0
 70
   128
 71
     2
 72
     5
 73
    -6
  0
VERTEX
  5
C50
  8
0
 10
0.0
 20
0.0
 30
0.0
 70
   128
 71
     3
 72
    -2
 73
     6
  0
VERTEX
  5
C51
  8
0
 10
0.0
 20
0.0
 30
0.0
 70
   128
 71
     7
 72
     1
 73
    -4
  0
VERTEX
  5
C52
  8
0
 10
0.0
 20
0.0
 30
0.0
 70
   128
 71
     8
 72
    -7
 73
     4
  0
SEQEND
  5
10E9
  8
0
  0
POLYLINE
  5
C53
  8
0
 66
     1
 10
0.0
 20
0.0
 30
0.0
 70
    64
 71
    30
 72
    30
  0
VERTEX
  5
C54
  8
0
 10
266.0000000000001
 20
566.0000000000001
 30
-19.0
 70
   192
  0
VERTEX
  5
C55
  8
0
 10
-265.9999999999999
 20
566.0000000000001
 30
-19.0
 70
   192
  0
VERTEX
  5
C56
  8
0
 10
-299.9999999999999
 20
600.0000000000001
 30
-19.0
 70
   192
  0
VERTEX
  5
C57
  8
0
 10
300.0000000000001
 20
600.0000000000001
 30
-19.0
 70
   192
  0
VERTEX
  5
C58
  8
0
 10
-245.4999999999998
 20
579.2500000000003
 30
-19.0
 70
   192
  0
VERTEX
  5
C59
  8
0
 10
-241.7499999999996
 20
579.2500000000003
 30
-19.0
 70
   192
  0
VERTEX
  5
C5A
  8
0
 10
-241.7499999999996
 20
575.5000000000002
 30
-19.0
 70
   192
  0
VERTEX
  5
C5B
  8
0
 10
-240.6516504294493
 20
572.8483495705508
 30
-19.0
 70
   192
  0
VERTEX
  5
C5C
  8
0
 10
-237.9999999999999
 20
571.7500000000005
 30
-19.0
 70
   192
  0
VERTEX
  5
C5D
  8
0
 10
-235.3483495705505
 20
572.8483495705508
 30
-19.0
 70
   192
  0
VERTEX
  5
C5E
  8
0
 10
-234.2500000000001
 20
575.5000000000002
 30
-19.0
 70
   192
  0
VERTEX
  5
C5F
  8
0
 10
-234.25
 20
579.2500000000003
 30
-19.0
 70
   192
  0
VERTEX
  5
C60
  8
0
 10
-230.4999999999999
 20
579.2500000000003
 30
-19.0
 70
   192
  0
VERTEX
  5
C61
  8
0
 10
-227.8483495705504
 20
580.3483495705508
 30
-19.0
 70
   192
  0
VERTEX
  5
C62
  8
0
 10
-226.75
 20
583.0000000000002
 30
-19.0
 70
   192
  0
VERTEX
  5
C63
  8
0
 10
-227.8483495705504
 20
585.6516504294497
 30
-19.0
 70
   192
  0
VERTEX
  5
C64
  8
0
 10
-230.4999999999998
 20
586.7500000000001
 30
-19.0
 70
   192
  0
VERTEX
  5
C65
  8
0
 10
-234.25
 20
586.7500000000001
 30
-19.0
 70
   192
  0
VERTEX
  5
C66
  8
0
 10
-234.25
 20
590.5000000000002
 30
-19.0
 70
   192
  0
VERTEX
  5
C67
  8
0
 10
-235.3483495705505
 20
593.1516504294497
 30
-19.0
 70
   192
  0
VERTEX
  5
C68
  8
0
 10
-237.9999999999999
 20
594.25
 30
-19.0
 70
   192
  0
VERTEX
  5
C69
  8
0
 10
-240.6516504294493
 20
593.1516504294497
 30
-19.0
 70
   192
  0
VERTEX
  5
C6A
  8
0
 10
-241.7499999999997
 20
590.5000000000002
 30
-19.0
 70
   192
  0
VERTEX
  5
C6B
  8
0
 10
-241.7499999999996
 20
586.7500000000001
 30
-19.0
 70
   192
  0
VERTEX
  5
C6C
  8
0
 10
-245.4999999999998
 20
586.7500000000001
 30
-19.0
 70
   192
  0
VERTEX
  5
C6D
  8
0
 10
-247.3749999999998
 20
586.2475952641918
 30
-19.0
 70
   192
  0
VERTEX
  5
C6E
  8
0
 10
-248.7475952641913
 20
584.8750000000001
 30
-19.0
 70
   192
  0
VERTEX
  5
C6F
  8
0
 10
-249.2499999999997
 20
583.0000000000002
 30
-19.0
 70
   192
  0
VERTEX
  5
C70
  8
0
 10
-248.7475952641913
 20
581.1250000000003
 30
-19.0
 70
   192
  0
VERTEX
  5
C71
  8
0
 10
-247.3749999999998
 20
579.7524047358087
 30
-19.0
 70
   192
  0
VERTEX
  5
C72
  8
0
 10
0.0
 20
0.0
 30
0.0
 70
   128
 71
    11
 72
    12
 73
   -13
  0
VERTEX
  5
C73
  8
0
 10
0.0
 20
0.0
 30
0.0
 70
   128
 71
     5
 72
     6
 73
    -7
  0
VERTEX
  5
C74
  8
0
 10
0.0
 20
0.0
 30
0.0
 70
   128
 71
    -2
 72
    -5
 73
    -7
  0
VERTEX
  5
C75
  8
0
 10
0.0
 20
0.0
 30
0.0
 70
   128
 71
     7
 72
    -8
 73
    -2
  0
VERTEX
  5
C76
  8
0
 10
0.0
 20
0.0
 30
0.0
 70
   128
 71
     8
 72
    -9
 73
    -2
  0
VERTEX
  5
C77
  8
0
 10
0.0
 20
0.0
 30
0.0
 70
   128
 71
     1
 72
    -2
 73
    -9
  0
VERTEX
  5
C78
  8
0
 10
0.0
 20
0.0
 30
0.0
 70
   128
 71
     9
 72
   -10
 73
    -1
  0
VERTEX
  5
C79
  8
0
 10
0.0
 20
0.0
 30
0.0
 70
   128
 71
    13
 72
   -14
 73
    -1
  0
VERTEX
  5
C7A
  8
0
 10
0.0
 20
0.0
 30
0.0
 70
   128
 71
   -11
 72
   -13
 73
    -1
  0
VERTEX
  5
C7B
  8
0
 10
0.0
 20
0.0
 30
0.0
 70
   128
 71
    10
 72
   -11
 73
    -1
  0
VERTEX
  5
C7C
  8
0
 10
0.0
 20
0.0
 30
0.0
 70
   128
 71
    14
 72
   -15
 73
    -1
  0
VERTEX
  5
C7D
  8
0
 10
0.0
 20
0.0
 30
0.0
 70
   128
 71
    15
 72
   -16
 73
    -1
  0
VERTEX
  5
C7E
  8
0
 10
0.0
 20
0.0
 30
0.0
 70
   128
 71
   -16
 72
   -19
 73
    -1
  0
VERTEX
  5
C7F
  8
0
 10
0.0
 20
0.0
 30
0.0
 70
   128
 71
    16
 72
   -17
 73
   -19
  0
VERTEX
  5
C80
  8
0
 10
0.0
 20
0.0
 30
0.0
 70
   128
 71
    17
 72
    18
 73
   -19
  0
VERTEX
  5
C81
  8
0
 10
0.0
 20
0.0
 30
0.0
 70
   128
 71
    19
 72
   -20
 73
    -1
  0
VERTEX
  5
C82
  8
0
 10
0.0
 20
0.0
 30
0.0
 70
   128
 71
    20
 72
   -21
 73
    -1
  0
VERTEX
  5
C83
  8
0
 10
0.0
 20
0.0
 30
0.0
 70
   128
 71
     4
 72
    -1
 73
   -21
  0
VERTEX
  5
C84
  8
0
 10
0.0
 20
0.0
 30
0.0
 70
   128
 71
   -21
 72
     3
 73
    -4
  0
VERTEX
  5
C85
  8
0
 10
0.0
 20
0.0
 30
0.0
 70
   128
 71
    21
 72
   -22
 73
    -3
  0
VERTEX
  5
C86
  8
0
 10
0.0
 20
0.0
 30
0.0
 70
   128
 71
    22
 72
   -23
 73
    -3
  0
VERTEX
  5
C87
  8
0
 10
0.0
 20
0.0
 30
0.0
 70
   128
 71
    24
 72
   -25
 73
    -3
  0
VERTEX
  5
C88
  8
0
 10
0.0
 20
0.0
 30
0.0
 70
   128
 71
    23
 72
   -24
 73
    -3
  0
VERTEX
  5
C89
  8
0
 10
0.0
 20
0.0
 30
0.0
 70
   128
 71
    25
 72
   -26
 73
    -3
  0
VERTEX
  5
C8A
  8
0
 10
0.0
 20
0.0
 30
0.0
 70
   128
 71
    26
 72
   -27
 73
    -3
  0
VERTEX
  5
C8B
  8
0
 10
0.0
 20
0.0
 30
0.0
 70
   128
 71
   -28
 72
     2
 73
    -3
  0
VERTEX
  5
C8C
  8
0
 10
0.0
 20
0.0
 30
0.0
 70
   128
 71
    27
 72
   -28
 73
    -3
  0
VERTEX
  5
C8D
  8
0
 10
0.0
 20
0.0
 30
0.0
 70
   128
 71
    28
 72
   -29
 73
    -2
  0
VERTEX
  5
C8E
  8
0
 10
0.0
 20
0.0
 30
0.0
 70
   128
 71
    29
 72
   -30
 73
    -2
  0
VERTEX
  5
C8F
  8
0
 10
0.0
 20
0.0
 30
0.0
 70
   128
 71
    30
 72
    -5
 73
    -2
  0
SEQEND
  5
10EA
  8
0
  0
POLYLINE
  5
C90
  8
0
 66
     1
 10
0.0
 20
0.0
 30
0.0
 70
    64
 71
     4
 72
     2
  0
VERTEX
  5
C91
  8
0
 10
266.0000000000001
 20
566.0000000000001
 30
0.0
 70
   192
  0
VERTEX
  5
C92
  8
0
 10
-265.9999999999999
 20
566.0000000000001
 30
0.0
 70
   192
  0
VERTEX
  5
C93
  8
0
 10
-265.9999999999999
 20
566.0000000000001
 30
-19.0
 70
   192
  0
VERTEX
  5
C94
  8
0
 10
266.0000000000001
 20
566.0000000000001
 30
-19.0
 70
   192
  0
VERTEX
  5
C95
  8
0
 10
0.0
 20
0.0
 30
0.0
 70
   128
 71
     3
 72
     4
 73
    -1
  0
VERTEX
  5
C96
  8
0
 10
0.0
 20
0.0
 30
0.0
 70
   128
 71
     2
 72
    -3
 73
     1
  0
SEQEND
  5
10EB
  8
0
  0
POLYLINE
  5
C97
  8
0
 66
     1
 10
0.0
 20
0.0
 30
0.0
 70
    64
 71
     4
 72
     2
  0
VERTEX
  5
C98
  8
0
 10
-265.9999999999999
 20
566.0000000000001
 30
0.0
 70
   192
  0
VERTEX
  5
C99
  8
0
 10
-265.9999999999999
 20
566.0
 30
-19.0
 70
   192
  0
VERTEX
  5
C9A
  8
0
 10
-299.9999999999999
 20
600.0000000000001
 30
-19.0
 70
   192
  0
VERTEX
  5
C9B
  8
0
 10
-299.9999999999999
 20
600.0000000000001
 30
0.0
 70
   192
  0
VERTEX
  5
C9C
  8
0
 10
0.0
 20
0.0
 30
0.0
 70
   128
 71
     1
 72
     4
 73
    -3
  0
VERTEX
  5
C9D
  8
0
 10
0.0
 20
0.0
 30
0.0
 70
   128
 71
    -1
 72
     3
 73
     2
  0
SEQEND
  5
10EC
  8
0
  0
POLYLINE
  5
C9E
  8
0
 66
     1
 10
0.0
 20
0.0
 30
0.0
 70
    64
 71
     4
 72
     2
  0
VERTEX
  5
C9F
  8
0
 10
-299.9999999999999
 20
600.0000000000001
 30
0.0
 70
   192
  0
VERTEX
  5
CA0
  8
0
 10
-299.9999999999999
 20
600.0000000000001
 30
-19.0
 70
   192
  0
VERTEX
  5
CA1
  8
0
 10
300.0000000000001
 20
600.0000000000002
 30
-19.0
 70
   192
  0
VERTEX
  5
CA2
  8
0
 10
300.0000000000001
 20
600.0000000000001
 30
0.0
 70
   192
  0
VERTEX
  5
CA3
  8
0
 10
0.0
 20
0.0
 30
0.0
 70
   128
 71
     1
 72
     4
 73
    -3
  0
VERTEX
  5
CA4
  8
0
 10
0.0
 20
0.0
 30
0.0
 70
   128
 71
    -1
 72
     3
 73
     2
  0
SEQEND
  5
10ED
  8
0
  0
POLYLINE
  5
CA5
  8
0
 66
     1
 10
0.0
 20
0.0
 30
0.0
 70
    64
 71
     4
 72
     2
  0
VERTEX
  5
CA6
  8
0
 10
300.0000000000001
 20
600.0000000000002
 30
0.0
 70
   192
  0
VERTEX
  5
CA7
  8
0
 10
300.0000000000001
 20
600.0000000000002
 30
-19.0
 70
   192
  0
VERTEX
  5
CA8
  8
0
 10
266.0000000000001
 20
566.0000000000001
 30
-19.0
 70
   192
  0
VERTEX
  5
CA9
  8
0
 10
266.0000000000001
 20
566.0000000000002
 30
0.0
 70
   192
  0
VERTEX
  5
CAA
  8
0
 10
0.0
 20
0.0
 30
0.0
 70
   128
 71
     1
 72
     4
 73
    -3
  0
VERTEX
  5
CAB
  8
0
 10
0.0
 20
0.0
 30
0.0
 70
   128
 71
    -1
 72
     3
 73
     2
  0
SEQEND
  5
10EE
  8
0
  0
POLYLINE
  5
CAC
  8
0
 66
     1
 10
0.0
 20
0.0
 30
0.0
 70
    64
 71
     4
 72
     2
  0
VERTEX
  5
CAD
  8
0
 10
-265.9999999999999
 20
566.0
 30
0.0
 70
   192
  0
VERTEX
  5
CAE
  8
0
 10
-299.9999999999999
 20
600.0000000000001
 30
0.0
 70
   192
  0
VERTEX
  5
CAF
  8
0
 10
300.0000000000001
 20
600.0000000000002
 30
0.0
 70
   192
  0
VERTEX
  5
CB0
  8
0
 10
266.0000000000001
 20
566.0000000000001
 30
0.0
 70
   192
  0
VERTEX
  5
CB1
  8
0
 10
0.0
 20
0.0
 30
0.0
 70
   128
 71
     1
 72
     4
 73
    -3
  0
VERTEX
  5
CB2
  8
0
 10
0.0
 20
0.0
 30
0.0
 70
   128
 71
    -1
 72
     3
 73
     2
  0
SEQEND
  5
10EF
  8
0
  0
POLYLINE
  5
CB3
  8
0
 66
     1
 10
0.0
 20
0.0
 30
0.0
 70
    64
 71
     8
 72
     6
  0
VERTEX
  5
CB4
  8
0
 10
-248.7475952641913
 20
581.1250000000003
 30
-14.0
 70
   192
  0
VERTEX
  5
CB5
  8
0
 10
-247.3749999999998
 20
579.7524047358087
 30
-14.0
 70
   192
  0
VERTEX
  5
CB6
  8
0
 10
-247.3749999999998
 20
579.7524047358087
 30
-19.0
 70
   192
  0
VERTEX
  5
CB7
  8
0
 10
-248.7475952641913
 20
581.1250000000003
 30
-19.0
 70
   192
  0
VERTEX
  5
CB8
  8
0
 10
-245.4999999999998
 20
579.2500000000003
 30
-14.0
 70
   192
  0
VERTEX
  5
CB9
  8
0
 10
-245.4999999999998
 20
579.2500000000003
 30
-19.0
 70
   192
  0
VERTEX
  5
CBA
  8
0
 10
-249.2499999999997
 20
583.0000000000002
 30
-14.0
 70
   192
  0
VERTEX
  5
CBB
  8
0
 10
-249.2499999999997
 20
583.0000000000002
 30
-19.0
 70
   192
  0
VERTEX
  5
CBC
  8
0
 10
0.0
 20
0.0
 30
0.0
 70
   128
 71
     1
 72
     2
 73
    -3
  0
VERTEX
  5
CBD
  8
0
 10
0.0
 20
0.0
 30
0.0
 70
   128
 71
     4
 72
    -1
 73
     3
  0
VERTEX
  5
CBE
  8
0
 10
0.0
 20
0.0
 30
0.0
 70
   128
 71
     2
 72
     5
 73
    -6
  0
VERTEX
  5
CBF
  8
0
 10
0.0
 20
0.0
 30
0.0
 70
   128
 71
     3
 72
    -2
 73
     6
  0
VERTEX
  5
CC0
  8
0
 10
0.0
 20
0.0
 30
0.0
 70
   128
 71
     7
 72
     1
 73
    -4
  0
VERTEX
  5
CC1
  8
0
 10
0.0
 20
0.0
 30
0.0
 70
   128
 71
     8
 72
    -7
 73
     4
  0
SEQEND
  5
10F0
  8
0
  0
POLYLINE
  5
CC2
  8
0
 66
     1
 10
0.0
 20
0.0
 30
0.0
 70
    64
 71
     4
 72
     2
  0
VERTEX
  5
CC3
  8
0
 10
-241.7499999999996
 20
579.2500000000003
 30
-14.0
 70
   192
  0
VERTEX
  5
CC4
  8
0
 10
-241.7499999999996
 20
579.2500000000003
 30
-19.0
 70
   192
  0
VERTEX
  5
CC5
  8
0
 10
-245.4999999999998
 20
579.2500000000003
 30
-19.0
 70
   192
  0
VERTEX
  5
CC6
  8
0
 10
-245.4999999999998
 20
579.2500000000003
 30
-14.0
 70
   192
  0
VERTEX
  5
CC7
  8
0
 10
0.0
 20
0.0
 30
0.0
 70
   128
 71
     3
 72
     4
 73
    -1
  0
VERTEX
  5
CC8
  8
0
 10
0.0
 20
0.0
 30
0.0
 70
   128
 71
     2
 72
    -3
 73
     1
  0
SEQEND
  5
10F1
  8
0
  0
POLYLINE
  5
CC9
  8
0
 66
     1
 10
0.0
 20
0.0
 30
0.0
 70
    64
 71
     4
 72
     2
  0
VERTEX
  5
CCA
  8
0
 10
-241.7499999999996
 20
586.7500000000001
 30
-14.0
 70
   192
  0
VERTEX
  5
CCB
  8
0
 10
-241.7499999999996
 20
586.7500000000001
 30
-19.0
 70
   192
  0
VERTEX
  5
CCC
  8
0
 10
-245.4999999999998
 20
586.7500000000001
 30
-19.0
 70
   192
  0
VERTEX
  5
CCD
  8
0
 10
-245.4999999999998
 20
586.7500000000001
 30
-14.0
 70
   192
  0
VERTEX
  5
CCE
  8
0
 10
0.0
 20
0.0
 30
0.0
 70
   128
 71
     1
 72
     4
 73
    -3
  0
VERTEX
  5
CCF
  8
0
 10
0.0
 20
0.0
 30
0.0
 70
   128
 71
    -1
 72
     3
 73
     2
  0
SEQEND
  5
10F2
  8
0
  0
POLYLINE
  5
CD0
  8
0
 66
     1
 10
0.0
 20
0.0
 30
0.0
 70
    64
 71
     4
 72
     2
  0
VERTEX
  5
CD1
  8
0
 10
-234.25
 20
579.2500000000003
 30
-14.0
 70
   192
  0
VERTEX
  5
CD2
  8
0
 10
-230.4999999999999
 20
579.2500000000003
 30
-14.0
 70
   192
  0
VERTEX
  5
CD3
  8
0
 10
-230.4999999999999
 20
579.2500000000003
 30
-19.0
 70
   192
  0
VERTEX
  5
CD4
  8
0
 10
-234.25
 20
579.2500000000003
 30
-19.0
 70
   192
  0
VERTEX
  5
CD5
  8
0
 10
0.0
 20
0.0
 30
0.0
 70
   128
 71
     3
 72
     4
 73
    -1
  0
VERTEX
  5
CD6
  8
0
 10
0.0
 20
0.0
 30
0.0
 70
   128
 71
     2
 72
    -3
 73
     1
  0
SEQEND
  5
10F3
  8
0
  0
POLYLINE
  5
CD7
  8
0
 66
     1
 10
0.0
 20
0.0
 30
0.0
 70
    64
 71
    10
 72
     8
  0
VERTEX
  5
CD8
  8
0
 10
-230.4999999999998
 20
586.7500000000001
 30
-14.0
 70
   192
  0
VERTEX
  5
CD9
  8
0
 10
-230.4999999999999
 20
579.2500000000003
 30
-14.0
 70
   192
  0
VERTEX
  5
CDA
  8
0
 10
-230.4999999999999
 20
579.2500000000003
 30
-19.0
 70
   192
  0
VERTEX
  5
CDB
  8
0
 10
-230.4999999999998
 20
586.7500000000001
 30
-19.0
 70
   192
  0
VERTEX
  5
CDC
  8
0
 10
-226.75
 20
583.0000000000002
 30
-19.0
 70
   192
  0
VERTEX
  5
CDD
  8
0
 10
-226.75
 20
583.0000000000002
 30
-14.0
 70
   192
  0
VERTEX
  5
CDE
  8
0
 10
-227.8483495705504
 20
585.6516504294497
 30
-19.0
 70
   192
  0
VERTEX
  5
CDF
  8
0
 10
-227.8483495705504
 20
585.6516504294497
 30
-14.0
 70
   192
  0
VERTEX
  5
CE0
  8
0
 10
-227.8483495705504
 20
580.3483495705508
 30
-19.0
 70
   192
  0
VERTEX
  5
CE1
  8
0
 10
-227.8483495705504
 20
580.3483495705508
 30
-14.0
 70
   192
  0
VERTEX
  5
CE2
  8
0
 10
0.0
 20
0.0
 30
0.0
 70
   128
 71
     4
 72
     7
 73
    -8
  0
VERTEX
  5
CE3
  8
0
 10
0.0
 20
0.0
 30
0.0
 70
   128
 71
     1
 72
    -4
 73
     8
  0
VERTEX
  5
CE4
  8
0
 10
0.0
 20
0.0
 30
0.0
 70
   128
 71
     7
 72
     5
 73
    -6
  0
VERTEX
  5
CE5
  8
0
 10
0.0
 20
0.0
 30
0.0
 70
   128
 71
     8
 72
    -7
 73
     6
  0
VERTEX
  5
CE6
  8
0
 10
0.0
 20
0.0
 30
0.0
 70
   128
 71
     5
 72
     9
 73
   -10
  0
VERTEX
  5
CE7
  8
0
 10
0.0
 20
0.0
 30
0.0
 70
   128
 71
     6
 72
    -5
 73
    10
  0
VERTEX
  5
CE8
  8
0
 10
0.0
 20
0.0
 30
0.0
 70
   128
 71
     9
 72
     3
 73
    -2
  0
VERTEX
  5
CE9
  8
0
 10
0.0
 20
0.0
 30
0.0
 70
   128
 71
    10
 72
    -9
 73
     2
  0
SEQEND
  5
10F4
  8
0
  0
POLYLINE
  5
CEA
  8
0
 66
     1
 10
0.0
 20
0.0
 30
0.0
 70
    64
 71
     4
 72
     2
  0
VERTEX
  5
CEB
  8
0
 10
-234.25
 20
586.7500000000001
 30
-14.0
 70
   192
  0
VERTEX
  5
CEC
  8
0
 10
-230.4999999999998
 20
586.7500000000001
 30
-14.0
 70
   192
  0
VERTEX
  5
CED
  8
0
 10
-230.4999999999998
 20
586.7500000000001
 30
-19.0
 70
   192
  0
VERTEX
  5
CEE
  8
0
 10
-234.25
 20
586.7500000000001
 30
-19.0
 70
   192
  0
VERTEX
  5
CEF
  8
0
 10
0.0
 20
0.0
 30
0.0
 70
   128
 71
     1
 72
     4
 73
    -3
  0
VERTEX
  5
CF0
  8
0
 10
0.0
 20
0.0
 30
0.0
 70
   128
 71
    -1
 72
     3
 73
     2
  0
SEQEND
  5
10F5
  8
0
  0
POLYLINE
  5
CF1
  8
0
 66
     1
 10
0.0
 20
0.0
 30
0.0
 70
    64
 71
    10
 72
     8
  0
VERTEX
  5
CF2
  8
0
 10
-234.2500000000001
 20
575.5000000000002
 30
-14.0
 70
   192
  0
VERTEX
  5
CF3
  8
0
 10
-241.7499999999996
 20
575.5000000000002
 30
-14.0
 70
   192
  0
VERTEX
  5
CF4
  8
0
 10
-241.7499999999997
 20
575.5000000000002
 30
-19.0
 70
   192
  0
VERTEX
  5
CF5
  8
0
 10
-234.2500000000001
 20
575.5000000000002
 30
-19.0
 70
   192
  0
VERTEX
  5
CF6
  8
0
 10
-237.9999999999999
 20
571.7500000000005
 30
-19.0
 70
   192
  0
VERTEX
  5
CF7
  8
0
 10
-237.9999999999999
 20
571.7500000000005
 30
-14.0
 70
   192
  0
VERTEX
  5
CF8
  8
0
 10
-235.3483495705505
 20
572.8483495705508
 30
-19.0
 70
   192
  0
VERTEX
  5
CF9
  8
0
 10
-235.3483495705505
 20
572.8483495705508
 30
-14.0
 70
   192
  0
VERTEX
  5
CFA
  8
0
 10
-240.6516504294493
 20
572.8483495705508
 30
-19.0
 70
   192
  0
VERTEX
  5
CFB
  8
0
 10
-240.6516504294493
 20
572.8483495705508
 30
-14.0
 70
   192
  0
VERTEX
  5
CFC
  8
0
 10
0.0
 20
0.0
 30
0.0
 70
   128
 71
     4
 72
     7
 73
    -8
  0
VERTEX
  5
CFD
  8
0
 10
0.0
 20
0.0
 30
0.0
 70
   128
 71
     1
 72
    -4
 73
     8
  0
VERTEX
  5
CFE
  8
0
 10
0.0
 20
0.0
 30
0.0
 70
   128
 71
     7
 72
     5
 73
    -6
  0
VERTEX
  5
CFF
  8
0
 10
0.0
 20
0.0
 30
0.0
 70
   128
 71
     8
 72
    -7
 73
     6
  0
VERTEX
  5
D00
  8
0
 10
0.0
 20
0.0
 30
0.0
 70
   128
 71
     5
 72
     9
 73
   -10
  0
VERTEX
  5
D01
  8
0
 10
0.0
 20
0.0
 30
0.0
 70
   128
 71
     6
 72
    -5
 73
    10
  0
VERTEX
  5
D02
  8
0
 10
0.0
 20
0.0
 30
0.0
 70
   128
 71
     9
 72
     3
 73
    -2
  0
VERTEX
  5
D03
  8
0
 10
0.0
 20
0.0
 30
0.0
 70
   128
 71
    10
 72
    -9
 73
     2
  0
SEQEND
  5
10F6
  8
0
  0
POLYLINE
  5
D04
  8
0
 66
     1
 10
0.0
 20
0.0
 30
0.0
 70
    64
 71
     4
 72
     2
  0
VERTEX
  5
D05
  8
0
 10
-234.25
 20
579.2500000000003
 30
-14.0
 70
   192
  0
VERTEX
  5
D06
  8
0
 10
-234.2500000000001
 20
575.5000000000002
 30
-14.0
 70
   192
  0
VERTEX
  5
D07
  8
0
 10
-234.25
 20
575.5000000000002
 30
-19.0
 70
   192
  0
VERTEX
  5
D08
  8
0
 10
-234.25
 20
579.2500000000003
 30
-19.0
 70
   192
  0
VERTEX
  5
D09
  8
0
 10
0.0
 20
0.0
 30
0.0
 70
   128
 71
     1
 72
     4
 73
    -3
  0
VERTEX
  5
D0A
  8
0
 10
0.0
 20
0.0
 30
0.0
 70
   128
 71
    -1
 72
     3
 73
     2
  0
SEQEND
  5
10F7
  8
0
  0
POLYLINE
  5
D0B
  8
0
 66
     1
 10
0.0
 20
0.0
 30
0.0
 70
    64
 71
     4
 72
     2
  0
VERTEX
  5
D0C
  8
0
 10
-241.7499999999996
 20
579.2500000000003
 30
-14.0
 70
   192
  0
VERTEX
  5
D0D
  8
0
 10
-241.7499999999996
 20
575.5000000000002
 30
-14.0
 70
   192
  0
VERTEX
  5
D0E
  8
0
 10
-241.7499999999996
 20
575.5000000000002
 30
-19.0
 70
   192
  0
VERTEX
  5
D0F
  8
0
 10
-241.7499999999996
 20
579.2500000000003
 30
-19.0
 70
   192
  0
VERTEX
  5
D10
  8
0
 10
0.0
 20
0.0
 30
0.0
 70
   128
 71
     3
 72
     4
 73
    -1
  0
VERTEX
  5
D11
  8
0
 10
0.0
 20
0.0
 30
0.0
 70
   128
 71
     2
 72
    -3
 73
     1
  0
SEQEND
  5
10F8
  8
0
  0
POLYLINE
  5
D12
  8
0
 66
     1
 10
0.0
 20
0.0
 30
0.0
 70
    64
 71
    10
 72
     8
  0
VERTEX
  5
D13
  8
0
 10
-241.7499999999997
 20
590.5000000000002
 30
-14.0
 70
   192
  0
VERTEX
  5
D14
  8
0
 10
-234.25
 20
590.5000000000002
 30
-14.0
 70
   192
  0
VERTEX
  5
D15
  8
0
 10
-234.2500000000001
 20
590.5000000000002
 30
-19.0
 70
   192
  0
VERTEX
  5
D16
  8
0
 10
-241.7499999999997
 20
590.5000000000002
 30
-19.0
 70
   192
  0
VERTEX
  5
D17
  8
0
 10
-237.9999999999999
 20
594.25
 30
-19.0
 70
   192
  0
VERTEX
  5
D18
  8
0
 10
-237.9999999999999
 20
594.25
 30
-14.0
 70
   192
  0
VERTEX
  5
D19
  8
0
 10
-240.6516504294493
 20
593.1516504294497
 30
-19.0
 70
   192
  0
VERTEX
  5
D1A
  8
0
 10
-240.6516504294493
 20
593.1516504294497
 30
-14.0
 70
   192
  0
VERTEX
  5
D1B
  8
0
 10
-235.3483495705505
 20
593.1516504294497
 30
-19.0
 70
   192
  0
VERTEX
  5
D1C
  8
0
 10
-235.3483495705505
 20
593.1516504294497
 30
-14.0
 70
   192
  0
VERTEX
  5
D1D
  8
0
 10
0.0
 20
0.0
 30
0.0
 70
   128
 71
     4
 72
     7
 73
    -8
  0
VERTEX
  5
D1E
  8
0
 10
0.0
 20
0.0
 30
0.0
 70
   128
 71
     1
 72
    -4
 73
     8
  0
VERTEX
  5
D1F
  8
0
 10
0.0
 20
0.0
 30
0.0
 70
   128
 71
     7
 72
     5
 73
    -6
  0
VERTEX
  5
D20
  8
0
 10
0.0
 20
0.0
 30
0.0
 70
   128
 71
     8
 72
    -7
 73
     6
  0
VERTEX
  5
D21
  8
0
 10
0.0
 20
0.0
 30
0.0
 70
   128
 71
     5
 72
     9
 73
   -10
  0
VERTEX
  5
D22
  8
0
 10
0.0
 20
0.0
 30
0.0
 70
   128
 71
     6
 72
    -5
 73
    10
  0
VERTEX
  5
D23
  8
0
 10
0.0
 20
0.0
 30
0.0
 70
   128
 71
     9
 72
     3
 73
    -2
  0
VERTEX
  5
D24
  8
0
 10
0.0
 20
0.0
 30
0.0
 70
   128
 71
    10
 72
    -9
 73
     2
  0
SEQEND
  5
10F9
  8
0
  0
POLYLINE
  5
D25
  8
0
 66
     1
 10
0.0
 20
0.0
 30
0.0
 70
    64
 71
     4
 72
     2
  0
VERTEX
  5
D26
  8
0
 10
-241.7499999999996
 20
586.7500000000001
 30
-14.0
 70
   192
  0
VERTEX
  5
D27
  8
0
 10
-241.7499999999996
 20
586.7500000000001
 30
-19.0
 70
   192
  0
VERTEX
  5
D28
  8
0
 10
-241.7499999999996
 20
590.5000000000002
 30
-19.0
 70
   192
  0
VERTEX
  5
D29
  8
0
 10
-241.7499999999996
 20
590.5000000000002
 30
-14.0
 70
   192
  0
VERTEX
  5
D2A
  8
0
 10
0.0
 20
0.0
 30
0.0
 70
   128
 71
     3
 72
     4
 73
    -1
  0
VERTEX
  5
D2B
  8
0
 10
0.0
 20
0.0
 30
0.0
 70
   128
 71
     2
 72
    -3
 73
     1
  0
SEQEND
  5
10FA
  8
0
  0
POLYLINE
  5
D2C
  8
0
 66
     1
 10
0.0
 20
0.0
 30
0.0
 70
    64
 71
     4
 72
     2
  0
VERTEX
  5
D2D
  8
0
 10
-234.25
 20
586.7500000000001
 30
-14.0
 70
   192
  0
VERTEX
  5
D2E
  8
0
 10
-234.25
 20
586.7500000000001
 30
-19.0
 70
   192
  0
VERTEX
  5
D2F
  8
0
 10
-234.25
 20
590.5000000000002
 30
-19.0
 70
   192
  0
VERTEX
  5
D30
  8
0
 10
-234.25
 20
590.5000000000002
 30
-14.0
 70
   192
  0
VERTEX
  5
D31
  8
0
 10
0.0
 20
0.0
 30
0.0
 70
   128
 71
     1
 72
     4
 73
    -3
  0
VERTEX
  5
D32
  8
0
 10
0.0
 20
0.0
 30
0.0
 70
   128
 71
    -1
 72
     3
 73
     2
  0
SEQEND
  5
10FB
  8
0
  0
POLYLINE
  5
D33
  8
0
 66
     1
 10
0.0
 20
0.0
 30
0.0
 70
    64
 71
    26
 72
    24
  0
VERTEX
  5
D34
  8
0
 10
-234.25
 20
586.7500000000001
 30
-14.0
 70
   192
  0
VERTEX
  5
D35
  8
0
 10
-234.2500000000001
 20
590.5000000000002
 30
-14.0
 70
   192
  0
VERTEX
  5
D36
  8
0
 10
-235.3483495705505
 20
593.1516504294497
 30
-14.0
 70
   192
  0
VERTEX
  5
D37
  8
0
 10
-237.9999999999999
 20
594.25
 30
-14.0
 70
   192
  0
VERTEX
  5
D38
  8
0
 10
-240.6516504294493
 20
593.1516504294497
 30
-14.0
 70
   192
  0
VERTEX
  5
D39
  8
0
 10
-241.7499999999996
 20
590.5000000000002
 30
-14.0
 70
   192
  0
VERTEX
  5
D3A
  8
0
 10
-241.7499999999996
 20
586.7500000000001
 30
-14.0
 70
   192
  0
VERTEX
  5
D3B
  8
0
 10
-245.4999999999998
 20
586.7500000000001
 30
-14.0
 70
   192
  0
VERTEX
  5
D3C
  8
0
 10
-247.3749999999998
 20
586.2475952641918
 30
-14.0
 70
   192
  0
VERTEX
  5
D3D
  8
0
 10
-248.7475952641913
 20
584.8750000000001
 30
-14.0
 70
   192
  0
VERTEX
  5
D3E
  8
0
 10
-249.2499999999997
 20
583.0000000000002
 30
-14.0
 70
   192
  0
VERTEX
  5
D3F
  8
0
 10
-248.7475952641913
 20
581.1250000000003
 30
-14.0
 70
   192
  0
VERTEX
  5
D40
  8
0
 10
-247.3749999999998
 20
579.7524047358087
 30
-14.0
 70
   192
  0
VERTEX
  5
D41
  8
0
 10
-245.4999999999998
 20
579.2500000000003
 30
-14.0
 70
   192
  0
VERTEX
  5
D42
  8
0
 10
-241.7499999999996
 20
579.2500000000003
 30
-14.0
 70
   192
  0
VERTEX
  5
D43
  8
0
 10
-241.7499999999997
 20
575.5000000000002
 30
-14.0
 70
   192
  0
VERTEX
  5
D44
  8
0
 10
-240.6516504294493
 20
572.8483495705508
 30
-14.0
 70
   192
  0
VERTEX
  5
D45
  8
0
 10
-237.9999999999999
 20
571.7500000000005
 30
-14.0
 70
   192
  0
VERTEX
  5
D46
  8
0
 10
-235.3483495705505
 20
572.8483495705508
 30
-14.0
 70
   192
  0
VERTEX
  5
D47
  8
0
 10
-234.25
 20
575.5000000000002
 30
-14.0
 70
   192
  0
VERTEX
  5
D48
  8
0
 10
-234.25
 20
579.2500000000003
 30
-14.0
 70
   192
  0
VERTEX
  5
D49
  8
0
 10
-230.4999999999999
 20
579.2500000000003
 30
-14.0
 70
   192
  0
VERTEX
  5
D4A
  8
0
 10
-227.8483495705504
 20
580.3483495705508
 30
-14.0
 70
   192
  0
VERTEX
  5
D4B
  8
0
 10
-226.75
 20
583.0000000000002
 30
-14.0
 70
   192
  0
VERTEX
  5
D4C
  8
0
 10
-227.8483495705504
 20
585.6516504294497
 30
-14.0
 70
   192
  0
VERTEX
  5
D4D
  8
0
 10
-230.4999999999998
 20
586.7500000000001
 30
-14.0
 70
   192
  0
VERTEX
  5
D4E
  8
0
 10
0.0
 20
0.0
 30
0.0
 70
   128
 71
    21
 72
    20
 73
   -19
  0
VERTEX
  5
D4F
  8
0
 10
0.0
 20
0.0
 30
0.0
 70
   128
 71
   -21
 72
    19
 73
   -18
  0
VERTEX
  5
D50
  8
0
 10
0.0
 20
0.0
 30
0.0
 70
   128
 71
   -21
 72
    18
 73
   -17
  0
VERTEX
  5
D51
  8
0
 10
0.0
 20
0.0
 30
0.0
 70
   128
 71
   -21
 72
    17
 73
   -16
  0
VERTEX
  5
D52
  8
0
 10
0.0
 20
0.0
 30
0.0
 70
   128
 71
   -21
 72
    16
 73
   -15
  0
VERTEX
  5
D53
  8
0
 10
0.0
 20
0.0
 30
0.0
 70
   128
 71
   -21
 72
   -15
 73
    -1
  0
VERTEX
  5
D54
  8
0
 10
0.0
 20
0.0
 30
0.0
 70
   128
 71
     1
 72
    26
 73
   -25
  0
VERTEX
  5
D55
  8
0
 10
0.0
 20
0.0
 30
0.0
 70
   128
 71
    -1
 72
    25
 73
   -24
  0
VERTEX
  5
D56
  8
0
 10
0.0
 20
0.0
 30
0.0
 70
   128
 71
    -1
 72
    24
 73
   -23
  0
VERTEX
  5
D57
  8
0
 10
0.0
 20
0.0
 30
0.0
 70
   128
 71
    -1
 72
    23
 73
   -22
  0
VERTEX
  5
D58
  8
0
 10
0.0
 20
0.0
 30
0.0
 70
   128
 71
    -1
 72
    22
 73
   -21
  0
VERTEX
  5
D59
  8
0
 10
0.0
 20
0.0
 30
0.0
 70
   128
 71
     7
 72
     6
 73
    -5
  0
VERTEX
  5
D5A
  8
0
 10
0.0
 20
0.0
 30
0.0
 70
   128
 71
    -7
 72
     5
 73
    -4
  0
VERTEX
  5
D5B
  8
0
 10
0.0
 20
0.0
 30
0.0
 70
   128
 71
    -7
 72
     4
 73
    -3
  0
VERTEX
  5
D5C
  8
0
 10
0.0
 20
0.0
 30
0.0
 70
   128
 71
    -7
 72
     3
 73
    -2
  0
VERTEX
  5
D5D
  8
0
 10
0.0
 20
0.0
 30
0.0
 70
   128
 71
    -7
 72
     2
 73
    -1
  0
VERTEX
  5
D5E
  8
0
 10
0.0
 20
0.0
 30
0.0
 70
   128
 71
    -7
 72
    -1
 73
   -15
  0
VERTEX
  5
D5F
  8
0
 10
0.0
 20
0.0
 30
0.0
 70
   128
 71
    15
 72
    14
 73
   -13
  0
VERTEX
  5
D60
  8
0
 10
0.0
 20
0.0
 30
0.0
 70
   128
 71
   -15
 72
    13
 73
   -12
  0
VERTEX
  5
D61
  8
0
 10
0.0
 20
0.0
 30
0.0
 70
   128
 71
   -15
 72
    12
 73
   -11
  0
VERTEX
  5
D62
  8
0
 10
0.0
 20
0.0
 30
0.0
 70
   128
 71
   -15
 72
    11
 73
   -10
  0
VERTEX
  5
D63
  8
0
 10
0.0
 20
0.0
 30
0.0
 70
   128
 71
   -15
 72
    10
 73
    -9
  0
VERTEX
  5
D64
  8
0
 10
0.0
 20
0.0
 30
0.0
 70
   128
 71
   -15
 72
     9
 73
    -8
  0
VERTEX
  5
D65
  8
0
 10
0.0
 20
0.0
 30
0.0
 70
   128
 71
   -15
 72
     8
 73
    -7
  0
SEQEND
  5
10FC
  8
0
  0
ENDBLK
  5
10E8
  8
0
  0
BLOCK
  8
0
  2
*X3
 70
     1
 10
0.0
 20
0.0
 30
0.0
  3
*X3
  1

  0
POLYLINE
  5
D67
  8
0
 66
     1
 10
0.0
 20
0.0
 30
0.0
 70
    64
 71
     8
 72
     6
  0
VERTEX
  5
D68
  8
0
 10
-247.3749999999991
 20
-579.7524047358087
 30
-14.0
 70
   192
  0
VERTEX
  5
D69
  8
0
 10
-248.7475952641907
 20
-581.1250000000003
 30
-14.0
 70
   192
  0
VERTEX
  5
D6A
  8
0
 10
-248.7475952641907
 20
-581.1250000000003
 30
-19.0
 70
   192
  0
VERTEX
  5
D6B
  8
0
 10
-247.3749999999991
 20
-579.7524047358087
 30
-19.0
 70
   192
  0
VERTEX
  5
D6C
  8
0
 10
-249.249999999999
 20
-583.0000000000002
 30
-14.0
 70
   192
  0
VERTEX
  5
D6D
  8
0
 10
-249.249999999999
 20
-583.0000000000002
 30
-19.0
 70
   192
  0
VERTEX
  5
D6E
  8
0
 10
-245.4999999999992
 20
-579.2500000000003
 30
-14.0
 70
   192
  0
VERTEX
  5
D6F
  8
0
 10
-245.4999999999992
 20
-579.2500000000003
 30
-19.0
 70
   192
  0
VERTEX
  5
D70
  8
0
 10
0.0
 20
0.0
 30
0.0
 70
   128
 71
     1
 72
     2
 73
    -3
  0
VERTEX
  5
D71
  8
0
 10
0.0
 20
0.0
 30
0.0
 70
   128
 71
     4
 72
    -1
 73
     3
  0
VERTEX
  5
D72
  8
0
 10
0.0
 20
0.0
 30
0.0
 70
   128
 71
     2
 72
     5
 73
    -6
  0
VERTEX
  5
D73
  8
0
 10
0.0
 20
0.0
 30
0.0
 70
   128
 71
     3
 72
    -2
 73
     6
  0
VERTEX
  5
D74
  8
0
 10
0.0
 20
0.0
 30
0.0
 70
   128
 71
     7
 72
     1
 73
    -4
  0
VERTEX
  5
D75
  8
0
 10
0.0
 20
0.0
 30
0.0
 70
   128
 71
     8
 72
    -7
 73
     4
  0
SEQEND
  5
10FF
  8
0
  0
POLYLINE
  5
D76
  8
0
 66
     1
 10
0.0
 20
0.0
 30
0.0
 70
    64
 71
    30
 72
    30
  0
VERTEX
  5
D77
  8
0
 10
-265.9999999999999
 20
-565.9999999999999
 30
-19.0
 70
   192
  0
VERTEX
  5
D78
  8
0
 10
266.0
 20
-565.9999999999999
 30
-19.0
 70
   192
  0
VERTEX
  5
D79
  8
0
 10
300.0
 20
-599.9999999999998
 30
-19.0
 70
   192
  0
VERTEX
  5
D7A
  8
0
 10
-299.9999999999999
 20
-599.9999999999999
 30
-19.0
 70
   192
  0
VERTEX
  5
D7B
  8
0
 10
-230.4999999999992
 20
-579.2500000000003
 30
-19.0
 70
   192
  0
VERTEX
  5
D7C
  8
0
 10
-234.2499999999993
 20
-579.2500000000003
 30
-19.0
 70
   192
  0
VERTEX
  5
D7D
  8
0
 10
-234.2499999999993
 20
-575.5000000000002
 30
-19.0
 70
   192
  0
VERTEX
  5
D7E
  8
0
 10
-235.3483495705498
 20
-572.8483495705508
 30
-19.0
 70
   192
  0
VERTEX
  5
D7F
  8
0
 10
-237.9999999999992
 20
-571.7500000000005
 30
-19.0
 70
   192
  0
VERTEX
  5
D80
  8
0
 10
-240.6516504294486
 20
-572.8483495705508
 30
-19.0
 70
   192
  0
VERTEX
  5
D81
  8
0
 10
-241.749999999999
 20
-575.5000000000002
 30
-19.0
 70
   192
  0
VERTEX
  5
D82
  8
0
 10
-241.7499999999989
 20
-579.2500000000003
 30
-19.0
 70
   192
  0
VERTEX
  5
D83
  8
0
 10
-245.4999999999992
 20
-579.2500000000003
 30
-19.0
 70
   192
  0
VERTEX
  5
D84
  8
0
 10
-247.3749999999991
 20
-579.7524047358087
 30
-19.0
 70
   192
  0
VERTEX
  5
D85
  8
0
 10
-248.7475952641907
 20
-581.1250000000003
 30
-19.0
 70
   192
  0
VERTEX
  5
D86
  8
0
 10
-249.249999999999
 20
-583.0000000000002
 30
-19.0
 70
   192
  0
VERTEX
  5
D87
  8
0
 10
-248.7475952641907
 20
-584.8750000000001
 30
-19.0
 70
   192
  0
VERTEX
  5
D88
  8
0
 10
-247.3749999999991
 20
-586.2475952641918
 30
-19.0
 70
   192
  0
VERTEX
  5
D89
  8
0
 10
-245.4999999999992
 20
-586.7500000000001
 30
-19.0
 70
   192
  0
VERTEX
  5
D8A
  8
0
 10
-241.7499999999989
 20
-586.7500000000001
 30
-19.0
 70
   192
  0
VERTEX
  5
D8B
  8
0
 10
-241.7499999999989
 20
-590.5000000000002
 30
-19.0
 70
   192
  0
VERTEX
  5
D8C
  8
0
 10
-240.6516504294486
 20
-593.1516504294497
 30
-19.0
 70
   192
  0
VERTEX
  5
D8D
  8
0
 10
-237.9999999999992
 20
-594.25
 30
-19.0
 70
   192
  0
VERTEX
  5
D8E
  8
0
 10
-235.3483495705498
 20
-593.1516504294497
 30
-19.0
 70
   192
  0
VERTEX
  5
D8F
  8
0
 10
-234.2499999999994
 20
-590.5000000000002
 30
-19.0
 70
   192
  0
VERTEX
  5
D90
  8
0
 10
-234.2499999999993
 20
-586.7500000000001
 30
-19.0
 70
   192
  0
VERTEX
  5
D91
  8
0
 10
-230.4999999999991
 20
-586.7500000000001
 30
-19.0
 70
   192
  0
VERTEX
  5
D92
  8
0
 10
-227.8483495705497
 20
-585.6516504294497
 30
-19.0
 70
   192
  0
VERTEX
  5
D93
  8
0
 10
-226.7499999999993
 20
-583.0000000000002
 30
-19.0
 70
   192
  0
VERTEX
  5
D94
  8
0
 10
-227.8483495705497
 20
-580.3483495705508
 30
-19.0
 70
   192
  0
VERTEX
  5
D95
  8
0
 10
0.0
 20
0.0
 30
0.0
 70
   128
 71
    25
 72
    26
 73
   -27
  0
VERTEX
  5
D96
  8
0
 10
0.0
 20
0.0
 30
0.0
 70
   128
 71
    -2
 72
    30
 73
    -5
  0
VERTEX
  5
D97
  8
0
 10
0.0
 20
0.0
 30
0.0
 70
   128
 71
    -7
 72
    -2
 73
    -5
  0
VERTEX
  5
D98
  8
0
 10
0.0
 20
0.0
 30
0.0
 70
   128
 71
     5
 72
     6
 73
    -7
  0
VERTEX
  5
D99
  8
0
 10
0.0
 20
0.0
 30
0.0
 70
   128
 71
     7
 72
    -8
 73
    -2
  0
VERTEX
  5
D9A
  8
0
 10
0.0
 20
0.0
 30
0.0
 70
   128
 71
     8
 72
    -9
 73
    -2
  0
VERTEX
  5
D9B
  8
0
 10
0.0
 20
0.0
 30
0.0
 70
   128
 71
    -9
 72
     1
 73
    -2
  0
VERTEX
  5
D9C
  8
0
 10
0.0
 20
0.0
 30
0.0
 70
   128
 71
     9
 72
   -10
 73
    -1
  0
VERTEX
  5
D9D
  8
0
 10
0.0
 20
0.0
 30
0.0
 70
   128
 71
    10
 72
   -11
 73
    -1
  0
VERTEX
  5
D9E
  8
0
 10
0.0
 20
0.0
 30
0.0
 70
   128
 71
    12
 72
   -13
 73
    -1
  0
VERTEX
  5
D9F
  8
0
 10
0.0
 20
0.0
 30
0.0
 70
   128
 71
    11
 72
   -12
 73
    -1
  0
VERTEX
  5
DA0
  8
0
 10
0.0
 20
0.0
 30
0.0
 70
   128
 71
    13
 72
   -14
 73
    -1
  0
VERTEX
  5
DA1
  8
0
 10
0.0
 20
0.0
 30
0.0
 70
   128
 71
    14
 72
   -15
 73
    -1
  0
VERTEX
  5
DA2
  8
0
 10
0.0
 20
0.0
 30
0.0
 70
   128
 71
    15
 72
   -16
 73
    -1
  0
VERTEX
  5
DA3
  8
0
 10
0.0
 20
0.0
 30
0.0
 70
   128
 71
   -17
 72
     4
 73
    -1
  0
VERTEX
  5
DA4
  8
0
 10
0.0
 20
0.0
 30
0.0
 70
   128
 71
    16
 72
   -17
 73
    -1
  0
VERTEX
  5
DA5
  8
0
 10
0.0
 20
0.0
 30
0.0
 70
   128
 71
    17
 72
   -18
 73
    -4
  0
VERTEX
  5
DA6
  8
0
 10
0.0
 20
0.0
 30
0.0
 70
   128
 71
   -18
 72
   -21
 73
    -4
  0
VERTEX
  5
DA7
  8
0
 10
0.0
 20
0.0
 30
0.0
 70
   128
 71
    18
 72
   -19
 73
   -21
  0
VERTEX
  5
DA8
  8
0
 10
0.0
 20
0.0
 30
0.0
 70
   128
 71
    19
 72
    20
 73
   -21
  0
VERTEX
  5
DA9
  8
0
 10
0.0
 20
0.0
 30
0.0
 70
   128
 71
    21
 72
   -22
 73
    -4
  0
VERTEX
  5
DAA
  8
0
 10
0.0
 20
0.0
 30
0.0
 70
   128
 71
    22
 72
   -23
 73
    -4
  0
VERTEX
  5
DAB
  8
0
 10
0.0
 20
0.0
 30
0.0
 70
   128
 71
     3
 72
    -4
 73
   -23
  0
VERTEX
  5
DAC
  8
0
 10
0.0
 20
0.0
 30
0.0
 70
   128
 71
    23
 72
   -24
 73
    -3
  0
VERTEX
  5
DAD
  8
0
 10
0.0
 20
0.0
 30
0.0
 70
   128
 71
    27
 72
   -28
 73
    -3
  0
VERTEX
  5
DAE
  8
0
 10
0.0
 20
0.0
 30
0.0
 70
   128
 71
   -25
 72
   -27
 73
    -3
  0
VERTEX
  5
DAF
  8
0
 10
0.0
 20
0.0
 30
0.0
 70
   128
 71
    24
 72
   -25
 73
    -3
  0
VERTEX
  5
DB0
  8
0
 10
0.0
 20
0.0
 30
0.0
 70
   128
 71
   -29
 72
     2
 73
    -3
  0
VERTEX
  5
DB1
  8
0
 10
0.0
 20
0.0
 30
0.0
 70
   128
 71
    28
 72
   -29
 73
    -3
  0
VERTEX
  5
DB2
  8
0
 10
0.0
 20
0.0
 30
0.0
 70
   128
 71
    29
 72
   -30
 73
    -2
  0
SEQEND
  5
1100
  8
0
  0
POLYLINE
  5
DB3
  8
0
 66
     1
 10
0.0
 20
0.0
 30
0.0
 70
    64
 71
     4
 72
     2
  0
VERTEX
  5
DB4
  8
0
 10
-265.9999999999999
 20
-565.9999999999999
 30
0.0
 70
   192
  0
VERTEX
  5
DB5
  8
0
 10
266.0
 20
-565.9999999999999
 30
0.0
 70
   192
  0
VERTEX
  5
DB6
  8
0
 10
266.0
 20
-565.9999999999998
 30
-19.0
 70
   192
  0
VERTEX
  5
DB7
  8
0
 10
-265.9999999999999
 20
-565.9999999999999
 30
-19.0
 70
   192
  0
VERTEX
  5
DB8
  8
0
 10
0.0
 20
0.0
 30
0.0
 70
   128
 71
     3
 72
     4
 73
    -1
  0
VERTEX
  5
DB9
  8
0
 10
0.0
 20
0.0
 30
0.0
 70
   128
 71
     2
 72
    -3
 73
     1
  0
SEQEND
  5
1101
  8
0
  0
POLYLINE
  5
DBA
  8
0
 66
     1
 10
0.0
 20
0.0
 30
0.0
 70
    64
 71
     4
 72
     2
  0
VERTEX
  5
DBB
  8
0
 10
266.0
 20
-565.9999999999998
 30
0.0
 70
   192
  0
VERTEX
  5
DBC
  8
0
 10
265.9999999999999
 20
-565.9999999999997
 30
-19.0
 70
   192
  0
VERTEX
  5
DBD
  8
0
 10
300.0000000000001
 20
-599.9999999999999
 30
-19.0
 70
   192
  0
VERTEX
  5
DBE
  8
0
 10
300.0
 20
-599.9999999999998
 30
0.0
 70
   192
  0
VERTEX
  5
DBF
  8
0
 10
0.0
 20
0.0
 30
0.0
 70
   128
 71
     1
 72
     4
 73
    -3
  0
VERTEX
  5
DC0
  8
0
 10
0.0
 20
0.0
 30
0.0
 70
   128
 71
    -1
 72
     3
 73
     2
  0
SEQEND
  5
1102
  8
0
  0
POLYLINE
  5
DC1
  8
0
 66
     1
 10
0.0
 20
0.0
 30
0.0
 70
    64
 71
     4
 72
     2
  0
VERTEX
  5
DC2
  8
0
 10
300.0000000000001
 20
-599.9999999999999
 30
0.0
 70
   192
  0
VERTEX
  5
DC3
  8
0
 10
300.0000000000001
 20
-599.9999999999999
 30
-19.0
 70
   192
  0
VERTEX
  5
DC4
  8
0
 10
-299.9999999999999
 20
-600.0
 30
-19.0
 70
   192
  0
VERTEX
  5
DC5
  8
0
 10
-299.9999999999999
 20
-599.9999999999999
 30
0.0
 70
   192
  0
VERTEX
  5
DC6
  8
0
 10
0.0
 20
0.0
 30
0.0
 70
   128
 71
     1
 72
     4
 73
    -3
  0
VERTEX
  5
DC7
  8
0
 10
0.0
 20
0.0
 30
0.0
 70
   128
 71
    -1
 72
     3
 73
     2
  0
SEQEND
  5
1103
  8
0
  0
POLYLINE
  5
DC8
  8
0
 66
     1
 10
0.0
 20
0.0
 30
0.0
 70
    64
 71
     4
 72
     2
  0
VERTEX
  5
DC9
  8
0
 10
-299.9999999999999
 20
-600.0
 30
0.0
 70
   192
  0
VERTEX
  5
DCA
  8
0
 10
-299.9999999999999
 20
-599.9999999999998
 30
-19.0
 70
   192
  0
VERTEX
  5
DCB
  8
0
 10
-265.9999999999999
 20
-565.9999999999999
 30
-19.0
 70
   192
  0
VERTEX
  5
DCC
  8
0
 10
-265.9999999999999
 20
-565.9999999999998
 30
0.0
 70
   192
  0
VERTEX
  5
DCD
  8
0
 10
0.0
 20
0.0
 30
0.0
 70
   128
 71
     1
 72
     4
 73
    -3
  0
VERTEX
  5
DCE
  8
0
 10
0.0
 20
0.0
 30
0.0
 70
   128
 71
    -1
 72
     3
 73
     2
  0
SEQEND
  5
1104
  8
0
  0
POLYLINE
  5
DCF
  8
0
 66
     1
 10
0.0
 20
0.0
 30
0.0
 70
    64
 71
     4
 72
     2
  0
VERTEX
  5
DD0
  8
0
 10
265.9999999999999
 20
-565.9999999999997
 30
0.0
 70
   192
  0
VERTEX
  5
DD1
  8
0
 10
300.0000000000001
 20
-599.9999999999999
 30
0.0
 70
   192
  0
VERTEX
  5
DD2
  8
0
 10
-299.9999999999999
 20
-599.9999999999998
 30
0.0
 70
   192
  0
VERTEX
  5
DD3
  8
0
 10
-265.9999999999999
 20
-565.9999999999999
 30
0.0
 70
   192
  0
VERTEX
  5
DD4
  8
0
 10
0.0
 20
0.0
 30
0.0
 70
   128
 71
     1
 72
     4
 73
    -3
  0
VERTEX
  5
DD5
  8
0
 10
0.0
 20
0.0
 30
0.0
 70
   128
 71
    -1
 72
     3
 73
     2
  0
SEQEND
  5
1105
  8
0
  0
POLYLINE
  5
DD6
  8
0
 66
     1
 10
0.0
 20
0.0
 30
0.0
 70
    64
 71
     4
 72
     2
  0
VERTEX
  5
DD7
  8
0
 10
-241.7499999999989
 20
-579.2500000000003
 30
-19.0
 70
   192
  0
VERTEX
  5
DD8
  8
0
 10
-245.4999999999992
 20
-579.2500000000003
 30
-19.0
 70
   192
  0
VERTEX
  5
DD9
  8
0
 10
-245.4999999999992
 20
-579.2500000000003
 30
-14.0
 70
   192
  0
VERTEX
  5
DDA
  8
0
 10
-241.7499999999989
 20
-579.2500000000003
 30
-14.0
 70
   192
  0
VERTEX
  5
DDB
  8
0
 10
0.0
 20
0.0
 30
0.0
 70
   128
 71
     1
 72
     4
 73
    -3
  0
VERTEX
  5
DDC
  8
0
 10
0.0
 20
0.0
 30
0.0
 70
   128
 71
    -1
 72
     3
 73
     2
  0
SEQEND
  5
1106
  8
0
  0
POLYLINE
  5
DDD
  8
0
 66
     1
 10
0.0
 20
0.0
 30
0.0
 70
    64
 71
     8
 72
     6
  0
VERTEX
  5
DDE
  8
0
 10
-248.7475952641907
 20
-584.8750000000001
 30
-14.0
 70
   192
  0
VERTEX
  5
DDF
  8
0
 10
-247.3749999999991
 20
-586.2475952641918
 30
-14.0
 70
   192
  0
VERTEX
  5
DE0
  8
0
 10
-247.3749999999991
 20
-586.2475952641918
 30
-19.0
 70
   192
  0
VERTEX
  5
DE1
  8
0
 10
-248.7475952641907
 20
-584.8750000000001
 30
-19.0
 70
   192
  0
VERTEX
  5
DE2
  8
0
 10
-245.4999999999992
 20
-586.7500000000001
 30
-14.0
 70
   192
  0
VERTEX
  5
DE3
  8
0
 10
-245.4999999999992
 20
-586.7500000000001
 30
-19.0
 70
   192
  0
VERTEX
  5
DE4
  8
0
 10
-249.249999999999
 20
-583.0000000000002
 30
-14.0
 70
   192
  0
VERTEX
  5
DE5
  8
0
 10
-249.249999999999
 20
-583.0000000000002
 30
-19.0
 70
   192
  0
VERTEX
  5
DE6
  8
0
 10
0.0
 20
0.0
 30
0.0
 70
   128
 71
     1
 72
     2
 73
    -3
  0
VERTEX
  5
DE7
  8
0
 10
0.0
 20
0.0
 30
0.0
 70
   128
 71
     4
 72
    -1
 73
     3
  0
VERTEX
  5
DE8
  8
0
 10
0.0
 20
0.0
 30
0.0
 70
   128
 71
     2
 72
     5
 73
    -6
  0
VERTEX
  5
DE9
  8
0
 10
0.0
 20
0.0
 30
0.0
 70
   128
 71
     3
 72
    -2
 73
     6
  0
VERTEX
  5
DEA
  8
0
 10
0.0
 20
0.0
 30
0.0
 70
   128
 71
     7
 72
     1
 73
    -4
  0
VERTEX
  5
DEB
  8
0
 10
0.0
 20
0.0
 30
0.0
 70
   128
 71
     8
 72
    -7
 73
     4
  0
SEQEND
  5
1107
  8
0
  0
POLYLINE
  5
DEC
  8
0
 66
     1
 10
0.0
 20
0.0
 30
0.0
 70
    64
 71
     4
 72
     2
  0
VERTEX
  5
DED
  8
0
 10
-241.7499999999989
 20
-586.7500000000001
 30
-19.0
 70
   192
  0
VERTEX
  5
DEE
  8
0
 10
-245.4999999999992
 20
-586.7500000000001
 30
-19.0
 70
   192
  0
VERTEX
  5
DEF
  8
0
 10
-245.4999999999992
 20
-586.7500000000001
 30
-14.0
 70
   192
  0
VERTEX
  5
DF0
  8
0
 10
-241.7499999999989
 20
-586.7500000000001
 30
-14.0
 70
   192
  0
VERTEX
  5
DF1
  8
0
 10
0.0
 20
0.0
 30
0.0
 70
   128
 71
     3
 72
     4
 73
    -1
  0
VERTEX
  5
DF2
  8
0
 10
0.0
 20
0.0
 30
0.0
 70
   128
 71
     2
 72
    -3
 73
     1
  0
SEQEND
  5
1108
  8
0
  0
POLYLINE
  5
DF3
  8
0
 66
     1
 10
0.0
 20
0.0
 30
0.0
 70
    64
 71
    10
 72
     8
  0
VERTEX
  5
DF4
  8
0
 10
-230.4999999999992
 20
-579.2500000000003
 30
-14.0
 70
   192
  0
VERTEX
  5
DF5
  8
0
 10
-230.4999999999991
 20
-586.7500000000001
 30
-14.0
 70
   192
  0
VERTEX
  5
DF6
  8
0
 10
-230.4999999999991
 20
-586.7500000000001
 30
-19.0
 70
   192
  0
VERTEX
  5
DF7
  8
0
 10
-230.4999999999992
 20
-579.2500000000003
 30
-19.0
 70
   192
  0
VERTEX
  5
DF8
  8
0
 10
-226.7499999999993
 20
-583.0000000000002
 30
-19.0
 70
   192
  0
VERTEX
  5
DF9
  8
0
 10
-226.7499999999993
 20
-583.0000000000002
 30
-14.0
 70
   192
  0
VERTEX
  5
DFA
  8
0
 10
-227.8483495705497
 20
-580.3483495705508
 30
-19.0
 70
   192
  0
VERTEX
  5
DFB
  8
0
 10
-227.8483495705497
 20
-580.3483495705508
 30
-14.0
 70
   192
  0
VERTEX
  5
DFC
  8
0
 10
-227.8483495705497
 20
-585.6516504294497
 30
-19.0
 70
   192
  0
VERTEX
  5
DFD
  8
0
 10
-227.8483495705497
 20
-585.6516504294497
 30
-14.0
 70
   192
  0
VERTEX
  5
DFE
  8
0
 10
0.0
 20
0.0
 30
0.0
 70
   128
 71
     4
 72
     7
 73
    -8
  0
VERTEX
  5
DFF
  8
0
 10
0.0
 20
0.0
 30
0.0
 70
   128
 71
     1
 72
    -4
 73
     8
  0
VERTEX
  5
E00
  8
0
 10
0.0
 20
0.0
 30
0.0
 70
   128
 71
     7
 72
     5
 73
    -6
  0
VERTEX
  5
E01
  8
0
 10
0.0
 20
0.0
 30
0.0
 70
   128
 71
     8
 72
    -7
 73
     6
  0
VERTEX
  5
E02
  8
0
 10
0.0
 20
0.0
 30
0.0
 70
   128
 71
     5
 72
     9
 73
   -10
  0
VERTEX
  5
E03
  8
0
 10
0.0
 20
0.0
 30
0.0
 70
   128
 71
     6
 72
    -5
 73
    10
  0
VERTEX
  5
E04
  8
0
 10
0.0
 20
0.0
 30
0.0
 70
   128
 71
     9
 72
     3
 73
    -2
  0
VERTEX
  5
E05
  8
0
 10
0.0
 20
0.0
 30
0.0
 70
   128
 71
    10
 72
    -9
 73
     2
  0
SEQEND
  5
1109
  8
0
  0
POLYLINE
  5
E06
  8
0
 66
     1
 10
0.0
 20
0.0
 30
0.0
 70
    64
 71
     4
 72
     2
  0
VERTEX
  5
E07
  8
0
 10
-234.2499999999993
 20
-579.2500000000003
 30
-19.0
 70
   192
  0
VERTEX
  5
E08
  8
0
 10
-234.2499999999993
 20
-579.2500000000003
 30
-14.0
 70
   192
  0
VERTEX
  5
E09
  8
0
 10
-230.4999999999992
 20
-579.2500000000003
 30
-14.0
 70
   192
  0
VERTEX
  5
E0A
  8
0
 10
-230.4999999999992
 20
-579.2500000000003
 30
-19.0
 70
   192
  0
VERTEX
  5
E0B
  8
0
 10
0.0
 20
0.0
 30
0.0
 70
   128
 71
     1
 72
     4
 73
    -3
  0
VERTEX
  5
E0C
  8
0
 10
0.0
 20
0.0
 30
0.0
 70
   128
 71
    -1
 72
     3
 73
     2
  0
SEQEND
  5
110A
  8
0
  0
POLYLINE
  5
E0D
  8
0
 66
     1
 10
0.0
 20
0.0
 30
0.0
 70
    64
 71
     4
 72
     2
  0
VERTEX
  5
E0E
  8
0
 10
-234.2499999999993
 20
-586.7500000000001
 30
-19.0
 70
   192
  0
VERTEX
  5
E0F
  8
0
 10
-234.2499999999993
 20
-586.7500000000001
 30
-14.0
 70
   192
  0
VERTEX
  5
E10
  8
0
 10
-230.4999999999991
 20
-586.7500000000001
 30
-14.0
 70
   192
  0
VERTEX
  5
E11
  8
0
 10
-230.4999999999991
 20
-586.7500000000001
 30
-19.0
 70
   192
  0
VERTEX
  5
E12
  8
0
 10
0.0
 20
0.0
 30
0.0
 70
   128
 71
     3
 72
     4
 73
    -1
  0
VERTEX
  5
E13
  8
0
 10
0.0
 20
0.0
 30
0.0
 70
   128
 71
     2
 72
    -3
 73
     1
  0
SEQEND
  5
110B
  8
0
  0
POLYLINE
  5
E14
  8
0
 66
     1
 10
0.0
 20
0.0
 30
0.0
 70
    64
 71
    26
 72
    24
  0
VERTEX
  5
E15
  8
0
 10
-241.7499999999989
 20
-579.2500000000003
 30
-14.0
 70
   192
  0
VERTEX
  5
E16
  8
0
 10
-241.7499999999989
 20
-575.5000000000002
 30
-14.0
 70
   192
  0
VERTEX
  5
E17
  8
0
 10
-240.6516504294486
 20
-572.8483495705508
 30
-14.0
 70
   192
  0
VERTEX
  5
E18
  8
0
 10
-237.9999999999992
 20
-571.7500000000005
 30
-14.0
 70
   192
  0
VERTEX
  5
E19
  8
0
 10
-235.3483495705498
 20
-572.8483495705508
 30
-14.0
 70
   192
  0
VERTEX
  5
E1A
  8
0
 10
-234.2499999999994
 20
-575.5000000000002
 30
-14.0
 70
   192
  0
VERTEX
  5
E1B
  8
0
 10
-234.2499999999993
 20
-579.2500000000003
 30
-14.0
 70
   192
  0
VERTEX
  5
E1C
  8
0
 10
-230.4999999999992
 20
-579.2500000000003
 30
-14.0
 70
   192
  0
VERTEX
  5
E1D
  8
0
 10
-227.8483495705497
 20
-580.3483495705508
 30
-14.0
 70
   192
  0
VERTEX
  5
E1E
  8
0
 10
-226.7499999999993
 20
-583.0000000000002
 30
-14.0
 70
   192
  0
VERTEX
  5
E1F
  8
0
 10
-227.8483495705497
 20
-585.6516504294497
 30
-14.0
 70
   192
  0
VERTEX
  5
E20
  8
0
 10
-230.4999999999991
 20
-586.7500000000001
 30
-14.0
 70
   192
  0
VERTEX
  5
E21
  8
0
 10
-234.2499999999993
 20
-586.7500000000001
 30
-14.0
 70
   192
  0
VERTEX
  5
E22
  8
0
 10
-234.2499999999993
 20
-590.5000000000002
 30
-14.0
 70
   192
  0
VERTEX
  5
E23
  8
0
 10
-235.3483495705498
 20
-593.1516504294497
 30
-14.0
 70
   192
  0
VERTEX
  5
E24
  8
0
 10
-237.9999999999992
 20
-594.25
 30
-14.0
 70
   192
  0
VERTEX
  5
E25
  8
0
 10
-240.6516504294486
 20
-593.1516504294497
 30
-14.0
 70
   192
  0
VERTEX
  5
E26
  8
0
 10
-241.749999999999
 20
-590.5000000000002
 30
-14.0
 70
   192
  0
VERTEX
  5
E27
  8
0
 10
-241.7499999999989
 20
-586.7500000000001
 30
-14.0
 70
   192
  0
VERTEX
  5
E28
  8
0
 10
-245.4999999999992
 20
-586.7500000000001
 30
-14.0
 70
   192
  0
VERTEX
  5
E29
  8
0
 10
-247.3749999999991
 20
-586.2475952641918
 30
-14.0
 70
   192
  0
VERTEX
  5
E2A
  8
0
 10
-248.7475952641907
 20
-584.8750000000001
 30
-14.0
 70
   192
  0
VERTEX
  5
E2B
  8
0
 10
-249.249999999999
 20
-583.0000000000002
 30
-14.0
 70
   192
  0
VERTEX
  5
E2C
  8
0
 10
-248.7475952641907
 20
-581.1250000000003
 30
-14.0
 70
   192
  0
VERTEX
  5
E2D
  8
0
 10
-247.3749999999991
 20
-579.7524047358087
 30
-14.0
 70
   192
  0
VERTEX
  5
E2E
  8
0
 10
-245.4999999999992
 20
-579.2500000000003
 30
-14.0
 70
   192
  0
VERTEX
  5
E2F
  8
0
 10
0.0
 20
0.0
 30
0.0
 70
   128
 71
    17
 72
    18
 73
   -19
  0
VERTEX
  5
E30
  8
0
 10
0.0
 20
0.0
 30
0.0
 70
   128
 71
    16
 72
   -17
 73
   -19
  0
VERTEX
  5
E31
  8
0
 10
0.0
 20
0.0
 30
0.0
 70
   128
 71
    15
 72
   -16
 73
   -19
  0
VERTEX
  5
E32
  8
0
 10
0.0
 20
0.0
 30
0.0
 70
   128
 71
    14
 72
   -15
 73
   -19
  0
VERTEX
  5
E33
  8
0
 10
0.0
 20
0.0
 30
0.0
 70
   128
 71
    13
 72
   -14
 73
   -19
  0
VERTEX
  5
E34
  8
0
 10
0.0
 20
0.0
 30
0.0
 70
   128
 71
    -1
 72
   -13
 73
   -19
  0
VERTEX
  5
E35
  8
0
 10
0.0
 20
0.0
 30
0.0
 70
   128
 71
    25
 72
    26
 73
    -1
  0
VERTEX
  5
E36
  8
0
 10
0.0
 20
0.0
 30
0.0
 70
   128
 71
    24
 72
   -25
 73
    -1
  0
VERTEX
  5
E37
  8
0
 10
0.0
 20
0.0
 30
0.0
 70
   128
 71
    23
 72
   -24
 73
    -1
  0
VERTEX
  5
E38
  8
0
 10
0.0
 20
0.0
 30
0.0
 70
   128
 71
    22
 72
   -23
 73
    -1
  0
VERTEX
  5
E39
  8
0
 10
0.0
 20
0.0
 30
0.0
 70
   128
 71
    21
 72
   -22
 73
    -1
  0
VERTEX
  5
E3A
  8
0
 10
0.0
 20
0.0
 30
0.0
 70
   128
 71
    20
 72
   -21
 73
    -1
  0
VERTEX
  5
E3B
  8
0
 10
0.0
 20
0.0
 30
0.0
 70
   128
 71
    19
 72
   -20
 73
    -1
  0
VERTEX
  5
E3C
  8
0
 10
0.0
 20
0.0
 30
0.0
 70
   128
 71
     5
 72
     6
 73
    -7
  0
VERTEX
  5
E3D
  8
0
 10
0.0
 20
0.0
 30
0.0
 70
   128
 71
     4
 72
    -5
 73
    -7
  0
VERTEX
  5
E3E
  8
0
 10
0.0
 20
0.0
 30
0.0
 70
   128
 71
     3
 72
    -4
 73
    -7
  0
VERTEX
  5
E3F
  8
0
 10
0.0
 20
0.0
 30
0.0
 70
   128
 71
     2
 72
    -3
 73
    -7
  0
VERTEX
  5
E40
  8
0
 10
0.0
 20
0.0
 30
0.0
 70
   128
 71
     1
 72
    -2
 73
    -7
  0
VERTEX
  5
E41
  8
0
 10
0.0
 20
0.0
 30
0.0
 70
   128
 71
   -13
 72
    -1
 73
    -7
  0
VERTEX
  5
E42
  8
0
 10
0.0
 20
0.0
 30
0.0
 70
   128
 71
    11
 72
    12
 73
   -13
  0
VERTEX
  5
E43
  8
0
 10
0.0
 20
0.0
 30
0.0
 70
   128
 71
    10
 72
   -11
 73
   -13
  0
VERTEX
  5
E44
  8
0
 10
0.0
 20
0.0
 30
0.0
 70
   128
 71
     9
 72
   -10
 73
   -13
  0
VERTEX
  5
E45
  8
0
 10
0.0
 20
0.0
 30
0.0
 70
   128
 71
     8
 72
    -9
 73
   -13
  0
VERTEX
  5
E46
  8
0
 10
0.0
 20
0.0
 30
0.0
 70
   128
 71
     7
 72
    -8
 73
   -13
  0
SEQEND
  5
110C
  8
0
  0
POLYLINE
  5
E47
  8
0
 66
     1
 10
0.0
 20
0.0
 30
0.0
 70
    64
 71
    10
 72
     8
  0
VERTEX
  5
E48
  8
0
 10
-241.749999999999
 20
-575.5000000000002
 30
-14.0
 70
   192
  0
VERTEX
  5
E49
  8
0
 10
-234.2499999999993
 20
-575.5000000000002
 30
-14.0
 70
   192
  0
VERTEX
  5
E4A
  8
0
 10
-234.2499999999994
 20
-575.5000000000002
 30
-19.0
 70
   192
  0
VERTEX
  5
E4B
  8
0
 10
-241.749999999999
 20
-575.5000000000002
 30
-19.0
 70
   192
  0
VERTEX
  5
E4C
  8
0
 10
-237.9999999999992
 20
-571.7500000000005
 30
-19.0
 70
   192
  0
VERTEX
  5
E4D
  8
0
 10
-237.9999999999992
 20
-571.7500000000005
 30
-14.0
 70
   192
  0
VERTEX
  5
E4E
  8
0
 10
-240.6516504294486
 20
-572.8483495705508
 30
-19.0
 70
   192
  0
VERTEX
  5
E4F
  8
0
 10
-240.6516504294486
 20
-572.8483495705508
 30
-14.0
 70
   192
  0
VERTEX
  5
E50
  8
0
 10
-235.3483495705498
 20
-572.8483495705508
 30
-19.0
 70
   192
  0
VERTEX
  5
E51
  8
0
 10
-235.3483495705498
 20
-572.8483495705508
 30
-14.0
 70
   192
  0
VERTEX
  5
E52
  8
0
 10
0.0
 20
0.0
 30
0.0
 70
   128
 71
     4
 72
     7
 73
    -8
  0
VERTEX
  5
E53
  8
0
 10
0.0
 20
0.0
 30
0.0
 70
   128
 71
     1
 72
    -4
 73
     8
  0
VERTEX
  5
E54
  8
0
 10
0.0
 20
0.0
 30
0.0
 70
   128
 71
     7
 72
     5
 73
    -6
  0
VERTEX
  5
E55
  8
0
 10
0.0
 20
0.0
 30
0.0
 70
   128
 71
     8
 72
    -7
 73
     6
  0
VERTEX
  5
E56
  8
0
 10
0.0
 20
0.0
 30
0.0
 70
   128
 71
     5
 72
     9
 73
   -10
  0
VERTEX
  5
E57
  8
0
 10
0.0
 20
0.0
 30
0.0
 70
   128
 71
     6
 72
    -5
 73
    10
  0
VERTEX
  5
E58
  8
0
 10
0.0
 20
0.0
 30
0.0
 70
   128
 71
     9
 72
     3
 73
    -2
  0
VERTEX
  5
E59
  8
0
 10
0.0
 20
0.0
 30
0.0
 70
   128
 71
    10
 72
    -9
 73
     2
  0
SEQEND
  5
110D
  8
0
  0
POLYLINE
  5
E5A
  8
0
 66
     1
 10
0.0
 20
0.0
 30
0.0
 70
    64
 71
     4
 72
     2
  0
VERTEX
  5
E5B
  8
0
 10
-241.7499999999989
 20
-579.2500000000003
 30
-19.0
 70
   192
  0
VERTEX
  5
E5C
  8
0
 10
-241.7499999999989
 20
-579.2500000000003
 30
-14.0
 70
   192
  0
VERTEX
  5
E5D
  8
0
 10
-241.7499999999991
 20
-575.5000000000002
 30
-14.0
 70
   192
  0
VERTEX
  5
E5E
  8
0
 10
-241.7499999999989
 20
-575.5000000000002
 30
-19.0
 70
   192
  0
VERTEX
  5
E5F
  8
0
 10
0.0
 20
0.0
 30
0.0
 70
   128
 71
     1
 72
     4
 73
    -3
  0
VERTEX
  5
E60
  8
0
 10
0.0
 20
0.0
 30
0.0
 70
   128
 71
    -1
 72
     3
 73
     2
  0
SEQEND
  5
110E
  8
0
  0
POLYLINE
  5
E61
  8
0
 66
     1
 10
0.0
 20
0.0
 30
0.0
 70
    64
 71
     4
 72
     2
  0
VERTEX
  5
E62
  8
0
 10
-234.2499999999993
 20
-579.2500000000003
 30
-19.0
 70
   192
  0
VERTEX
  5
E63
  8
0
 10
-234.2499999999993
 20
-579.2500000000003
 30
-14.0
 70
   192
  0
VERTEX
  5
E64
  8
0
 10
-234.2499999999993
 20
-575.5000000000002
 30
-14.0
 70
   192
  0
VERTEX
  5
E65
  8
0
 10
-234.2499999999993
 20
-575.5000000000002
 30
-19.0
 70
   192
  0
VERTEX
  5
E66
  8
0
 10
0.0
 20
0.0
 30
0.0
 70
   128
 71
     3
 72
     4
 73
    -1
  0
VERTEX
  5
E67
  8
0
 10
0.0
 20
0.0
 30
0.0
 70
   128
 71
     2
 72
    -3
 73
     1
  0
SEQEND
  5
110F
  8
0
  0
POLYLINE
  5
E68
  8
0
 66
     1
 10
0.0
 20
0.0
 30
0.0
 70
    64
 71
     4
 72
     2
  0
VERTEX
  5
E69
  8
0
 10
-234.2499999999993
 20
-586.7500000000001
 30
-19.0
 70
   192
  0
VERTEX
  5
E6A
  8
0
 10
-234.2499999999993
 20
-590.5000000000002
 30
-19.0
 70
   192
  0
VERTEX
  5
E6B
  8
0
 10
-234.2499999999993
 20
-590.5000000000002
 30
-14.0
 70
   192
  0
VERTEX
  5
E6C
  8
0
 10
-234.2499999999993
 20
-586.7500000000001
 30
-14.0
 70
   192
  0
VERTEX
  5
E6D
  8
0
 10
0.0
 20
0.0
 30
0.0
 70
   128
 71
     3
 72
     4
 73
    -1
  0
VERTEX
  5
E6E
  8
0
 10
0.0
 20
0.0
 30
0.0
 70
   128
 71
     2
 72
    -3
 73
     1
  0
SEQEND
  5
1110
  8
0
  0
POLYLINE
  5
E6F
  8
0
 66
     1
 10
0.0
 20
0.0
 30
0.0
 70
    64
 71
     4
 72
     2
  0
VERTEX
  5
E70
  8
0
 10
-241.7499999999989
 20
-586.7500000000001
 30
-19.0
 70
   192
  0
VERTEX
  5
E71
  8
0
 10
-241.7499999999989
 20
-590.5000000000002
 30
-19.0
 70
   192
  0
VERTEX
  5
E72
  8
0
 10
-241.7499999999989
 20
-590.5000000000002
 30
-14.0
 70
   192
  0
VERTEX
  5
E73
  8
0
 10
-241.7499999999989
 20
-586.7500000000001
 30
-14.0
 70
   192
  0
VERTEX
  5
E74
  8
0
 10
0.0
 20
0.0
 30
0.0
 70
   128
 71
     1
 72
     4
 73
    -3
  0
VERTEX
  5
E75
  8
0
 10
0.0
 20
0.0
 30
0.0
 70
   128
 71
    -1
 72
     3
 73
     2
  0
SEQEND
  5
1111
  8
0
  0
POLYLINE
  5
E76
  8
0
 66
     1
 10
0.0
 20
0.0
 30
0.0
 70
    64
 71
    10
 72
     8
  0
VERTEX
  5
E77
  8
0
 10
-234.2499999999994
 20
-590.5000000000002
 30
-14.0
 70
   192
  0
VERTEX
  5
E78
  8
0
 10
-241.7499999999989
 20
-590.5000000000002
 30
-14.0
 70
   192
  0
VERTEX
  5
E79
  8
0
 10
-241.749999999999
 20
-590.5000000000002
 30
-19.0
 70
   192
  0
VERTEX
  5
E7A
  8
0
 10
-234.2499999999994
 20
-590.5000000000002
 30
-19.0
 70
   192
  0
VERTEX
  5
E7B
  8
0
 10
-237.9999999999992
 20
-594.25
 30
-19.0
 70
   192
  0
VERTEX
  5
E7C
  8
0
 10
-237.9999999999992
 20
-594.25
 30
-14.0
 70
   192
  0
VERTEX
  5
E7D
  8
0
 10
-235.3483495705498
 20
-593.1516504294497
 30
-19.0
 70
   192
  0
VERTEX
  5
E7E
  8
0
 10
-235.3483495705498
 20
-593.1516504294497
 30
-14.0
 70
   192
  0
VERTEX
  5
E7F
  8
0
 10
-240.6516504294486
 20
-593.1516504294497
 30
-19.0
 70
   192
  0
VERTEX
  5
E80
  8
0
 10
-240.6516504294486
 20
-593.1516504294497
 30
-14.0
 70
   192
  0
VERTEX
  5
E81
  8
0
 10
0.0
 20
0.0
 30
0.0
 70
   128
 71
     4
 72
     7
 73
    -8
  0
VERTEX
  5
E82
  8
0
 10
0.0
 20
0.0
 30
0.0
 70
   128
 71
     1
 72
    -4
 73
     8
  0
VERTEX
  5
E83
  8
0
 10
0.0
 20
0.0
 30
0.0
 70
   128
 71
     7
 72
     5
 73
    -6
  0
VERTEX
  5
E84
  8
0
 10
0.0
 20
0.0
 30
0.0
 70
   128
 71
     8
 72
    -7
 73
     6
  0
VERTEX
  5
E85
  8
0
 10
0.0
 20
0.0
 30
0.0
 70
   128
 71
     5
 72
     9
 73
   -10
  0
VERTEX
  5
E86
  8
0
 10
0.0
 20
0.0
 30
0.0
 70
   128
 71
     6
 72
    -5
 73
    10
  0
VERTEX
  5
E87
  8
0
 10
0.0
 20
0.0
 30
0.0
 70
   128
 71
     9
 72
     3
 73
    -2
  0
VERTEX
  5
E88
  8
0
 10
0.0
 20
0.0
 30
0.0
 70
   128
 71
    10
 72
    -9
 73
     2
  0
SEQEND
  5
1112
  8
0
  0
ENDBLK
  5
10FE
  8
0
  0
BLOCK
  8
0
  2
*X4
 70
     1
 10
0.0
 20
0.0
 30
0.0
  3
*X4
  1

  0
POLYLINE
  5
E8A
  8
0
 66
     1
 10
0.0
 20
0.0
 30
0.0
 70
    64
 71
     8
 72
     6
  0
VERTEX
  5
E8B
  8
0
 10
273.6250000000001
 20
541.2475952641914
 30
-14.0
 70
   192
  0
VERTEX
  5
E8C
  8
0
 10
272.2524047358085
 20
539.8749999999999
 30
-14.0
 70
   192
  0
VERTEX
  5
E8D
  8
0
 10
272.2524047358085
 20
539.8749999999999
 30
-19.0
 70
   192
  0
VERTEX
  5
E8E
  8
0
 10
273.6250000000001
 20
541.2475952641914
 30
-19.0
 70
   192
  0
VERTEX
  5
E8F
  8
0
 10
271.7500000000002
 20
538.0
 30
-14.0
 70
   192
  0
VERTEX
  5
E90
  8
0
 10
271.7500000000002
 20
538.0
 30
-19.0
 70
   192
  0
VERTEX
  5
E91
  8
0
 10
275.5
 20
541.7499999999998
 30
-14.0
 70
   192
  0
VERTEX
  5
E92
  8
0
 10
275.5
 20
541.7499999999998
 30
-19.0
 70
   192
  0
VERTEX
  5
E93
  8
0
 10
0.0
 20
0.0
 30
0.0
 70
   128
 71
     1
 72
     2
 73
    -3
  0
VERTEX
  5
E94
  8
0
 10
0.0
 20
0.0
 30
0.0
 70
   128
 71
     4
 72
    -1
 73
     3
  0
VERTEX
  5
E95
  8
0
 10
0.0
 20
0.0
 30
0.0
 70
   128
 71
     2
 72
     5
 73
    -6
  0
VERTEX
  5
E96
  8
0
 10
0.0
 20
0.0
 30
0.0
 70
   128
 71
     3
 72
    -2
 73
     6
  0
VERTEX
  5
E97
  8
0
 10
0.0
 20
0.0
 30
0.0
 70
   128
 71
     7
 72
     1
 73
    -4
  0
VERTEX
  5
E98
  8
0
 10
0.0
 20
0.0
 30
0.0
 70
   128
 71
     8
 72
    -7
 73
     4
  0
SEQEND
  5
1115
  8
0
  0
POLYLINE
  5
E99
  8
0
 66
     1
 10
0.0
 20
0.0
 30
0.0
 70
    64
 71
    32
 72
    32
  0
VERTEX
  5
E9A
  8
0
 10
266.0
 20
-565.9999999999998
 30
-18.99999999999991
 70
   192
  0
VERTEX
  5
E9B
  8
0
 10
266.0
 20
566.0000000000002
 30
-18.99999999999991
 70
   192
  0
VERTEX
  5
E9C
  8
0
 10
300.0000000000001
 20
600.0000000000002
 30
-18.99999999999991
 70
   192
  0
VERTEX
  5
E9D
  8
0
 10
300.0000000000001
 20
-599.9999999999999
 30
-18.99999999999991
 70
   192
  0
VERTEX
  5
E9E
  8
0
 10
279.2500000000002
 20
545.5
 30
-19.0
 70
   192
  0
VERTEX
  5
E9F
  8
0
 10
279.2500000000002
 20
541.7499999999998
 30
-19.0
 70
   192
  0
VERTEX
  5
EA0
  8
0
 10
275.5
 20
541.7499999999998
 30
-19.0
 70
   192
  0
VERTEX
  5
EA1
  8
0
 10
273.6250000000001
 20
541.2475952641914
 30
-19.0
 70
   192
  0
VERTEX
  5
EA2
  8
0
 10
272.2524047358085
 20
539.8749999999999
 30
-19.0
 70
   192
  0
VERTEX
  5
EA3
  8
0
 10
271.7500000000002
 20
538.0
 30
-19.0
 70
   192
  0
VERTEX
  5
EA4
  8
0
 10
272.2524047358085
 20
536.1250000000001
 30
-19.0
 70
   192
  0
VERTEX
  5
EA5
  8
0
 10
273.6250000000001
 20
534.7524047358086
 30
-19.0
 70
   192
  0
VERTEX
  5
EA6
  8
0
 10
275.5
 20
534.2500000000002
 30
-19.0
 70
   192
  0
VERTEX
  5
EA7
  8
0
 10
279.2500000000002
 20
534.2500000000001
 30
-19.0
 70
   192
  0
VERTEX
  5
EA8
  8
0
 10
279.2500000000002
 20
530.5000000000001
 30
-19.0
 70
   192
  0
VERTEX
  5
EA9
  8
0
 10
279.966186271094
 20
528.2958053039034
 30
-19.0
 70
   192
  0
VERTEX
  5
EAA
  8
0
 10
281.841186271094
 20
526.9335380638934
 30
-19.0
 70
   192
  0
VERTEX
  5
EAB
  8
0
 10
284.158813728906
 20
526.9335380638933
 30
-19.0
 70
   192
  0
VERTEX
  5
EAC
  8
0
 10
286.033813728906
 20
528.2958053039033
 30
-19.0
 70
   192
  0
VERTEX
  5
EAD
  8
0
 10
286.7499999999999
 20
530.5
 30
-19.0
 70
   192
  0
VERTEX
  5
EAE
  8
0
 10
286.7499999999999
 20
534.2500000000001
 30
-19.0
 70
   192
  0
VERTEX
  5
EAF
  8
0
 10
290.5000000000001
 20
534.2500000000001
 30
-19.0
 70
   192
  0
VERTEX
  5
EB0
  8
0
 10
293.1516504294494
 20
535.3483495705506
 30
-19.0
 70
   192
  0
VERTEX
  5
EB1
  8
0
 10
294.2499999999998
 20
538.0
 30
-19.0
 70
   192
  0
VERTEX
  5
EB2
  8
0
 10
293.1516504294494
 20
540.6516504294494
 30
-19.0
 70
   192
  0
VERTEX
  5
EB3
  8
0
 10
290.5000000000001
 20
541.7499999999998
 30
-19.0
 70
   192
  0
VERTEX
  5
EB4
  8
0
 10
286.7499999999999
 20
541.7499999999998
 30
-19.0
 70
   192
  0
VERTEX
  5
EB5
  8
0
 10
286.7499999999999
 20
545.5000000000001
 30
-19.0
 70
   192
  0
VERTEX
  5
EB6
  8
0
 10
286.033813728906
 20
547.7041946960968
 30
-19.0
 70
   192
  0
VERTEX
  5
EB7
  8
0
 10
284.158813728906
 20
549.0664619361069
 30
-19.0
 70
   192
  0
VERTEX
  5
EB8
  8
0
 10
281.841186271094
 20
549.0664619361067
 30
-19.0
 70
   192
  0
VERTEX
  5
EB9
  8
0
 10
279.966186271094
 20
547.7041946960967
 30
-19.0
 70
   192
  0
VERTEX
  5
EBA
  8
0
 10
0.0
 20
0.0
 30
0.0
 70
   128
 71
    13
 72
    14
 73
   -15
  0
VERTEX
  5
EBB
  8
0
 10
0.0
 20
0.0
 30
0.0
 70
   128
 71
    15
 72
   -16
 73
   -13
  0
VERTEX
  5
EBC
  8
0
 10
0.0
 20
0.0
 30
0.0
 70
   128
 71
     5
 72
     6
 73
    -7
  0
VERTEX
  5
EBD
  8
0
 10
0.0
 20
0.0
 30
0.0
 70
   128
 71
    -2
 72
    -5
 73
    -7
  0
VERTEX
  5
EBE
  8
0
 10
0.0
 20
0.0
 30
0.0
 70
   128
 71
     7
 72
    -8
 73
    -2
  0
VERTEX
  5
EBF
  8
0
 10
0.0
 20
0.0
 30
0.0
 70
   128
 71
     8
 72
    -9
 73
    -2
  0
VERTEX
  5
EC0
  8
0
 10
0.0
 20
0.0
 30
0.0
 70
   128
 71
     9
 72
   -10
 73
    -2
  0
VERTEX
  5
EC1
  8
0
 10
0.0
 20
0.0
 30
0.0
 70
   128
 71
     1
 72
    -2
 73
   -10
  0
VERTEX
  5
EC2
  8
0
 10
0.0
 20
0.0
 30
0.0
 70
   128
 71
    10
 72
   -11
 73
    -1
  0
VERTEX
  5
EC3
  8
0
 10
0.0
 20
0.0
 30
0.0
 70
   128
 71
    11
 72
   -12
 73
    -1
  0
VERTEX
  5
EC4
  8
0
 10
0.0
 20
0.0
 30
0.0
 70
   128
 71
    12
 72
   -13
 73
   -16
  0
VERTEX
  5
EC5
  8
0
 10
0.0
 20
0.0
 30
0.0
 70
   128
 71
    -1
 72
   -12
 73
   -16
  0
VERTEX
  5
EC6
  8
0
 10
0.0
 20
0.0
 30
0.0
 70
   128
 71
    16
 72
   -17
 73
    -1
  0
VERTEX
  5
EC7
  8
0
 10
0.0
 20
0.0
 30
0.0
 70
   128
 71
    17
 72
   -18
 73
    -1
  0
VERTEX
  5
EC8
  8
0
 10
0.0
 20
0.0
 30
0.0
 70
   128
 71
    18
 72
   -19
 73
    -1
  0
VERTEX
  5
EC9
  8
0
 10
0.0
 20
0.0
 30
0.0
 70
   128
 71
   -19
 72
   -22
 73
    -1
  0
VERTEX
  5
ECA
  8
0
 10
0.0
 20
0.0
 30
0.0
 70
   128
 71
    19
 72
   -20
 73
   -22
  0
VERTEX
  5
ECB
  8
0
 10
0.0
 20
0.0
 30
0.0
 70
   128
 71
    20
 72
    21
 73
   -22
  0
VERTEX
  5
ECC
  8
0
 10
0.0
 20
0.0
 30
0.0
 70
   128
 71
    22
 72
   -23
 73
    -1
  0
VERTEX
  5
ECD
  8
0
 10
0.0
 20
0.0
 30
0.0
 70
   128
 71
    23
 72
   -24
 73
    -1
  0
VERTEX
  5
ECE
  8
0
 10
0.0
 20
0.0
 30
0.0
 70
   128
 71
     4
 72
    -1
 73
   -24
  0
VERTEX
  5
ECF
  8
0
 10
0.0
 20
0.0
 30
0.0
 70
   128
 71
   -24
 72
     3
 73
    -4
  0
VERTEX
  5
ED0
  8
0
 10
0.0
 20
0.0
 30
0.0
 70
   128
 71
    24
 72
   -25
 73
    -3
  0
VERTEX
  5
ED1
  8
0
 10
0.0
 20
0.0
 30
0.0
 70
   128
 71
    25
 72
   -26
 73
    -3
  0
VERTEX
  5
ED2
  8
0
 10
0.0
 20
0.0
 30
0.0
 70
   128
 71
    27
 72
   -28
 73
    -3
  0
VERTEX
  5
ED3
  8
0
 10
0.0
 20
0.0
 30
0.0
 70
   128
 71
    26
 72
   -27
 73
    -3
  0
VERTEX
  5
ED4
  8
0
 10
0.0
 20
0.0
 30
0.0
 70
   128
 71
    28
 72
   -29
 73
    -3
  0
VERTEX
  5
ED5
  8
0
 10
0.0
 20
0.0
 30
0.0
 70
   128
 71
    29
 72
   -30
 73
    -3
  0
VERTEX
  5
ED6
  8
0
 10
0.0
 20
0.0
 30
0.0
 70
   128
 71
   -31
 72
     2
 73
    -3
  0
VERTEX
  5
ED7
  8
0
 10
0.0
 20
0.0
 30
0.0
 70
   128
 71
    30
 72
   -31
 73
    -3
  0
VERTEX
  5
ED8
  8
0
 10
0.0
 20
0.0
 30
0.0
 70
   128
 71
    31
 72
   -32
 73
    -2
  0
VERTEX
  5
ED9
  8
0
 10
0.0
 20
0.0
 30
0.0
 70
   128
 71
    32
 72
    -5
 73
    -2
  0
SEQEND
  5
1116
  8
0
  0
POLYLINE
  5
EDA
  8
0
 66
     1
 10
0.0
 20
0.0
 30
0.0
 70
    64
 71
     4
 72
     2
  0
VERTEX
  5
EDB
  8
0
 10
266.0000000000001
 20
566.0000000000002
 30
0.0
 70
   192
  0
VERTEX
  5
EDC
  8
0
 10
300.0000000000001
 20
600.0000000000002
 30
0.0
 70
   192
  0
VERTEX
  5
EDD
  8
0
 10
300.0
 20
-599.9999999999998
 30
0.0
 70
   192
  0
VERTEX
  5
EDE
  8
0
 10
266.0
 20
-565.9999999999998
 30
0.0
 70
   192
  0
VERTEX
  5
EDF
  8
0
 10
0.0
 20
0.0
 30
0.0
 70
   128
 71
     1
 72
     4
 73
    -3
  0
VERTEX
  5
EE0
  8
0
 10
0.0
 20
0.0
 30
0.0
 70
   128
 71
    -1
 72
     3
 73
     2
  0
SEQEND
  5
1117
  8
0
  0
POLYLINE
  5
EE1
  8
0
 66
     1
 10
0.0
 20
0.0
 30
0.0
 70
    64
 71
     4
 72
     2
  0
VERTEX
  5
EE2
  8
0
 10
266.0
 20
-565.9999999999998
 30
0.0
 70
   192
  0
VERTEX
  5
EE3
  8
0
 10
266.0
 20
-565.9999999999998
 30
-19.0
 70
   192
  0
VERTEX
  5
EE4
  8
0
 10
300.0
 20
-599.9999999999998
 30
-18.99999999999991
 70
   192
  0
VERTEX
  5
EE5
  8
0
 10
300.0000000000001
 20
-599.9999999999999
 30
0.0
 70
   192
  0
VERTEX
  5
EE6
  8
0
 10
0.0
 20
0.0
 30
0.0
 70
   128
 71
     3
 72
     4
 73
    -1
  0
VERTEX
  5
EE7
  8
0
 10
0.0
 20
0.0
 30
0.0
 70
   128
 71
     2
 72
    -3
 73
     1
  0
SEQEND
  5
1118
  8
0
  0
POLYLINE
  5
EE8
  8
0
 66
     1
 10
0.0
 20
0.0
 30
0.0
 70
    64
 71
     4
 72
     2
  0
VERTEX
  5
EE9
  8
0
 10
300.0000000000001
 20
-599.9999999999999
 30
-19.0
 70
   192
  0
VERTEX
  5
EEA
  8
0
 10
300.0000000000001
 20
-599.9999999999999
 30
0.0
 70
   192
  0
VERTEX
  5
EEB
  8
0
 10
300.0000000000001
 20
600.0000000000002
 30
0.0
 70
   192
  0
VERTEX
  5
EEC
  8
0
 10
300.0000000000001
 20
600.0000000000002
 30
-18.99999999999991
 70
   192
  0
VERTEX
  5
EED
  8
0
 10
0.0
 20
0.0
 30
0.0
 70
   128
 71
     1
 72
     4
 73
    -3
  0
VERTEX
  5
EEE
  8
0
 10
0.0
 20
0.0
 30
0.0
 70
   128
 71
    -1
 72
     3
 73
     2
  0
SEQEND
  5
1119
  8
0
  0
POLYLINE
  5
EEF
  8
0
 66
     1
 10
0.0
 20
0.0
 30
0.0
 70
    64
 71
     4
 72
     2
  0
VERTEX
  5
EF0
  8
0
 10
300.0000000000001
 20
600.0000000000002
 30
0.0
 70
   192
  0
VERTEX
  5
EF1
  8
0
 10
300.0000000000001
 20
600.0000000000002
 30
-19.0
 70
   192
  0
VERTEX
  5
EF2
  8
0
 10
266.0000000000001
 20
566.0000000000002
 30
-18.99999999999991
 70
   192
  0
VERTEX
  5
EF3
  8
0
 10
266.0000000000001
 20
566.0000000000001
 30
0.0
 70
   192
  0
VERTEX
  5
EF4
  8
0
 10
0.0
 20
0.0
 30
0.0
 70
   128
 71
     3
 72
     4
 73
    -1
  0
VERTEX
  5
EF5
  8
0
 10
0.0
 20
0.0
 30
0.0
 70
   128
 71
     2
 72
    -3
 73
     1
  0
SEQEND
  5
111A
  8
0
  0
POLYLINE
  5
EF6
  8
0
 66
     1
 10
0.0
 20
0.0
 30
0.0
 70
    64
 71
     4
 72
     2
  0
VERTEX
  5
EF7
  8
0
 10
266.0000000000001
 20
566.0000000000001
 30
0.0
 70
   192
  0
VERTEX
  5
EF8
  8
0
 10
266.0000000000001
 20
566.0000000000001
 30
-19.0
 70
   192
  0
VERTEX
  5
EF9
  8
0
 10
266.0
 20
-565.9999999999998
 30
-18.99999999999991
 70
   192
  0
VERTEX
  5
EFA
  8
0
 10
266.0
 20
-565.9999999999998
 30
0.0
 70
   192
  0
VERTEX
  5
EFB
  8
0
 10
0.0
 20
0.0
 30
0.0
 70
   128
 71
     3
 72
     4
 73
    -1
  0
VERTEX
  5
EFC
  8
0
 10
0.0
 20
0.0
 30
0.0
 70
   128
 71
     2
 72
    -3
 73
     1
  0
SEQEND
  5
111B
  8
0
  0
POLYLINE
  5
EFD
  8
0
 66
     1
 10
0.0
 20
0.0
 30
0.0
 70
    64
 71
    12
 72
    10
  0
VERTEX
  5
EFE
  8
0
 10
279.2500000000002
 20
545.5
 30
-14.0
 70
   192
  0
VERTEX
  5
EFF
  8
0
 10
279.2500000000002
 20
545.5
 30
-19.0
 70
   192
  0
VERTEX
  5
F00
  8
0
 10
279.966186271094
 20
547.7041946960967
 30
-19.0
 70
   192
  0
VERTEX
  5
F01
  8
0
 10
279.966186271094
 20
547.7041946960967
 30
-14.0
 70
   192
  0
VERTEX
  5
F02
  8
0
 10
286.7499999999999
 20
545.5000000000001
 30
-19.0
 70
   192
  0
VERTEX
  5
F03
  8
0
 10
286.7499999999999
 20
545.5000000000001
 30
-14.0
 70
   192
  0
VERTEX
  5
F04
  8
0
 10
286.033813728906
 20
547.7041946960968
 30
-14.0
 70
   192
  0
VERTEX
  5
F05
  8
0
 10
286.033813728906
 20
547.7041946960968
 30
-19.0
 70
   192
  0
VERTEX
  5
F06
  8
0
 10
284.158813728906
 20
549.0664619361069
 30
-14.0
 70
   192
  0
VERTEX
  5
F07
  8
0
 10
281.841186271094
 20
549.0664619361067
 30
-14.0
 70
   192
  0
VERTEX
  5
F08
  8
0
 10
281.841186271094
 20
549.0664619361067
 30
-19.0
 70
   192
  0
VERTEX
  5
F09
  8
0
 10
284.158813728906
 20
549.0664619361069
 30
-19.0
 70
   192
  0
VERTEX
  5
F0A
  8
0
 10
0.0
 20
0.0
 30
0.0
 70
   128
 71
     1
 72
     2
 73
    -3
  0
VERTEX
  5
F0B
  8
0
 10
0.0
 20
0.0
 30
0.0
 70
   128
 71
     4
 72
    -1
 73
     3
  0
VERTEX
  5
F0C
  8
0
 10
0.0
 20
0.0
 30
0.0
 70
   128
 71
     5
 72
     6
 73
    -7
  0
VERTEX
  5
F0D
  8
0
 10
0.0
 20
0.0
 30
0.0
 70
   128
 71
     8
 72
    -5
 73
     7
  0
VERTEX
  5
F0E
  8
0
 10
0.0
 20
0.0
 30
0.0
 70
   128
 71
     9
 72
    10
 73
   -11
  0
VERTEX
  5
F0F
  8
0
 10
0.0
 20
0.0
 30
0.0
 70
   128
 71
    12
 72
    -9
 73
    11
  0
VERTEX
  5
F10
  8
0
 10
0.0
 20
0.0
 30
0.0
 70
   128
 71
    10
 72
     4
 73
    -3
  0
VERTEX
  5
F11
  8
0
 10
0.0
 20
0.0
 30
0.0
 70
   128
 71
    11
 72
   -10
 73
     3
  0
VERTEX
  5
F12
  8
0
 10
0.0
 20
0.0
 30
0.0
 70
   128
 71
     7
 72
     9
 73
   -12
  0
VERTEX
  5
F13
  8
0
 10
0.0
 20
0.0
 30
0.0
 70
   128
 71
     8
 72
    -7
 73
    12
  0
SEQEND
  5
111C
  8
0
  0
POLYLINE
  5
F14
  8
0
 66
     1
 10
0.0
 20
0.0
 30
0.0
 70
    64
 71
     4
 72
     2
  0
VERTEX
  5
F15
  8
0
 10
279.2500000000002
 20
541.7499999999998
 30
-14.0
 70
   192
  0
VERTEX
  5
F16
  8
0
 10
279.2500000000002
 20
541.7499999999998
 30
-19.0
 70
   192
  0
VERTEX
  5
F17
  8
0
 10
279.2500000000002
 20
545.5
 30
-19.0
 70
   192
  0
VERTEX
  5
F18
  8
0
 10
279.2500000000002
 20
545.5
 30
-14.0
 70
   192
  0
VERTEX
  5
F19
  8
0
 10
0.0
 20
0.0
 30
0.0
 70
   128
 71
     3
 72
     4
 73
    -1
  0
VERTEX
  5
F1A
  8
0
 10
0.0
 20
0.0
 30
0.0
 70
   128
 71
     2
 72
    -3
 73
     1
  0
SEQEND
  5
111D
  8
0
  0
POLYLINE
  5
F1B
  8
0
 66
     1
 10
0.0
 20
0.0
 30
0.0
 70
    64
 71
     4
 72
     2
  0
VERTEX
  5
F1C
  8
0
 10
286.7499999999999
 20
541.7499999999998
 30
-14.0
 70
   192
  0
VERTEX
  5
F1D
  8
0
 10
286.7499999999999
 20
541.7499999999998
 30
-19.0
 70
   192
  0
VERTEX
  5
F1E
  8
0
 10
286.7499999999999
 20
545.5000000000001
 30
-19.0
 70
   192
  0
VERTEX
  5
F1F
  8
0
 10
286.7499999999999
 20
545.5000000000001
 30
-14.0
 70
   192
  0
VERTEX
  5
F20
  8
0
 10
0.0
 20
0.0
 30
0.0
 70
   128
 71
     1
 72
     4
 73
    -3
  0
VERTEX
  5
F21
  8
0
 10
0.0
 20
0.0
 30
0.0
 70
   128
 71
    -1
 72
     3
 73
     2
  0
SEQEND
  5
111E
  8
0
  0
POLYLINE
  5
F22
  8
0
 66
     1
 10
0.0
 20
0.0
 30
0.0
 70
    64
 71
     4
 72
     2
  0
VERTEX
  5
F23
  8
0
 10
279.2500000000002
 20
534.2500000000001
 30
-14.0
 70
   192
  0
VERTEX
  5
F24
  8
0
 10
279.2500000000002
 20
530.5000000000001
 30
-14.0
 70
   192
  0
VERTEX
  5
F25
  8
0
 10
279.2500000000002
 20
530.5000000000001
 30
-19.0
 70
   192
  0
VERTEX
  5
F26
  8
0
 10
279.2500000000002
 20
534.2500000000001
 30
-19.0
 70
   192
  0
VERTEX
  5
F27
  8
0
 10
0.0
 20
0.0
 30
0.0
 70
   128
 71
     3
 72
     4
 73
    -1
  0
VERTEX
  5
F28
  8
0
 10
0.0
 20
0.0
 30
0.0
 70
   128
 71
     2
 72
    -3
 73
     1
  0
SEQEND
  5
111F
  8
0
  0
POLYLINE
  5
F29
  8
0
 66
     1
 10
0.0
 20
0.0
 30
0.0
 70
    64
 71
    12
 72
    10
  0
VERTEX
  5
F2A
  8
0
 10
286.7499999999999
 20
530.5
 30
-14.0
 70
   192
  0
VERTEX
  5
F2B
  8
0
 10
286.7499999999999
 20
530.5
 30
-19.0
 70
   192
  0
VERTEX
  5
F2C
  8
0
 10
286.033813728906
 20
528.2958053039033
 30
-19.0
 70
   192
  0
VERTEX
  5
F2D
  8
0
 10
286.033813728906
 20
528.2958053039033
 30
-14.0
 70
   192
  0
VERTEX
  5
F2E
  8
0
 10
279.2500000000002
 20
530.5000000000001
 30
-19.0
 70
   192
  0
VERTEX
  5
F2F
  8
0
 10
279.2500000000002
 20
530.5000000000001
 30
-14.0
 70
   192
  0
VERTEX
  5
F30
  8
0
 10
279.966186271094
 20
528.2958053039034
 30
-14.0
 70
   192
  0
VERTEX
  5
F31
  8
0
 10
279.966186271094
 20
528.2958053039034
 30
-19.0
 70
   192
  0
VERTEX
  5
F32
  8
0
 10
281.841186271094
 20
526.9335380638934
 30
-14.0
 70
   192
  0
VERTEX
  5
F33
  8
0
 10
284.158813728906
 20
526.9335380638933
 30
-14.0
 70
   192
  0
VERTEX
  5
F34
  8
0
 10
284.158813728906
 20
526.9335380638933
 30
-19.0
 70
   192
  0
VERTEX
  5
F35
  8
0
 10
281.841186271094
 20
526.9335380638934
 30
-19.0
 70
   192
  0
VERTEX
  5
F36
  8
0
 10
0.0
 20
0.0
 30
0.0
 70
   128
 71
     1
 72
     2
 73
    -3
  0
VERTEX
  5
F37
  8
0
 10
0.0
 20
0.0
 30
0.0
 70
   128
 71
     4
 72
    -1
 73
     3
  0
VERTEX
  5
F38
  8
0
 10
0.0
 20
0.0
 30
0.0
 70
   128
 71
     5
 72
     6
 73
    -7
  0
VERTEX
  5
F39
  8
0
 10
0.0
 20
0.0
 30
0.0
 70
   128
 71
     8
 72
    -5
 73
     7
  0
VERTEX
  5
F3A
  8
0
 10
0.0
 20
0.0
 30
0.0
 70
   128
 71
     9
 72
    10
 73
   -11
  0
VERTEX
  5
F3B
  8
0
 10
0.0
 20
0.0
 30
0.0
 70
   128
 71
    12
 72
    -9
 73
    11
  0
VERTEX
  5
F3C
  8
0
 10
0.0
 20
0.0
 30
0.0
 70
   128
 71
    10
 72
     4
 73
    -3
  0
VERTEX
  5
F3D
  8
0
 10
0.0
 20
0.0
 30
0.0
 70
   128
 71
    11
 72
   -10
 73
     3
  0
VERTEX
  5
F3E
  8
0
 10
0.0
 20
0.0
 30
0.0
 70
   128
 71
     7
 72
     9
 73
   -12
  0
VERTEX
  5
F3F
  8
0
 10
0.0
 20
0.0
 30
0.0
 70
   128
 71
     8
 72
    -7
 73
    12
  0
SEQEND
  5
1120
  8
0
  0
POLYLINE
  5
F40
  8
0
 66
     1
 10
0.0
 20
0.0
 30
0.0
 70
    64
 71
     4
 72
     2
  0
VERTEX
  5
F41
  8
0
 10
286.7499999999999
 20
534.2500000000001
 30
-14.0
 70
   192
  0
VERTEX
  5
F42
  8
0
 10
286.7499999999999
 20
530.5
 30
-14.0
 70
   192
  0
VERTEX
  5
F43
  8
0
 10
286.7499999999999
 20
530.5
 30
-19.0
 70
   192
  0
VERTEX
  5
F44
  8
0
 10
286.7499999999999
 20
534.2500000000001
 30
-19.0
 70
   192
  0
VERTEX
  5
F45
  8
0
 10
0.0
 20
0.0
 30
0.0
 70
   128
 71
     1
 72
     4
 73
    -3
  0
VERTEX
  5
F46
  8
0
 10
0.0
 20
0.0
 30
0.0
 70
   128
 71
    -1
 72
     3
 73
     2
  0
SEQEND
  5
1121
  8
0
  0
POLYLINE
  5
F47
  8
0
 66
     1
 10
0.0
 20
0.0
 30
0.0
 70
    64
 71
     8
 72
     6
  0
VERTEX
  5
F48
  8
0
 10
272.2524047358085
 20
536.1250000000001
 30
-14.0
 70
   192
  0
VERTEX
  5
F49
  8
0
 10
273.6250000000001
 20
534.7524047358086
 30
-14.0
 70
   192
  0
VERTEX
  5
F4A
  8
0
 10
273.6250000000001
 20
534.7524047358086
 30
-19.0
 70
   192
  0
VERTEX
  5
F4B
  8
0
 10
272.2524047358085
 20
536.1250000000001
 30
-19.0
 70
   192
  0
VERTEX
  5
F4C
  8
0
 10
275.5
 20
534.2500000000002
 30
-14.0
 70
   192
  0
VERTEX
  5
F4D
  8
0
 10
275.5
 20
534.2500000000002
 30
-19.0
 70
   192
  0
VERTEX
  5
F4E
  8
0
 10
271.7500000000002
 20
538.0
 30
-14.0
 70
   192
  0
VERTEX
  5
F4F
  8
0
 10
271.7500000000002
 20
538.0
 30
-19.0
 70
   192
  0
VERTEX
  5
F50
  8
0
 10
0.0
 20
0.0
 30
0.0
 70
   128
 71
     1
 72
     2
 73
    -3
  0
VERTEX
  5
F51
  8
0
 10
0.0
 20
0.0
 30
0.0
 70
   128
 71
     4
 72
    -1
 73
     3
  0
VERTEX
  5
F52
  8
0
 10
0.0
 20
0.0
 30
0.0
 70
   128
 71
     2
 72
     5
 73
    -6
  0
VERTEX
  5
F53
  8
0
 10
0.0
 20
0.0
 30
0.0
 70
   128
 71
     3
 72
    -2
 73
     6
  0
VERTEX
  5
F54
  8
0
 10
0.0
 20
0.0
 30
0.0
 70
   128
 71
     7
 72
     1
 73
    -4
  0
VERTEX
  5
F55
  8
0
 10
0.0
 20
0.0
 30
0.0
 70
   128
 71
     8
 72
    -7
 73
     4
  0
SEQEND
  5
1122
  8
0
  0
POLYLINE
  5
F56
  8
0
 66
     1
 10
0.0
 20
0.0
 30
0.0
 70
    64
 71
     4
 72
     2
  0
VERTEX
  5
F57
  8
0
 10
279.2500000000002
 20
534.2500000000001
 30
-14.0
 70
   192
  0
VERTEX
  5
F58
  8
0
 10
275.5
 20
534.2500000000002
 30
-14.0
 70
   192
  0
VERTEX
  5
F59
  8
0
 10
275.5
 20
534.2500000000001
 30
-19.0
 70
   192
  0
VERTEX
  5
F5A
  8
0
 10
279.2500000000002
 20
534.2500000000001
 30
-19.0
 70
   192
  0
VERTEX
  5
F5B
  8
0
 10
0.0
 20
0.0
 30
0.0
 70
   128
 71
     1
 72
     4
 73
    -3
  0
VERTEX
  5
F5C
  8
0
 10
0.0
 20
0.0
 30
0.0
 70
   128
 71
    -1
 72
     3
 73
     2
  0
SEQEND
  5
1123
  8
0
  0
POLYLINE
  5
F5D
  8
0
 66
     1
 10
0.0
 20
0.0
 30
0.0
 70
    64
 71
     4
 72
     2
  0
VERTEX
  5
F5E
  8
0
 10
279.2500000000002
 20
541.7499999999998
 30
-14.0
 70
   192
  0
VERTEX
  5
F5F
  8
0
 10
275.5
 20
541.7499999999998
 30
-14.0
 70
   192
  0
VERTEX
  5
F60
  8
0
 10
275.5
 20
541.7499999999998
 30
-19.0
 70
   192
  0
VERTEX
  5
F61
  8
0
 10
279.2500000000002
 20
541.7499999999998
 30
-19.0
 70
   192
  0
VERTEX
  5
F62
  8
0
 10
0.0
 20
0.0
 30
0.0
 70
   128
 71
     3
 72
     4
 73
    -1
  0
VERTEX
  5
F63
  8
0
 10
0.0
 20
0.0
 30
0.0
 70
   128
 71
     2
 72
    -3
 73
     1
  0
SEQEND
  5
1124
  8
0
  0
POLYLINE
  5
F64
  8
0
 66
     1
 10
0.0
 20
0.0
 30
0.0
 70
    64
 71
    10
 72
     8
  0
VERTEX
  5
F65
  8
0
 10
290.5000000000001
 20
541.7499999999998
 30
-14.0
 70
   192
  0
VERTEX
  5
F66
  8
0
 10
290.5000000000001
 20
534.2500000000001
 30
-14.0
 70
   192
  0
VERTEX
  5
F67
  8
0
 10
290.5000000000001
 20
534.2500000000002
 30
-19.0
 70
   192
  0
VERTEX
  5
F68
  8
0
 10
290.5000000000001
 20
541.7499999999998
 30
-19.0
 70
   192
  0
VERTEX
  5
F69
  8
0
 10
294.2499999999998
 20
538.0
 30
-19.0
 70
   192
  0
VERTEX
  5
F6A
  8
0
 10
294.2499999999998
 20
538.0
 30
-14.0
 70
   192
  0
VERTEX
  5
F6B
  8
0
 10
293.1516504294494
 20
540.6516504294494
 30
-19.0
 70
   192
  0
VERTEX
  5
F6C
  8
0
 10
293.1516504294494
 20
540.6516504294494
 30
-14.0
 70
   192
  0
VERTEX
  5
F6D
  8
0
 10
293.1516504294494
 20
535.3483495705506
 30
-19.0
 70
   192
  0
VERTEX
  5
F6E
  8
0
 10
293.1516504294494
 20
535.3483495705506
 30
-14.0
 70
   192
  0
VERTEX
  5
F6F
  8
0
 10
0.0
 20
0.0
 30
0.0
 70
   128
 71
     4
 72
     7
 73
    -8
  0
VERTEX
  5
F70
  8
0
 10
0.0
 20
0.0
 30
0.0
 70
   128
 71
     1
 72
    -4
 73
     8
  0
VERTEX
  5
F71
  8
0
 10
0.0
 20
0.0
 30
0.0
 70
   128
 71
     7
 72
     5
 73
    -6
  0
VERTEX
  5
F72
  8
0
 10
0.0
 20
0.0
 30
0.0
 70
   128
 71
     8
 72
    -7
 73
     6
  0
VERTEX
  5
F73
  8
0
 10
0.0
 20
0.0
 30
0.0
 70
   128
 71
     5
 72
     9
 73
   -10
  0
VERTEX
  5
F74
  8
0
 10
0.0
 20
0.0
 30
0.0
 70
   128
 71
     6
 72
    -5
 73
    10
  0
VERTEX
  5
F75
  8
0
 10
0.0
 20
0.0
 30
0.0
 70
   128
 71
     9
 72
     3
 73
    -2
  0
VERTEX
  5
F76
  8
0
 10
0.0
 20
0.0
 30
0.0
 70
   128
 71
    10
 72
    -9
 73
     2
  0
SEQEND
  5
1125
  8
0
  0
POLYLINE
  5
F77
  8
0
 66
     1
 10
0.0
 20
0.0
 30
0.0
 70
    64
 71
     4
 72
     2
  0
VERTEX
  5
F78
  8
0
 10
286.7499999999999
 20
541.7499999999998
 30
-14.0
 70
   192
  0
VERTEX
  5
F79
  8
0
 10
286.7499999999999
 20
541.7499999999998
 30
-19.0
 70
   192
  0
VERTEX
  5
F7A
  8
0
 10
290.5000000000001
 20
541.7499999999998
 30
-19.0
 70
   192
  0
VERTEX
  5
F7B
  8
0
 10
290.5000000000001
 20
541.7499999999998
 30
-14.0
 70
   192
  0
VERTEX
  5
F7C
  8
0
 10
0.0
 20
0.0
 30
0.0
 70
   128
 71
     3
 72
     4
 73
    -1
  0
VERTEX
  5
F7D
  8
0
 10
0.0
 20
0.0
 30
0.0
 70
   128
 71
     2
 72
    -3
 73
     1
  0
SEQEND
  5
1126
  8
0
  0
POLYLINE
  5
F7E
  8
0
 66
     1
 10
0.0
 20
0.0
 30
0.0
 70
    64
 71
     4
 72
     2
  0
VERTEX
  5
F7F
  8
0
 10
286.7499999999999
 20
534.2500000000001
 30
-14.0
 70
   192
  0
VERTEX
  5
F80
  8
0
 10
286.7499999999999
 20
534.2500000000001
 30
-19.0
 70
   192
  0
VERTEX
  5
F81
  8
0
 10
290.5000000000001
 20
534.2500000000001
 30
-19.0
 70
   192
  0
VERTEX
  5
F82
  8
0
 10
290.5000000000001
 20
534.2500000000001
 30
-14.0
 70
   192
  0
VERTEX
  5
F83
  8
0
 10
0.0
 20
0.0
 30
0.0
 70
   128
 71
     1
 72
     4
 73
    -3
  0
VERTEX
  5
F84
  8
0
 10
0.0
 20
0.0
 30
0.0
 70
   128
 71
    -1
 72
     3
 73
     2
  0
SEQEND
  5
1127
  8
0
  0
POLYLINE
  5
F85
  8
0
 66
     1
 10
0.0
 20
0.0
 30
0.0
 70
    64
 71
    28
 72
    26
  0
VERTEX
  5
F86
  8
0
 10
279.2500000000002
 20
534.2500000000001
 30
-14.0
 70
   192
  0
VERTEX
  5
F87
  8
0
 10
279.2500000000002
 20
530.5000000000001
 30
-14.0
 70
   192
  0
VERTEX
  5
F88
  8
0
 10
279.966186271094
 20
528.2958053039034
 30
-14.0
 70
   192
  0
VERTEX
  5
F89
  8
0
 10
281.841186271094
 20
526.9335380638934
 30
-14.0
 70
   192
  0
VERTEX
  5
F8A
  8
0
 10
284.158813728906
 20
526.9335380638933
 30
-14.0
 70
   192
  0
VERTEX
  5
F8B
  8
0
 10
286.033813728906
 20
528.2958053039033
 30
-14.0
 70
   192
  0
VERTEX
  5
F8C
  8
0
 10
286.7499999999999
 20
530.5
 30
-14.0
 70
   192
  0
VERTEX
  5
F8D
  8
0
 10
286.7499999999999
 20
534.2500000000001
 30
-14.0
 70
   192
  0
VERTEX
  5
F8E
  8
0
 10
290.5000000000001
 20
534.2500000000002
 30
-14.0
 70
   192
  0
VERTEX
  5
F8F
  8
0
 10
293.1516504294494
 20
535.3483495705506
 30
-14.0
 70
   192
  0
VERTEX
  5
F90
  8
0
 10
294.2499999999998
 20
538.0
 30
-14.0
 70
   192
  0
VERTEX
  5
F91
  8
0
 10
293.1516504294494
 20
540.6516504294494
 30
-14.0
 70
   192
  0
VERTEX
  5
F92
  8
0
 10
290.5000000000001
 20
541.7499999999998
 30
-14.0
 70
   192
  0
VERTEX
  5
F93
  8
0
 10
286.7499999999999
 20
541.7499999999998
 30
-14.0
 70
   192
  0
VERTEX
  5
F94
  8
0
 10
286.7499999999999
 20
545.5000000000001
 30
-14.0
 70
   192
  0
VERTEX
  5
F95
  8
0
 10
286.033813728906
 20
547.7041946960968
 30
-14.0
 70
   192
  0
VERTEX
  5
F96
  8
0
 10
284.158813728906
 20
549.0664619361069
 30
-14.0
 70
   192
  0
VERTEX
  5
F97
  8
0
 10
281.841186271094
 20
549.0664619361067
 30
-14.0
 70
   192
  0
VERTEX
  5
F98
  8
0
 10
279.966186271094
 20
547.7041946960967
 30
-14.0
 70
   192
  0
VERTEX
  5
F99
  8
0
 10
279.2500000000002
 20
545.5
 30
-14.0
 70
   192
  0
VERTEX
  5
F9A
  8
0
 10
279.2500000000002
 20
541.7499999999998
 30
-14.0
 70
   192
  0
VERTEX
  5
F9B
  8
0
 10
275.5
 20
541.7499999999998
 30
-14.0
 70
   192
  0
VERTEX
  5
F9C
  8
0
 10
273.6250000000001
 20
541.2475952641914
 30
-14.0
 70
   192
  0
VERTEX
  5
F9D
  8
0
 10
272.2524047358085
 20
539.8749999999999
 30
-14.0
 70
   192
  0
VERTEX
  5
F9E
  8
0
 10
271.7500000000002
 20
538.0
 30
-14.0
 70
   192
  0
VERTEX
  5
F9F
  8
0
 10
272.2524047358085
 20
536.1250000000001
 30
-14.0
 70
   192
  0
VERTEX
  5
FA0
  8
0
 10
273.6250000000001
 20
534.7524047358086
 30
-14.0
 70
   192
  0
VERTEX
  5
FA1
  8
0
 10
275.5
 20
534.2500000000001
 30
-14.0
 70
   192
  0
VERTEX
  5
FA2
  8
0
 10
0.0
 20
0.0
 30
0.0
 70
   128
 71
    21
 72
    20
 73
   -19
  0
VERTEX
  5
FA3
  8
0
 10
0.0
 20
0.0
 30
0.0
 70
   128
 71
   -21
 72
    19
 73
   -18
  0
VERTEX
  5
FA4
  8
0
 10
0.0
 20
0.0
 30
0.0
 70
   128
 71
   -21
 72
    18
 73
   -17
  0
VERTEX
  5
FA5
  8
0
 10
0.0
 20
0.0
 30
0.0
 70
   128
 71
   -21
 72
    17
 73
   -16
  0
VERTEX
  5
FA6
  8
0
 10
0.0
 20
0.0
 30
0.0
 70
   128
 71
   -21
 72
    16
 73
   -15
  0
VERTEX
  5
FA7
  8
0
 10
0.0
 20
0.0
 30
0.0
 70
   128
 71
   -21
 72
    15
 73
   -14
  0
VERTEX
  5
FA8
  8
0
 10
0.0
 20
0.0
 30
0.0
 70
   128
 71
   -14
 72
    -1
 73
   -21
  0
VERTEX
  5
FA9
  8
0
 10
0.0
 20
0.0
 30
0.0
 70
   128
 71
     1
 72
    28
 73
   -27
  0
VERTEX
  5
FAA
  8
0
 10
0.0
 20
0.0
 30
0.0
 70
   128
 71
    -1
 72
    27
 73
   -26
  0
VERTEX
  5
FAB
  8
0
 10
0.0
 20
0.0
 30
0.0
 70
   128
 71
    -1
 72
    26
 73
   -25
  0
VERTEX
  5
FAC
  8
0
 10
0.0
 20
0.0
 30
0.0
 70
   128
 71
    -1
 72
    25
 73
   -24
  0
VERTEX
  5
FAD
  8
0
 10
0.0
 20
0.0
 30
0.0
 70
   128
 71
    -1
 72
    24
 73
   -23
  0
VERTEX
  5
FAE
  8
0
 10
0.0
 20
0.0
 30
0.0
 70
   128
 71
    -1
 72
    23
 73
   -22
  0
VERTEX
  5
FAF
  8
0
 10
0.0
 20
0.0
 30
0.0
 70
   128
 71
    -1
 72
    22
 73
   -21
  0
VERTEX
  5
FB0
  8
0
 10
0.0
 20
0.0
 30
0.0
 70
   128
 71
     8
 72
     7
 73
    -6
  0
VERTEX
  5
FB1
  8
0
 10
0.0
 20
0.0
 30
0.0
 70
   128
 71
    -8
 72
     6
 73
    -5
  0
VERTEX
  5
FB2
  8
0
 10
0.0
 20
0.0
 30
0.0
 70
   128
 71
    -8
 72
     5
 73
    -4
  0
VERTEX
  5
FB3
  8
0
 10
0.0
 20
0.0
 30
0.0
 70
   128
 71
    -8
 72
     4
 73
    -3
  0
VERTEX
  5
FB4
  8
0
 10
0.0
 20
0.0
 30
0.0
 70
   128
 71
    -8
 72
     3
 73
    -2
  0
VERTEX
  5
FB5
  8
0
 10
0.0
 20
0.0
 30
0.0
 70
   128
 71
    -8
 72
     2
 73
    -1
  0
VERTEX
  5
FB6
  8
0
 10
0.0
 20
0.0
 30
0.0
 70
   128
 71
    -1
 72
   -14
 73
    -8
  0
VERTEX
  5
FB7
  8
0
 10
0.0
 20
0.0
 30
0.0
 70
   128
 71
    14
 72
    13
 73
   -12
  0
VERTEX
  5
FB8
  8
0
 10
0.0
 20
0.0
 30
0.0
 70
   128
 71
   -14
 72
    12
 73
   -11
  0
VERTEX
  5
FB9
  8
0
 10
0.0
 20
0.0
 30
0.0
 70
   128
 71
   -14
 72
    11
 73
   -10
  0
VERTEX
  5
FBA
  8
0
 10
0.0
 20
0.0
 30
0.0
 70
   128
 71
   -14
 72
    10
 73
    -9
  0
VERTEX
  5
FBB
  8
0
 10
0.0
 20
0.0
 30
0.0
 70
   128
 71
   -14
 72
     9
 73
    -8
  0
SEQEND
  5
1128
  8
0
  0
ENDBLK
  5
1114
  8
0
  0
BLOCK
  8
0
  2
*X5
 70
     1
 10
0.0
 20
0.0
 30
0.0
  3
*X5
  1

  0
POLYLINE
  5
FBD
  8
0
 66
     1
 10
0.0
 20
0.0
 30
0.0
 70
    64
 71
     8
 72
     6
  0
VERTEX
  5
FBE
  8
0
 10
-292.3749999999999
 20
541.2475952641914
 30
-14.0
 70
   192
  0
VERTEX
  5
FBF
  8
0
 10
-293.7475952641915
 20
539.8749999999999
 30
-14.0
 70
   192
  0
VERTEX
  5
FC0
  8
0
 10
-293.7475952641915
 20
539.8749999999999
 30
-19.0
 70
   192
  0
VERTEX
  5
FC1
  8
0
 10
-292.3749999999999
 20
541.2475952641914
 30
-19.0
 70
   192
  0
VERTEX
  5
FC2
  8
0
 10
-294.2499999999999
 20
538.0
 30
-14.0
 70
   192
  0
VERTEX
  5
FC3
  8
0
 10
-294.2499999999998
 20
538.0
 30
-19.0
 70
   192
  0
VERTEX
  5
FC4
  8
0
 10
-290.5000000000001
 20
541.7499999999998
 30
-14.0
 70
   192
  0
VERTEX
  5
FC5
  8
0
 10
-290.5000000000001
 20
541.7499999999998
 30
-19.0
 70
   192
  0
VERTEX
  5
FC6
  8
0
 10
0.0
 20
0.0
 30
0.0
 70
   128
 71
     1
 72
     2
 73
    -3
  0
VERTEX
  5
FC7
  8
0
 10
0.0
 20
0.0
 30
0.0
 70
   128
 71
     4
 72
    -1
 73
     3
  0
VERTEX
  5
FC8
  8
0
 10
0.0
 20
0.0
 30
0.0
 70
   128
 71
     2
 72
     5
 73
    -6
  0
VERTEX
  5
FC9
  8
0
 10
0.0
 20
0.0
 30
0.0
 70
   128
 71
     3
 72
    -2
 73
     6
  0
VERTEX
  5
FCA
  8
0
 10
0.0
 20
0.0
 30
0.0
 70
   128
 71
     7
 72
     1
 73
    -4
  0
VERTEX
  5
FCB
  8
0
 10
0.0
 20
0.0
 30
0.0
 70
   128
 71
     8
 72
    -7
 73
     4
  0
SEQEND
  5
112B
  8
0
  0
POLYLINE
  5
FCC
  8
0
 66
     1
 10
0.0
 20
0.0
 30
0.0
 70
    64
 71
    30
 72
    30
  0
VERTEX
  5
FCD
  8
0
 10
-265.9999999999999
 20
566.0000000000001
 30
-18.99999999999991
 70
   192
  0
VERTEX
  5
FCE
  8
0
 10
-265.9999999999999
 20
-565.9999999999999
 30
-18.99999999999991
 70
   192
  0
VERTEX
  5
FCF
  8
0
 10
-299.9999999999999
 20
-599.9999999999998
 30
-18.99999999999991
 70
   192
  0
VERTEX
  5
FD0
  8
0
 10
-299.9999999999999
 20
600.0000000000001
 30
-18.99999999999991
 70
   192
  0
VERTEX
  5
FD1
  8
0
 10
-286.7499999999999
 20
541.7499999999998
 30
-19.0
 70
   192
  0
VERTEX
  5
FD2
  8
0
 10
-290.5000000000001
 20
541.7499999999998
 30
-19.0
 70
   192
  0
VERTEX
  5
FD3
  8
0
 10
-292.3749999999999
 20
541.2475952641914
 30
-19.0
 70
   192
  0
VERTEX
  5
FD4
  8
0
 10
-293.7475952641915
 20
539.8749999999999
 30
-19.0
 70
   192
  0
VERTEX
  5
FD5
  8
0
 10
-294.2499999999999
 20
538.0
 30
-19.0
 70
   192
  0
VERTEX
  5
FD6
  8
0
 10
-293.7475952641915
 20
536.1250000000001
 30
-19.0
 70
   192
  0
VERTEX
  5
FD7
  8
0
 10
-292.3749999999999
 20
534.7524047358086
 30
-19.0
 70
   192
  0
VERTEX
  5
FD8
  8
0
 10
-290.5000000000001
 20
534.2500000000002
 30
-19.0
 70
   192
  0
VERTEX
  5
FD9
  8
0
 10
-286.7499999999999
 20
534.2500000000001
 30
-19.0
 70
   192
  0
VERTEX
  5
FDA
  8
0
 10
-286.7499999999999
 20
530.5
 30
-19.0
 70
   192
  0
VERTEX
  5
FDB
  8
0
 10
-285.6516504294495
 20
527.8483495705506
 30
-19.0
 70
   192
  0
VERTEX
  5
FDC
  8
0
 10
-283.0000000000001
 20
526.7500000000001
 30
-19.0
 70
   192
  0
VERTEX
  5
FDD
  8
0
 10
-280.3483495705506
 20
527.8483495705506
 30
-19.0
 70
   192
  0
VERTEX
  5
FDE
  8
0
 10
-279.2500000000002
 20
530.5
 30
-19.0
 70
   192
  0
VERTEX
  5
FDF
  8
0
 10
-279.2500000000002
 20
534.2500000000001
 30
-19.0
 70
   192
  0
VERTEX
  5
FE0
  8
0
 10
-275.5
 20
534.2500000000001
 30
-19.0
 70
   192
  0
VERTEX
  5
FE1
  8
0
 10
-272.8483495705506
 20
535.3483495705506
 30
-19.0
 70
   192
  0
VERTEX
  5
FE2
  8
0
 10
-271.7500000000002
 20
538.0
 30
-19.0
 70
   192
  0
VERTEX
  5
FE3
  8
0
 10
-272.8483495705506
 20
540.6516504294494
 30
-19.0
 70
   192
  0
VERTEX
  5
FE4
  8
0
 10
-275.5
 20
541.7499999999998
 30
-19.0
 70
   192
  0
VERTEX
  5
FE5
  8
0
 10
-279.2500000000002
 20
541.7499999999998
 30
-19.0
 70
   192
  0
VERTEX
  5
FE6
  8
0
 10
-279.2500000000002
 20
545.5
 30
-19.0
 70
   192
  0
VERTEX
  5
FE7
  8
0
 10
-280.3483495705506
 20
548.1516504294494
 30
-19.0
 70
   192
  0
VERTEX
  5
FE8
  8
0
 10
-283.0000000000001
 20
549.2499999999999
 30
-19.0
 70
   192
  0
VERTEX
  5
FE9
  8
0
 10
-285.6516504294495
 20
548.1516504294494
 30
-19.0
 70
   192
  0
VERTEX
  5
FEA
  8
0
 10
-286.7499999999999
 20
545.5
 30
-19.0
 70
   192
  0
VERTEX
  5
FEB
  8
0
 10
0.0
 20
0.0
 30
0.0
 70
   128
 71
    12
 72
    13
 73
   -14
  0
VERTEX
  5
FEC
  8
0
 10
0.0
 20
0.0
 30
0.0
 70
   128
 71
    30
 72
     5
 73
    -6
  0
VERTEX
  5
FED
  8
0
 10
0.0
 20
0.0
 30
0.0
 70
   128
 71
    -4
 72
   -30
 73
    -6
  0
VERTEX
  5
FEE
  8
0
 10
0.0
 20
0.0
 30
0.0
 70
   128
 71
     6
 72
    -7
 73
    -4
  0
VERTEX
  5
FEF
  8
0
 10
0.0
 20
0.0
 30
0.0
 70
   128
 71
     7
 72
    -8
 73
    -4
  0
VERTEX
  5
FF0
  8
0
 10
0.0
 20
0.0
 30
0.0
 70
   128
 71
     8
 72
    -9
 73
    -4
  0
VERTEX
  5
FF1
  8
0
 10
0.0
 20
0.0
 30
0.0
 70
   128
 71
     3
 72
    -4
 73
    -9
  0
VERTEX
  5
FF2
  8
0
 10
0.0
 20
0.0
 30
0.0
 70
   128
 71
     9
 72
   -10
 73
    -3
  0
VERTEX
  5
FF3
  8
0
 10
0.0
 20
0.0
 30
0.0
 70
   128
 71
    10
 72
   -11
 73
    -3
  0
VERTEX
  5
FF4
  8
0
 10
0.0
 20
0.0
 30
0.0
 70
   128
 71
    14
 72
   -15
 73
    -3
  0
VERTEX
  5
FF5
  8
0
 10
0.0
 20
0.0
 30
0.0
 70
   128
 71
   -12
 72
   -14
 73
    -3
  0
VERTEX
  5
FF6
  8
0
 10
0.0
 20
0.0
 30
0.0
 70
   128
 71
    11
 72
   -12
 73
    -3
  0
VERTEX
  5
FF7
  8
0
 10
0.0
 20
0.0
 30
0.0
 70
   128
 71
    15
 72
   -16
 73
    -3
  0
VERTEX
  5
FF8
  8
0
 10
0.0
 20
0.0
 30
0.0
 70
   128
 71
    16
 72
   -17
 73
    -3
  0
VERTEX
  5
FF9
  8
0
 10
0.0
 20
0.0
 30
0.0
 70
   128
 71
   -20
 72
     2
 73
    -3
  0
VERTEX
  5
FFA
  8
0
 10
0.0
 20
0.0
 30
0.0
 70
   128
 71
   -17
 72
   -20
 73
    -3
  0
VERTEX
  5
FFB
  8
0
 10
0.0
 20
0.0
 30
0.0
 70
   128
 71
    17
 72
   -18
 73
   -20
  0
VERTEX
  5
FFC
  8
0
 10
0.0
 20
0.0
 30
0.0
 70
   128
 71
    18
 72
    19
 73
   -20
  0
VERTEX
  5
FFD
  8
0
 10
0.0
 20
0.0
 30
0.0
 70
   128
 71
    20
 72
   -21
 73
    -2
  0
VERTEX
  5
FFE
  8
0
 10
0.0
 20
0.0
 30
0.0
 70
   128
 71
    21
 72
   -22
 73
    -2
  0
VERTEX
  5
FFF
  8
0
 10
0.0
 20
0.0
 30
0.0
 70
   128
 71
   -22
 72
     1
 73
    -2
  0
VERTEX
  5
1000
  8
0
 10
0.0
 20
0.0
 30
0.0
 70
   128
 71
    22
 72
   -23
 73
    -1
  0
VERTEX
  5
1001
  8
0
 10
0.0
 20
0.0
 30
0.0
 70
   128
 71
    23
 72
   -24
 73
    -1
  0
VERTEX
  5
1002
  8
0
 10
0.0
 20
0.0
 30
0.0
 70
   128
 71
    25
 72
   -26
 73
    -1
  0
VERTEX
  5
1003
  8
0
 10
0.0
 20
0.0
 30
0.0
 70
   128
 71
    24
 72
   -25
 73
    -1
  0
VERTEX
  5
1004
  8
0
 10
0.0
 20
0.0
 30
0.0
 70
   128
 71
    26
 72
   -27
 73
    -1
  0
VERTEX
  5
1005
  8
0
 10
0.0
 20
0.0
 30
0.0
 70
   128
 71
    27
 72
   -28
 73
    -1
  0
VERTEX
  5
1006
  8
0
 10
0.0
 20
0.0
 30
0.0
 70
   128
 71
   -29
 72
     4
 73
    -1
  0
VERTEX
  5
1007
  8
0
 10
0.0
 20
0.0
 30
0.0
 70
   128
 71
    28
 72
   -29
 73
    -1
  0
VERTEX
  5
1008
  8
0
 10
0.0
 20
0.0
 30
0.0
 70
   128
 71
    29
 72
   -30
 73
    -4
  0
SEQEND
  5
112C
  8
0
  0
POLYLINE
  5
1009
  8
0
 66
     1
 10
0.0
 20
0.0
 30
0.0
 70
    64
 71
     4
 72
     2
  0
VERTEX
  5
100A
  8
0
 10
-265.9999999999999
 20
-565.9999999999998
 30
0.0
 70
   192
  0
VERTEX
  5
100B
  8
0
 10
-299.9999999999999
 20
-600.0
 30
0.0
 70
   192
  0
VERTEX
  5
100C
  8
0
 10
-299.9999999999999
 20
600.0000000000001
 30
0.0
 70
   192
  0
VERTEX
  5
100D
  8
0
 10
-265.9999999999999
 20
566.0000000000001
 30
0.0
 70
   192
  0
VERTEX
  5
100E
  8
0
 10
0.0
 20
0.0
 30
0.0
 70
   128
 71
     1
 72
     4
 73
    -3
  0
VERTEX
  5
100F
  8
0
 10
0.0
 20
0.0
 30
0.0
 70
   128
 71
    -1
 72
     3
 73
     2
  0
SEQEND
  5
112D
  8
0
  0
POLYLINE
  5
1010
  8
0
 66
     1
 10
0.0
 20
0.0
 30
0.0
 70
    64
 71
     4
 72
     2
  0
VERTEX
  5
1011
  8
0
 10
-265.9999999999999
 20
566.0000000000001
 30
0.0
 70
   192
  0
VERTEX
  5
1012
  8
0
 10
-265.9999999999999
 20
566.0000000000001
 30
-19.0
 70
   192
  0
VERTEX
  5
1013
  8
0
 10
-299.9999999999999
 20
600.0000000000001
 30
-18.99999999999991
 70
   192
  0
VERTEX
  5
1014
  8
0
 10
-299.9999999999999
 20
600.0000000000001
 30
0.0
 70
   192
  0
VERTEX
  5
1015
  8
0
 10
0.0
 20
0.0
 30
0.0
 70
   128
 71
     3
 72
     4
 73
    -1
  0
VERTEX
  5
1016
  8
0
 10
0.0
 20
0.0
 30
0.0
 70
   128
 71
     2
 72
    -3
 73
     1
  0
SEQEND
  5
112E
  8
0
  0
POLYLINE
  5
1017
  8
0
 66
     1
 10
0.0
 20
0.0
 30
0.0
 70
    64
 71
     4
 72
     2
  0
VERTEX
  5
1018
  8
0
 10
-299.9999999999999
 20
600.0000000000001
 30
-19.0
 70
   192
  0
VERTEX
  5
1019
  8
0
 10
-299.9999999999999
 20
600.0000000000001
 30
0.0
 70
   192
  0
VERTEX
  5
101A
  8
0
 10
-299.9999999999999
 20
-600.0
 30
0.0
 70
   192
  0
VERTEX
  5
101B
  8
0
 10
-299.9999999999999
 20
-600.0
 30
-18.99999999999991
 70
   192
  0
VERTEX
  5
101C
  8
0
 10
0.0
 20
0.0
 30
0.0
 70
   128
 71
     1
 72
     4
 73
    -3
  0
VERTEX
  5
101D
  8
0
 10
0.0
 20
0.0
 30
0.0
 70
   128
 71
    -1
 72
     3
 73
     2
  0
SEQEND
  5
112F
  8
0
  0
POLYLINE
  5
101E
  8
0
 66
     1
 10
0.0
 20
0.0
 30
0.0
 70
    64
 71
     4
 72
     2
  0
VERTEX
  5
101F
  8
0
 10
-299.9999999999999
 20
-600.0
 30
0.0
 70
   192
  0
VERTEX
  5
1020
  8
0
 10
-299.9999999999999
 20
-600.0
 30
-19.0
 70
   192
  0
VERTEX
  5
1021
  8
0
 10
-265.9999999999999
 20
-565.9999999999998
 30
-18.99999999999991
 70
   192
  0
VERTEX
  5
1022
  8
0
 10
-265.9999999999999
 20
-565.9999999999999
 30
0.0
 70
   192
  0
VERTEX
  5
1023
  8
0
 10
0.0
 20
0.0
 30
0.0
 70
   128
 71
     3
 72
     4
 73
    -1
  0
VERTEX
  5
1024
  8
0
 10
0.0
 20
0.0
 30
0.0
 70
   128
 71
     2
 72
    -3
 73
     1
  0
SEQEND
  5
1130
  8
0
  0
POLYLINE
  5
1025
  8
0
 66
     1
 10
0.0
 20
0.0
 30
0.0
 70
    64
 71
     4
 72
     2
  0
VERTEX
  5
1026
  8
0
 10
-265.9999999999999
 20
-565.9999999999999
 30
0.0
 70
   192
  0
VERTEX
  5
1027
  8
0
 10
-265.9999999999999
 20
-565.9999999999999
 30
-19.0
 70
   192
  0
VERTEX
  5
1028
  8
0
 10
-265.9999999999999
 20
566.0000000000001
 30
-18.99999999999991
 70
   192
  0
VERTEX
  5
1029
  8
0
 10
-265.9999999999999
 20
566.0000000000001
 30
0.0
 70
   192
  0
VERTEX
  5
102A
  8
0
 10
0.0
 20
0.0
 30
0.0
 70
   128
 71
     3
 72
     4
 73
    -1
  0
VERTEX
  5
102B
  8
0
 10
0.0
 20
0.0
 30
0.0
 70
   128
 71
     2
 72
    -3
 73
     1
  0
SEQEND
  5
1131
  8
0
  0
POLYLINE
  5
102C
  8
0
 66
     1
 10
0.0
 20
0.0
 30
0.0
 70
    64
 71
    10
 72
     8
  0
VERTEX
  5
102D
  8
0
 10
-279.2500000000002
 20
530.5
 30
-14.0
 70
   192
  0
VERTEX
  5
102E
  8
0
 10
-286.7499999999999
 20
530.5
 30
-14.0
 70
   192
  0
VERTEX
  5
102F
  8
0
 10
-286.7499999999999
 20
530.5
 30
-19.0
 70
   192
  0
VERTEX
  5
1030
  8
0
 10
-279.2500000000002
 20
530.5
 30
-19.0
 70
   192
  0
VERTEX
  5
1031
  8
0
 10
-283.0000000000001
 20
526.7500000000001
 30
-19.0
 70
   192
  0
VERTEX
  5
1032
  8
0
 10
-283.0000000000001
 20
526.7500000000001
 30
-14.0
 70
   192
  0
VERTEX
  5
1033
  8
0
 10
-280.3483495705506
 20
527.8483495705506
 30
-19.0
 70
   192
  0
VERTEX
  5
1034
  8
0
 10
-280.3483495705506
 20
527.8483495705506
 30
-14.0
 70
   192
  0
VERTEX
  5
1035
  8
0
 10
-285.6516504294495
 20
527.8483495705506
 30
-19.0
 70
   192
  0
VERTEX
  5
1036
  8
0
 10
-285.6516504294495
 20
527.8483495705506
 30
-14.0
 70
   192
  0
VERTEX
  5
1037
  8
0
 10
0.0
 20
0.0
 30
0.0
 70
   128
 71
     4
 72
     7
 73
    -8
  0
VERTEX
  5
1038
  8
0
 10
0.0
 20
0.0
 30
0.0
 70
   128
 71
     1
 72
    -4
 73
     8
  0
VERTEX
  5
1039
  8
0
 10
0.0
 20
0.0
 30
0.0
 70
   128
 71
     7
 72
     5
 73
    -6
  0
VERTEX
  5
103A
  8
0
 10
0.0
 20
0.0
 30
0.0
 70
   128
 71
     8
 72
    -7
 73
     6
  0
VERTEX
  5
103B
  8
0
 10
0.0
 20
0.0
 30
0.0
 70
   128
 71
     5
 72
     9
 73
   -10
  0
VERTEX
  5
103C
  8
0
 10
0.0
 20
0.0
 30
0.0
 70
   128
 71
     6
 72
    -5
 73
    10
  0
VERTEX
  5
103D
  8
0
 10
0.0
 20
0.0
 30
0.0
 70
   128
 71
     9
 72
     3
 73
    -2
  0
VERTEX
  5
103E
  8
0
 10
0.0
 20
0.0
 30
0.0
 70
   128
 71
    10
 72
    -9
 73
     2
  0
SEQEND
  5
1132
  8
0
  0
POLYLINE
  5
103F
  8
0
 66
     1
 10
0.0
 20
0.0
 30
0.0
 70
    64
 71
     4
 72
     2
  0
VERTEX
  5
1040
  8
0
 10
-279.2500000000002
 20
534.2500000000001
 30
-19.0
 70
   192
  0
VERTEX
  5
1041
  8
0
 10
-279.2500000000002
 20
534.2500000000001
 30
-14.0
 70
   192
  0
VERTEX
  5
1042
  8
0
 10
-279.2500000000002
 20
530.5
 30
-14.0
 70
   192
  0
VERTEX
  5
1043
  8
0
 10
-279.2500000000002
 20
530.5
 30
-19.0
 70
   192
  0
VERTEX
  5
1044
  8
0
 10
0.0
 20
0.0
 30
0.0
 70
   128
 71
     1
 72
     4
 73
    -3
  0
VERTEX
  5
1045
  8
0
 10
0.0
 20
0.0
 30
0.0
 70
   128
 71
    -1
 72
     3
 73
     2
  0
SEQEND
  5
1133
  8
0
  0
POLYLINE
  5
1046
  8
0
 66
     1
 10
0.0
 20
0.0
 30
0.0
 70
    64
 71
     4
 72
     2
  0
VERTEX
  5
1047
  8
0
 10
-286.7499999999999
 20
534.2500000000001
 30
-19.0
 70
   192
  0
VERTEX
  5
1048
  8
0
 10
-286.7499999999999
 20
534.2500000000001
 30
-14.0
 70
   192
  0
VERTEX
  5
1049
  8
0
 10
-286.7499999999999
 20
530.5
 30
-14.0
 70
   192
  0
VERTEX
  5
104A
  8
0
 10
-286.7499999999999
 20
530.5
 30
-19.0
 70
   192
  0
VERTEX
  5
104B
  8
0
 10
0.0
 20
0.0
 30
0.0
 70
   128
 71
     3
 72
     4
 73
    -1
  0
VERTEX
  5
104C
  8
0
 10
0.0
 20
0.0
 30
0.0
 70
   128
 71
     2
 72
    -3
 73
     1
  0
SEQEND
  5
1134
  8
0
  0
POLYLINE
  5
104D
  8
0
 66
     1
 10
0.0
 20
0.0
 30
0.0
 70
    64
 71
     4
 72
     2
  0
VERTEX
  5
104E
  8
0
 10
-279.2500000000002
 20
541.7499999999998
 30
-19.0
 70
   192
  0
VERTEX
  5
104F
  8
0
 10
-279.2500000000002
 20
545.5
 30
-19.0
 70
   192
  0
VERTEX
  5
1050
  8
0
 10
-279.2500000000002
 20
545.5
 30
-14.0
 70
   192
  0
VERTEX
  5
1051
  8
0
 10
-279.2500000000002
 20
541.7499999999998
 30
-14.0
 70
   192
  0
VERTEX
  5
1052
  8
0
 10
0.0
 20
0.0
 30
0.0
 70
   128
 71
     1
 72
     4
 73
    -3
  0
VERTEX
  5
1053
  8
0
 10
0.0
 20
0.0
 30
0.0
 70
   128
 71
    -1
 72
     3
 73
     2
  0
SEQEND
  5
1135
  8
0
  0
POLYLINE
  5
1054
  8
0
 66
     1
 10
0.0
 20
0.0
 30
0.0
 70
    64
 71
    10
 72
     8
  0
VERTEX
  5
1055
  8
0
 10
-286.7499999999999
 20
545.5
 30
-14.0
 70
   192
  0
VERTEX
  5
1056
  8
0
 10
-279.2500000000002
 20
545.5
 30
-14.0
 70
   192
  0
VERTEX
  5
1057
  8
0
 10
-279.2500000000002
 20
545.5
 30
-19.0
 70
   192
  0
VERTEX
  5
1058
  8
0
 10
-286.7499999999999
 20
545.5
 30
-19.0
 70
   192
  0
VERTEX
  5
1059
  8
0
 10
-283.0000000000001
 20
549.2499999999999
 30
-19.0
 70
   192
  0
VERTEX
  5
105A
  8
0
 10
-283.0000000000001
 20
549.2499999999999
 30
-14.0
 70
   192
  0
VERTEX
  5
105B
  8
0
 10
-285.6516504294495
 20
548.1516504294494
 30
-19.0
 70
   192
  0
VERTEX
  5
105C
  8
0
 10
-285.6516504294495
 20
548.1516504294494
 30
-14.0
 70
   192
  0
VERTEX
  5
105D
  8
0
 10
-280.3483495705506
 20
548.1516504294494
 30
-19.0
 70
   192
  0
VERTEX
  5
105E
  8
0
 10
-280.3483495705506
 20
548.1516504294494
 30
-14.0
 70
   192
  0
VERTEX
  5
105F
  8
0
 10
0.0
 20
0.0
 30
0.0
 70
   128
 71
     4
 72
     7
 73
    -8
  0
VERTEX
  5
1060
  8
0
 10
0.0
 20
0.0
 30
0.0
 70
   128
 71
     1
 72
    -4
 73
     8
  0
VERTEX
  5
1061
  8
0
 10
0.0
 20
0.0
 30
0.0
 70
   128
 71
     7
 72
     5
 73
    -6
  0
VERTEX
  5
1062
  8
0
 10
0.0
 20
0.0
 30
0.0
 70
   128
 71
     8
 72
    -7
 73
     6
  0
VERTEX
  5
1063
  8
0
 10
0.0
 20
0.0
 30
0.0
 70
   128
 71
     5
 72
     9
 73
   -10
  0
VERTEX
  5
1064
  8
0
 10
0.0
 20
0.0
 30
0.0
 70
   128
 71
     6
 72
    -5
 73
    10
  0
VERTEX
  5
1065
  8
0
 10
0.0
 20
0.0
 30
0.0
 70
   128
 71
     9
 72
     3
 73
    -2
  0
VERTEX
  5
1066
  8
0
 10
0.0
 20
0.0
 30
0.0
 70
   128
 71
    10
 72
    -9
 73
     2
  0
SEQEND
  5
1136
  8
0
  0
POLYLINE
  5
1067
  8
0
 66
     1
 10
0.0
 20
0.0
 30
0.0
 70
    64
 71
     4
 72
     2
  0
VERTEX
  5
1068
  8
0
 10
-286.7499999999999
 20
541.7499999999998
 30
-19.0
 70
   192
  0
VERTEX
  5
1069
  8
0
 10
-286.7499999999999
 20
545.5
 30
-19.0
 70
   192
  0
VERTEX
  5
106A
  8
0
 10
-286.7499999999999
 20
545.5
 30
-14.0
 70
   192
  0
VERTEX
  5
106B
  8
0
 10
-286.7499999999999
 20
541.7499999999998
 30
-14.0
 70
   192
  0
VERTEX
  5
106C
  8
0
 10
0.0
 20
0.0
 30
0.0
 70
   128
 71
     3
 72
     4
 73
    -1
  0
VERTEX
  5
106D
  8
0
 10
0.0
 20
0.0
 30
0.0
 70
   128
 71
     2
 72
    -3
 73
     1
  0
SEQEND
  5
1137
  8
0
  0
POLYLINE
  5
106E
  8
0
 66
     1
 10
0.0
 20
0.0
 30
0.0
 70
    64
 71
     8
 72
     6
  0
VERTEX
  5
106F
  8
0
 10
-293.7475952641915
 20
536.1250000000001
 30
-14.0
 70
   192
  0
VERTEX
  5
1070
  8
0
 10
-292.3749999999999
 20
534.7524047358086
 30
-14.0
 70
   192
  0
VERTEX
  5
1071
  8
0
 10
-292.3749999999999
 20
534.7524047358086
 30
-19.0
 70
   192
  0
VERTEX
  5
1072
  8
0
 10
-293.7475952641915
 20
536.1250000000001
 30
-19.0
 70
   192
  0
VERTEX
  5
1073
  8
0
 10
-290.5000000000001
 20
534.2500000000002
 30
-14.0
 70
   192
  0
VERTEX
  5
1074
  8
0
 10
-290.5000000000001
 20
534.2500000000001
 30
-19.0
 70
   192
  0
VERTEX
  5
1075
  8
0
 10
-294.2499999999998
 20
538.0
 30
-14.0
 70
   192
  0
VERTEX
  5
1076
  8
0
 10
-294.2499999999998
 20
538.0
 30
-19.0
 70
   192
  0
VERTEX
  5
1077
  8
0
 10
0.0
 20
0.0
 30
0.0
 70
   128
 71
     1
 72
     2
 73
    -3
  0
VERTEX
  5
1078
  8
0
 10
0.0
 20
0.0
 30
0.0
 70
   128
 71
     4
 72
    -1
 73
     3
  0
VERTEX
  5
1079
  8
0
 10
0.0
 20
0.0
 30
0.0
 70
   128
 71
     2
 72
     5
 73
    -6
  0
VERTEX
  5
107A
  8
0
 10
0.0
 20
0.0
 30
0.0
 70
   128
 71
     3
 72
    -2
 73
     6
  0
VERTEX
  5
107B
  8
0
 10
0.0
 20
0.0
 30
0.0
 70
   128
 71
     7
 72
     1
 73
    -4
  0
VERTEX
  5
107C
  8
0
 10
0.0
 20
0.0
 30
0.0
 70
   128
 71
     8
 72
    -7
 73
     4
  0
SEQEND
  5
1138
  8
0
  0
POLYLINE
  5
107D
  8
0
 66
     1
 10
0.0
 20
0.0
 30
0.0
 70
    64
 71
     4
 72
     2
  0
VERTEX
  5
107E
  8
0
 10
-286.7499999999999
 20
534.2500000000001
 30
-19.0
 70
   192
  0
VERTEX
  5
107F
  8
0
 10
-290.5000000000001
 20
534.2500000000001
 30
-19.0
 70
   192
  0
VERTEX
  5
1080
  8
0
 10
-290.5000000000001
 20
534.2500000000001
 30
-14.0
 70
   192
  0
VERTEX
  5
1081
  8
0
 10
-286.7499999999999
 20
534.2500000000001
 30
-14.0
 70
   192
  0
VERTEX
  5
1082
  8
0
 10
0.0
 20
0.0
 30
0.0
 70
   128
 71
     3
 72
     4
 73
    -1
  0
VERTEX
  5
1083
  8
0
 10
0.0
 20
0.0
 30
0.0
 70
   128
 71
     2
 72
    -3
 73
     1
  0
SEQEND
  5
1139
  8
0
  0
POLYLINE
  5
1084
  8
0
 66
     1
 10
0.0
 20
0.0
 30
0.0
 70
    64
 71
     4
 72
     2
  0
VERTEX
  5
1085
  8
0
 10
-286.7499999999999
 20
541.7499999999998
 30
-19.0
 70
   192
  0
VERTEX
  5
1086
  8
0
 10
-290.5000000000001
 20
541.7499999999998
 30
-19.0
 70
   192
  0
VERTEX
  5
1087
  8
0
 10
-290.5000000000001
 20
541.7499999999998
 30
-14.0
 70
   192
  0
VERTEX
  5
1088
  8
0
 10
-286.7499999999999
 20
541.7499999999998
 30
-14.0
 70
   192
  0
VERTEX
  5
1089
  8
0
 10
0.0
 20
0.0
 30
0.0
 70
   128
 71
     1
 72
     4
 73
    -3
  0
VERTEX
  5
108A
  8
0
 10
0.0
 20
0.0
 30
0.0
 70
   128
 71
    -1
 72
     3
 73
     2
  0
SEQEND
  5
113A
  8
0
  0
POLYLINE
  5
108B
  8
0
 66
     1
 10
0.0
 20
0.0
 30
0.0
 70
    64
 71
     4
 72
     2
  0
VERTEX
  5
108C
  8
0
 10
-279.2500000000002
 20
534.2500000000001
 30
-19.0
 70
   192
  0
VERTEX
  5
108D
  8
0
 10
-279.2500000000002
 20
534.2500000000001
 30
-14.0
 70
   192
  0
VERTEX
  5
108E
  8
0
 10
-275.5
 20
534.2500000000001
 30
-14.0
 70
   192
  0
VERTEX
  5
108F
  8
0
 10
-275.5
 20
534.2500000000002
 30
-19.0
 70
   192
  0
VERTEX
  5
1090
  8
0
 10
0.0
 20
0.0
 30
0.0
 70
   128
 71
     3
 72
     4
 73
    -1
  0
VERTEX
  5
1091
  8
0
 10
0.0
 20
0.0
 30
0.0
 70
   128
 71
     2
 72
    -3
 73
     1
  0
SEQEND
  5
113B
  8
0
  0
POLYLINE
  5
1092
  8
0
 66
     1
 10
0.0
 20
0.0
 30
0.0
 70
    64
 71
    10
 72
     8
  0
VERTEX
  5
1093
  8
0
 10
-275.5
 20
541.7499999999998
 30
-14.0
 70
   192
  0
VERTEX
  5
1094
  8
0
 10
-275.5
 20
534.2500000000002
 30
-14.0
 70
   192
  0
VERTEX
  5
1095
  8
0
 10
-275.5
 20
534.2500000000002
 30
-19.0
 70
   192
  0
VERTEX
  5
1096
  8
0
 10
-275.5
 20
541.7499999999998
 30
-19.0
 70
   192
  0
VERTEX
  5
1097
  8
0
 10
-271.7500000000002
 20
538.0
 30
-19.0
 70
   192
  0
VERTEX
  5
1098
  8
0
 10
-271.7500000000002
 20
538.0
 30
-14.0
 70
   192
  0
VERTEX
  5
1099
  8
0
 10
-272.8483495705506
 20
540.6516504294494
 30
-19.0
 70
   192
  0
VERTEX
  5
109A
  8
0
 10
-272.8483495705506
 20
540.6516504294494
 30
-14.0
 70
   192
  0
VERTEX
  5
109B
  8
0
 10
-272.8483495705506
 20
535.3483495705506
 30
-19.0
 70
   192
  0
VERTEX
  5
109C
  8
0
 10
-272.8483495705506
 20
535.3483495705506
 30
-14.0
 70
   192
  0
VERTEX
  5
109D
  8
0
 10
0.0
 20
0.0
 30
0.0
 70
   128
 71
     4
 72
     7
 73
    -8
  0
VERTEX
  5
109E
  8
0
 10
0.0
 20
0.0
 30
0.0
 70
   128
 71
     1
 72
    -4
 73
     8
  0
VERTEX
  5
109F
  8
0
 10
0.0
 20
0.0
 30
0.0
 70
   128
 71
     7
 72
     5
 73
    -6
  0
VERTEX
  5
10A0
  8
0
 10
0.0
 20
0.0
 30
0.0
 70
   128
 71
     8
 72
    -7
 73
     6
  0
VERTEX
  5
10A1
  8
0
 10
0.0
 20
0.0
 30
0.0
 70
   128
 71
     5
 72
     9
 73
   -10
  0
VERTEX
  5
10A2
  8
0
 10
0.0
 20
0.0
 30
0.0
 70
   128
 71
     6
 72
    -5
 73
    10
  0
VERTEX
  5
10A3
  8
0
 10
0.0
 20
0.0
 30
0.0
 70
   128
 71
     9
 72
     3
 73
    -2
  0
VERTEX
  5
10A4
  8
0
 10
0.0
 20
0.0
 30
0.0
 70
   128
 71
    10
 72
    -9
 73
     2
  0
SEQEND
  5
113C
  8
0
  0
POLYLINE
  5
10A5
  8
0
 66
     1
 10
0.0
 20
0.0
 30
0.0
 70
    64
 71
     4
 72
     2
  0
VERTEX
  5
10A6
  8
0
 10
-279.2500000000002
 20
541.7499999999998
 30
-19.0
 70
   192
  0
VERTEX
  5
10A7
  8
0
 10
-279.2500000000002
 20
541.7499999999998
 30
-14.0
 70
   192
  0
VERTEX
  5
10A8
  8
0
 10
-275.5
 20
541.7499999999998
 30
-14.0
 70
   192
  0
VERTEX
  5
10A9
  8
0
 10
-275.5
 20
541.7499999999998
 30
-19.0
 70
   192
  0
VERTEX
  5
10AA
  8
0
 10
0.0
 20
0.0
 30
0.0
 70
   128
 71
     1
 72
     4
 73
    -3
  0
VERTEX
  5
10AB
  8
0
 10
0.0
 20
0.0
 30
0.0
 70
   128
 71
    -1
 72
     3
 73
     2
  0
SEQEND
  5
113D
  8
0
  0
POLYLINE
  5
10AC
  8
0
 66
     1
 10
0.0
 20
0.0
 30
0.0
 70
    64
 71
    26
 72
    24
  0
VERTEX
  5
10AD
  8
0
 10
-279.2500000000002
 20
541.7499999999998
 30
-14.0
 70
   192
  0
VERTEX
  5
10AE
  8
0
 10
-275.5
 20
541.7499999999998
 30
-14.0
 70
   192
  0
VERTEX
  5
10AF
  8
0
 10
-272.8483495705506
 20
540.6516504294494
 30
-14.0
 70
   192
  0
VERTEX
  5
10B0
  8
0
 10
-271.7500000000002
 20
538.0
 30
-14.0
 70
   192
  0
VERTEX
  5
10B1
  8
0
 10
-272.8483495705506
 20
535.3483495705506
 30
-14.0
 70
   192
  0
VERTEX
  5
10B2
  8
0
 10
-275.5
 20
534.2500000000002
 30
-14.0
 70
   192
  0
VERTEX
  5
10B3
  8
0
 10
-279.2500000000002
 20
534.2500000000001
 30
-14.0
 70
   192
  0
VERTEX
  5
10B4
  8
0
 10
-279.2500000000002
 20
530.5
 30
-14.0
 70
   192
  0
VERTEX
  5
10B5
  8
0
 10
-280.3483495705506
 20
527.8483495705506
 30
-14.0
 70
   192
  0
VERTEX
  5
10B6
  8
0
 10
-283.0000000000001
 20
526.7500000000001
 30
-14.0
 70
   192
  0
VERTEX
  5
10B7
  8
0
 10
-285.6516504294495
 20
527.8483495705506
 30
-14.0
 70
   192
  0
VERTEX
  5
10B8
  8
0
 10
-286.7499999999999
 20
530.5
 30
-14.0
 70
   192
  0
VERTEX
  5
10B9
  8
0
 10
-286.7499999999999
 20
534.2500000000001
 30
-14.0
 70
   192
  0
VERTEX
  5
10BA
  8
0
 10
-290.5000000000001
 20
534.2500000000001
 30
-14.0
 70
   192
  0
VERTEX
  5
10BB
  8
0
 10
-292.3749999999999
 20
534.7524047358086
 30
-14.0
 70
   192
  0
VERTEX
  5
10BC
  8
0
 10
-293.7475952641915
 20
536.1250000000001
 30
-14.0
 70
   192
  0
VERTEX
  5
10BD
  8
0
 10
-294.2499999999999
 20
538.0
 30
-14.0
 70
   192
  0
VERTEX
  5
10BE
  8
0
 10
-293.7475952641915
 20
539.8749999999999
 30
-14.0
 70
   192
  0
VERTEX
  5
10BF
  8
0
 10
-292.3749999999999
 20
541.2475952641914
 30
-14.0
 70
   192
  0
VERTEX
  5
10C0
  8
0
 10
-290.5000000000001
 20
541.7499999999998
 30
-14.0
 70
   192
  0
VERTEX
  5
10C1
  8
0
 10
-286.7499999999999
 20
541.7499999999998
 30
-14.0
 70
   192
  0
VERTEX
  5
10C2
  8
0
 10
-286.7499999999999
 20
545.5
 30
-14.0
 70
   192
  0
VERTEX
  5
10C3
  8
0
 10
-285.6516504294495
 20
548.1516504294494
 30
-14.0
 70
   192
  0
VERTEX
  5
10C4
  8
0
 10
-283.0000000000001
 20
549.2499999999999
 30
-14.0
 70
   192
  0
VERTEX
  5
10C5
  8
0
 10
-280.3483495705506
 20
548.1516504294494
 30
-14.0
 70
   192
  0
VERTEX
  5
10C6
  8
0
 10
-279.2500000000002
 20
545.5
 30
-14.0
 70
   192
  0
VERTEX
  5
10C7
  8
0
 10
0.0
 20
0.0
 30
0.0
 70
   128
 71
    19
 72
    20
 73
   -21
  0
VERTEX
  5
10C8
  8
0
 10
0.0
 20
0.0
 30
0.0
 70
   128
 71
    18
 72
   -19
 73
   -21
  0
VERTEX
  5
10C9
  8
0
 10
0.0
 20
0.0
 30
0.0
 70
   128
 71
    17
 72
   -18
 73
   -21
  0
VERTEX
  5
10CA
  8
0
 10
0.0
 20
0.0
 30
0.0
 70
   128
 71
    16
 72
   -17
 73
   -21
  0
VERTEX
  5
10CB
  8
0
 10
0.0
 20
0.0
 30
0.0
 70
   128
 71
    15
 72
   -16
 73
   -21
  0
VERTEX
  5
10CC
  8
0
 10
0.0
 20
0.0
 30
0.0
 70
   128
 71
    14
 72
   -15
 73
   -21
  0
VERTEX
  5
10CD
  8
0
 10
0.0
 20
0.0
 30
0.0
 70
   128
 71
    13
 72
   -14
 73
   -21
  0
VERTEX
  5
10CE
  8
0
 10
0.0
 20
0.0
 30
0.0
 70
   128
 71
    -1
 72
   -13
 73
   -21
  0
VERTEX
  5
10CF
  8
0
 10
0.0
 20
0.0
 30
0.0
 70
   128
 71
    25
 72
    26
 73
    -1
  0
VERTEX
  5
10D0
  8
0
 10
0.0
 20
0.0
 30
0.0
 70
   128
 71
    24
 72
   -25
 73
    -1
  0
VERTEX
  5
10D1
  8
0
 10
0.0
 20
0.0
 30
0.0
 70
   128
 71
    23
 72
   -24
 73
    -1
  0
VERTEX
  5
10D2
  8
0
 10
0.0
 20
0.0
 30
0.0
 70
   128
 71
    22
 72
   -23
 73
    -1
  0
VERTEX
  5
10D3
  8
0
 10
0.0
 20
0.0
 30
0.0
 70
   128
 71
    21
 72
   -22
 73
    -1
  0
VERTEX
  5
10D4
  8
0
 10
0.0
 20
0.0
 30
0.0
 70
   128
 71
     5
 72
     6
 73
    -7
  0
VERTEX
  5
10D5
  8
0
 10
0.0
 20
0.0
 30
0.0
 70
   128
 71
     4
 72
    -5
 73
    -7
  0
VERTEX
  5
10D6
  8
0
 10
0.0
 20
0.0
 30
0.0
 70
   128
 71
     3
 72
    -4
 73
    -7
  0
VERTEX
  5
10D7
  8
0
 10
0.0
 20
0.0
 30
0.0
 70
   128
 71
     2
 72
    -3
 73
    -7
  0
VERTEX
  5
10D8
  8
0
 10
0.0
 20
0.0
 30
0.0
 70
   128
 71
     1
 72
    -2
 73
    -7
  0
VERTEX
  5
10D9
  8
0
 10
0.0
 20
0.0
 30
0.0
 70
   128
 71
   -13
 72
    -1
 73
    -7
  0
VERTEX
  5
10DA
  8
0
 10
0.0
 20
0.0
 30
0.0
 70
   128
 71
    11
 72
    12
 73
   -13
  0
VERTEX
  5
10DB
  8
0
 10
0.0
 20
0.0
 30
0.0
 70
   128
 71
    10
 72
   -11
 73
   -13
  0
VERTEX
  5
10DC
  8
0
 10
0.0
 20
0.0
 30
0.0
 70
   128
 71
     9
 72
   -10
 73
   -13
  0
VERTEX
  5
10DD
  8
0
 10
0.0
 20
0.0
 30
0.0
 70
   128
 71
     8
 72
    -9
 73
   -13
  0
VERTEX
  5
10DE
  8
0
 10
0.0
 20
0.0
 30
0.0
 70
   128
 71
     7
 72
    -8
 73
   -13
  0
SEQEND
  5
113E
  8
0
  0
ENDBLK
  5
112A
  8
0
  0
ENDSEC
  0
SECTION
  2
ENTITIES
  0
INSERT
  5
6E5
  8
0
  2
*X1
 10
0.0
 20
0.0
 30
0.0
  0
INSERT
  5
6E6
  8
0
  2
*X2
 10
0.0
 20
0.0
 30
0.0
  0
INSERT
  5
6E7
  8
0
  2
*X3
 10
0.0
 20
0.0
 30
0.0
  0
INSERT
  5
6E8
  8
0
  2
*X4
 10
0.0
 20
0.0
 30
0.0
  0
INSERT
  5
6E9
  8
0
  2
*X5
 10
0.0
 20
0.0
 30
0.0
  0
ENDSEC
  0
EOF
