  0
SECTION
  2
HEADER
  9
$ACADVER
  1
AC1009
  9
$DWGCODEPAGE
  3
ansi_1250
  9
$INSBASE
 10
0.0
 20
0.0
 30
0.0
  9
$EXTMIN
 10
-230.0000000000034
 20
-325.0000000000024
 30
-165.0000000000008
  9
$EXTMAX
 10
230.0000000000039
 20
325.0000000000024
 30
0.0000000000035243
  9
$LIMMIN
 10
0.0
 20
0.0
  9
$LIMMAX
 10
420.0
 20
297.0
  9
$ORTHOMODE
 70
     0
  9
$REGENMODE
 70
     1
  9
$FILLMODE
 70
     1
  9
$QTEXTMODE
 70
     0
  9
$MIRRTEXT
 70
     0
  9
$DRAGMODE
 70
     2
  9
$LTSCALE
 40
1.0
  9
$OSMODE
 70
   511
  9
$ATTMODE
 70
     1
  9
$TEXTSIZE
 40
2.5
  9
$TRACEWID
 40
1.0
  9
$TEXTSTYLE
  7
STANDARD
  9
$CLAYER
  8
0
  9
$CELTYPE
  6
BYLAYER
  9
$CECOLOR
 62
   256
  9
$DIMSCALE
 40
1.0
  9
$DIMASZ
 40
2.5
  9
$DIMEXO
 40
0.625
  9
$DIMDLI
 40
3.75
  9
$DIMRND
 40
0.0
  9
$DIMDLE
 40
0.0
  9
$DIMEXE
 40
1.25
  9
$DIMTP
 40
0.0
  9
$DIMTM
 40
0.0
  9
$DIMTXT
 40
2.5
  9
$DIMCEN
 40
-2.5
  9
$DIMTSZ
 40
0.0
  9
$DIMTOL
 70
     0
  9
$DIMLIM
 70
     0
  9
$DIMTIH
 70
     0
  9
$DIMTOH
 70
     0
  9
$DIMSE1
 70
     0
  9
$DIMSE2
 70
     0
  9
$DIMTAD
 70
     1
  9
$DIMZIN
 70
     8
  9
$DIMBLK
  1

  9
$DIMASO
 70
     1
  9
$DIMSHO
 70
     1
  9
$DIMPOST
  1

  9
$DIMAPOST
  1

  9
$DIMALT
 70
     0
  9
$DIMALTD
 70
     3
  9
$DIMALTF
 40
0.03937007874016
  9
$DIMLFAC
 40
1.0
  9
$DIMTOFL
 70
     1
  9
$DIMTVP
 40
0.0
  9
$DIMTIX
 70
     0
  9
$DIMSOXD
 70
     0
  9
$DIMSAH
 70
     0
  9
$DIMBLK1
  1

  9
$DIMBLK2
  1

  9
$DIMSTYLE
  2
ISO-25
  9
$DIMCLRD
 70
     0
  9
$DIMCLRE
 70
     0
  9
$DIMCLRT
 70
     0
  9
$DIMTFAC
 40
1.0
  9
$DIMGAP
 40
0.625
  9
$LUNITS
 70
     2
  9
$LUPREC
 70
     3
  9
$SKETCHINC
 40
1.0
  9
$FILLETRAD
 40
10.0
  9
$AUNITS
 70
     0
  9
$AUPREC
 70
     0
  9
$MENU
  1
.
  9
$ELEVATION
 40
0.0
  9
$PELEVATION
 40
0.0
  9
$THICKNESS
 40
0.0
  9
$LIMCHECK
 70
     0
  9
$CHAMFERA
 40
10.0
  9
$CHAMFERB
 40
10.0
  9
$SKPOLY
 70
     0
  9
$TDCREATE
 40
2455022.720692848
  9
$TDUPDATE
 40
2460488.375344225
  9
$TDINDWG
 40
0.0001293287
  9
$TDUSRTIMER
 40
0.0001293287
  9
$USRTIMER
 70
     1
  9
$ANGBASE
 50
0.0
  9
$ANGDIR
 70
     0
  9
$PDMODE
 70
     0
  9
$PDSIZE
 40
0.0
  9
$PLINEWID
 40
0.0
  9
$COORDS
 70
     1
  9
$SPLFRAME
 70
     0
  9
$SPLINETYPE
 70
     6
  9
$SPLINESEGS
 70
     8
  9
$ATTDIA
 70
     0
  9
$ATTREQ
 70
     1
  9
$HANDLING
 70
     1
  9
$HANDSEED
  5
12EA
  9
$SURFTAB1
 70
     6
  9
$SURFTAB2
 70
     6
  9
$SURFTYPE
 70
     6
  9
$SURFU
 70
     6
  9
$SURFV
 70
     6
  9
$UCSNAME
  2

  9
$UCSORG
 10
0.0
 20
0.0
 30
0.0
  9
$UCSXDIR
 10
1.0
 20
0.0
 30
0.0
  9
$UCSYDIR
 10
0.0
 20
1.0
 30
0.0
  9
$PUCSNAME
  2

  9
$PUCSORG
 10
0.0
 20
0.0
 30
0.0
  9
$PUCSXDIR
 10
1.0
 20
0.0
 30
0.0
  9
$PUCSYDIR
 10
0.0
 20
1.0
 30
0.0
  9
$USERI1
 70
     0
  9
$USERI2
 70
     0
  9
$USERI3
 70
     0
  9
$USERI4
 70
     0
  9
$USERI5
 70
     0
  9
$USERR1
 40
0.0
  9
$USERR2
 40
0.0
  9
$USERR3
 40
0.0
  9
$USERR4
 40
0.0
  9
$USERR5
 40
0.0
  9
$WORLDVIEW
 70
     1
  9
$SHADEDGE
 70
     3
  9
$SHADEDIF
 70
    70
  9
$TILEMODE
 70
     1
  9
$MAXACTVP
 70
    64
  9
$PLIMCHECK
 70
     0
  9
$PEXTMIN
 10
1.000000000000000E+20
 20
1.000000000000000E+20
 30
1.000000000000000E+20
  9
$PEXTMAX
 10
-1.000000000000000E+20
 20
-1.000000000000000E+20
 30
-1.000000000000000E+20
  9
$PLIMMIN
 10
0.0
 20
0.0
  9
$PLIMMAX
 10
0.0
 20
0.0
  9
$UNITMODE
 70
     0
  9
$VISRETAIN
 70
     1
  9
$PLINEGEN
 70
     0
  9
$PSLTSCALE
 70
     1
  0
ENDSEC
  0
SECTION
  2
TABLES
  0
TABLE
  2
VPORT
 70
     1
  0
VPORT
  2
*ACTIVE
 70
     0
 10
0.0
 20
0.0
 11
1.0
 21
1.0
 12
-94.88447817080794
 22
-54.78157901383317
 13
0.0
 23
0.0
 14
10.0
 24
10.0
 15
10.0
 25
10.0
 16
0.5773502691896226
 26
0.5773502691896226
 36
0.5773502691896226
 17
-134.1869158878504
 27
0.0
 37
-82.49999999999864
 40
599.6350890333306
 41
1.88293897882939
 42
50.0
 43
0.0
 44
0.0
 50
0.0
 51
0.0
 71
    16
 72
  1000
 73
     1
 74
     3
 75
     0
 76
     0
 77
     0
 78
     0
  0
ENDTAB
  0
TABLE
  2
LTYPE
 70
     1
  0
LTYPE
  2
CONTINUOUS
 70
     0
  3
Solid line
 72
    65
 73
     0
 40
0.0
  0
ENDTAB
  0
TABLE
  2
LAYER
 70
     1
  0
LAYER
  2
0
 70
     0
 62
     7
  6
CONTINUOUS
  0
ENDTAB
  0
TABLE
  2
STYLE
 70
     2
  0
STYLE
  2
STANDARD
 70
     0
 40
0.0
 41
1.0
 50
0.0
 71
     0
 42
2.5
  3
arial.ttf
  4

  0
STYLE
  2
ANNOTATIVE
 70
     0
 40
0.0
 41
1.0
 50
0.0
 71
     0
 42
2.5
  3
arial.ttf
  4

  0
ENDTAB
  0
TABLE
  2
VIEW
 70
     0
  0
ENDTAB
  0
TABLE
  2
UCS
 70
     0
  0
ENDTAB
  0
TABLE
  2
APPID
 70
     2
  0
APPID
  2
ACAD
 70
     0
  0
APPID
  2
ACADANNOTATIVE
 70
     0
  0
ENDTAB
  0
TABLE
  2
DIMSTYLE
 70
     2
  0
DIMSTYLE
  2
ISO-25
 70
     0
  3

  4

  5

  6

  7

 40
1.0
 41
2.5
 42
0.625
 43
3.75
 44
1.25
 45
0.0
 46
0.0
 47
0.0
 48
0.0
140
2.5
141
-2.5
142
0.0
143
0.03937007874016
144
1.0
145
0.0
146
1.0
147
0.625
 71
     0
 72
     0
 73
     0
 74
     0
 75
     0
 76
     0
 77
     1
 78
     8
170
     0
171
     3
172
     1
173
     0
174
     0
175
     0
176
     0
177
     0
178
     0
  0
DIMSTYLE
  2
ANNOTATIVE
 70
     0
  3

  4

  5

  6

  7

 40
0.0
 41
2.5
 42
0.625
 43
3.75
 44
1.25
 45
0.0
 46
0.0
 47
0.0
 48
0.0
140
2.5
141
-2.5
142
0.0
143
0.03937007874016
144
1.0
145
0.0
146
1.0
147
0.625
 71
     0
 72
     0
 73
     0
 74
     0
 75
     0
 76
     0
 77
     1
 78
     8
170
     0
171
     3
172
     1
173
     0
174
     0
175
     0
176
     0
177
     0
178
     0
  0
ENDTAB
  0
ENDSEC
  0
SECTION
  2
BLOCKS
  0
BLOCK
  8
0
  2
$MODEL_SPACE
 70
     0
 10
0.0
 20
0.0
 30
0.0
  3
$MODEL_SPACE
  1

  0
ENDBLK
  5
21
  8
0
  0
BLOCK
 67
     1
  8
0
  2
$PAPER_SPACE
 70
     0
 10
0.0
 20
0.0
 30
0.0
  3
$PAPER_SPACE
  1

  0
ENDBLK
  5
1D
 67
     1
  8
0
  0
BLOCK
  8
0
  2
*X1
 70
     1
 10
0.0
 20
0.0
 30
0.0
  3
*X1
  1

  0
POLYLINE
  5
9DC
  8
0
 66
     1
 10
0.0
 20
0.0
 30
0.0
 70
    64
 71
    10
 72
     8
  0
VERTEX
  5
9DD
  8
0
 10
-35.00000000000286
 20
35.00000000000419
 30
-135.4527630831823
 70
   192
  0
VERTEX
  5
9DE
  8
0
 10
-35.00000000000286
 20
-35.0000000000012
 30
-135.452763083183
 70
   192
  0
VERTEX
  5
9DF
  8
0
 10
-35.00000000000286
 20
-35.00000000000056
 30
-164.9999999999989
 70
   192
  0
VERTEX
  5
9E0
  8
0
 10
-35.00000000000286
 20
35.00000000000417
 30
-164.9999999999982
 70
   192
  0
VERTEX
  5
9E1
  8
0
 10
-0.0000000000006608
 20
0.0000000000019727
 30
-164.9999999999986
 70
   192
  0
VERTEX
  5
9E2
  8
0
 10
0.0
 20
0.0000000000016632
 30
-135.4527630831827
 70
   192
  0
VERTEX
  5
9E3
  8
0
 10
-10.25126265847215
 20
24.74873734153269
 30
-164.9999999999983
 70
   192
  0
VERTEX
  5
9E4
  8
0
 10
-10.25126265847168
 20
24.74873734153285
 30
-135.4527630831824
 70
   192
  0
VERTEX
  5
9E5
  8
0
 10
-10.25126265847214
 20
-24.74873734152875
 30
-164.9999999999988
 70
   192
  0
VERTEX
  5
9E6
  8
0
 10
-10.25126265847167
 20
-24.74873734152953
 30
-135.4527630831829
 70
   192
  0
VERTEX
  5
9E7
  8
0
 10
0.0
 20
0.0
 30
0.0
 70
   128
 71
     7
 72
     4
 73
    -1
  0
VERTEX
  5
9E8
  8
0
 10
0.0
 20
0.0
 30
0.0
 70
   128
 71
    -7
 72
     1
 73
     8
  0
VERTEX
  5
9E9
  8
0
 10
0.0
 20
0.0
 30
0.0
 70
   128
 71
     6
 72
     5
 73
    -7
  0
VERTEX
  5
9EA
  8
0
 10
0.0
 20
0.0
 30
0.0
 70
   128
 71
    -6
 72
     7
 73
     8
  0
VERTEX
  5
9EB
  8
0
 10
0.0
 20
0.0
 30
0.0
 70
   128
 71
    10
 72
     9
 73
    -5
  0
VERTEX
  5
9EC
  8
0
 10
0.0
 20
0.0
 30
0.0
 70
   128
 71
   -10
 72
     5
 73
     6
  0
VERTEX
  5
9ED
  8
0
 10
0.0
 20
0.0
 30
0.0
 70
   128
 71
     2
 72
     3
 73
    -9
  0
VERTEX
  5
9EE
  8
0
 10
0.0
 20
0.0
 30
0.0
 70
   128
 71
    -2
 72
     9
 73
    10
  0
SEQEND
  5
127D
  8
0
  0
POLYLINE
  5
9EF
  8
0
 66
     1
 10
0.0
 20
0.0
 30
0.0
 70
    64
 71
     8
 72
     6
  0
VERTEX
  5
9F0
  8
0
 10
-48.86279181137419
 20
32.13756374081359
 30
-164.9999999999982
 70
   192
  0
VERTEX
  5
9F1
  8
0
 10
-48.86279181137443
 20
32.1375637408139
 30
-135.4527630831823
 70
   192
  0
VERTEX
  5
9F2
  8
0
 10
-42.07761503162476
 20
34.27692176179877
 30
-135.4527630831823
 70
   192
  0
VERTEX
  5
9F3
  8
0
 10
-42.07761503162462
 20
34.27692176179843
 30
-164.9999999999982
 70
   192
  0
VERTEX
  5
9F4
  8
0
 10
-55.07517527229069
 20
28.67032155011851
 30
-164.9999999999983
 70
   192
  0
VERTEX
  5
9F5
  8
0
 10
-55.07517527229106
 20
28.67032155011875
 30
-135.4527630831824
 70
   192
  0
VERTEX
  5
9F6
  8
0
 10
-35.00000000000287
 20
35.00000000000452
 30
-135.4527630831823
 70
   192
  0
VERTEX
  5
9F7
  8
0
 10
-35.00000000000286
 20
35.0000000000045
 30
-164.9999999999982
 70
   192
  0
VERTEX
  5
9F8
  8
0
 10
0.0
 20
0.0
 30
0.0
 70
   128
 71
     1
 72
     2
 73
    -3
  0
VERTEX
  5
9F9
  8
0
 10
0.0
 20
0.0
 30
0.0
 70
   128
 71
    -1
 72
     3
 73
     4
  0
VERTEX
  5
9FA
  8
0
 10
0.0
 20
0.0
 30
0.0
 70
   128
 71
     5
 72
     6
 73
    -2
  0
VERTEX
  5
9FB
  8
0
 10
0.0
 20
0.0
 30
0.0
 70
   128
 71
    -5
 72
     2
 73
     1
  0
VERTEX
  5
9FC
  8
0
 10
0.0
 20
0.0
 30
0.0
 70
   128
 71
     4
 72
     3
 73
    -7
  0
VERTEX
  5
9FD
  8
0
 10
0.0
 20
0.0
 30
0.0
 70
   128
 71
    -4
 72
     7
 73
     8
  0
SEQEND
  5
127E
  8
0
  0
POLYLINE
  5
9FE
  8
0
 66
     1
 10
0.0
 20
0.0
 30
0.0
 70
    64
 71
    12
 72
    10
  0
VERTEX
  5
9FF
  8
0
 10
-59.00000000000286
 20
-0.0000000000000027
 30
-124.7652316125781
 70
   192
  0
VERTEX
  5
A00
  8
0
 10
-64.77350269189922
 20
0.0000000000000036
 30
-114.7652316125777
 70
   192
  0
VERTEX
  5
A01
  8
0
 10
-59.23048413059465
 20
-17.30159245102889
 30
-114.7652316125777
 70
   192
  0
VERTEX
  5
A02
  8
0
 10
-51.97056274847999
 20
-16.97056274847714
 30
-124.7652316125781
 70
   192
  0
VERTEX
  5
A03
  8
0
 10
-35.00000000000286
 20
-24.0
 30
-124.7652316125781
 70
   192
  0
VERTEX
  5
A04
  8
0
 10
-44.6653478376184
 20
-28.1610105238122
 30
-114.7652316125777
 70
   192
  0
VERTEX
  5
A05
  8
0
 10
-14.65907815105908
 20
-22.80583389336158
 30
-113.4045267483993
 70
   192
  0
VERTEX
  5
A06
  8
0
 10
-18.02943725152571
 20
-16.97056274847714
 30
-124.7652316125781
 70
   192
  0
VERTEX
  5
A07
  8
0
 10
-26.50136037689225
 20
-28.53479607603417
 30
-114.7652316125777
 70
   192
  0
VERTEX
  5
A08
  8
0
 10
-3.093292638578365
 20
0.0
 30
-111.0704127420118
 70
   192
  0
VERTEX
  5
A09
  8
0
 10
-11.00000000000286
 20
0.0000000000000029
 30
-124.7652316125781
 70
   192
  0
VERTEX
  5
A0A
  8
0
 10
-6.224278197309129
 20
-12.77489328611972
 30
-111.8028873441428
 70
   192
  0
VERTEX
  5
A0B
  8
0
 10
0.0
 20
0.0
 30
0.0
 70
   128
 71
     1
 72
     2
 73
     3
  0
VERTEX
  5
A0C
  8
0
 10
0.0
 20
0.0
 30
0.0
 70
   128
 71
     4
 72
     1
 73
     3
  0
VERTEX
  5
A0D
  8
0
 10
0.0
 20
0.0
 30
0.0
 70
   128
 71
     5
 72
     4
 73
     6
  0
VERTEX
  5
A0E
  8
0
 10
0.0
 20
0.0
 30
0.0
 70
   128
 71
     7
 72
     8
 73
     5
  0
VERTEX
  5
A0F
  8
0
 10
0.0
 20
0.0
 30
0.0
 70
   128
 71
     9
 72
     7
 73
     5
  0
VERTEX
  5
A10
  8
0
 10
0.0
 20
0.0
 30
0.0
 70
   128
 71
    10
 72
    11
 73
     8
  0
VERTEX
  5
A11
  8
0
 10
0.0
 20
0.0
 30
0.0
 70
   128
 71
    12
 72
    10
 73
     8
  0
VERTEX
  5
A12
  8
0
 10
0.0
 20
0.0
 30
0.0
 70
   128
 71
     6
 72
     4
 73
     3
  0
VERTEX
  5
A13
  8
0
 10
0.0
 20
0.0
 30
0.0
 70
   128
 71
     9
 72
     5
 73
     6
  0
VERTEX
  5
A14
  8
0
 10
0.0
 20
0.0
 30
0.0
 70
   128
 71
    12
 72
     8
 73
     7
  0
SEQEND
  5
127F
  8
0
  0
POLYLINE
  5
A15
  8
0
 66
     1
 10
0.0
 20
0.0
 30
0.0
 70
    64
 71
     8
 72
     6
  0
VERTEX
  5
A16
  8
0
 10
-204.9999999999991
 20
107.5000000000019
 30
-50.00000000000129
 70
   192
  0
VERTEX
  5
A17
  8
0
 10
-229.9999999999984
 20
107.5000000000022
 30
-50.00000000000156
 70
   192
  0
VERTEX
  5
A18
  8
0
 10
-229.9999999999982
 20
114.5000000000022
 30
-60.00000000000157
 70
   192
  0
VERTEX
  5
A19
  8
0
 10
-229.999999999998
 20
135.5000000000023
 30
-60.00000000000149
 70
   192
  0
VERTEX
  5
A1A
  8
0
 10
-229.999999999998
 20
142.5000000000022
 30
-50.00000000000156
 70
   192
  0
VERTEX
  5
A1B
  8
0
 10
-204.9999999999988
 20
142.5000000000019
 30
-50.00000000000142
 70
   192
  0
VERTEX
  5
A1C
  8
0
 10
-204.9999999999988
 20
135.5000000000018
 30
-60.00000000000136
 70
   192
  0
VERTEX
  5
A1D
  8
0
 10
-204.9999999999989
 20
114.5000000000019
 30
-60.00000000000129
 70
   192
  0
VERTEX
  5
A1E
  8
0
 10
0.0
 20
0.0
 30
0.0
 70
   128
 71
     7
 72
     6
 73
    -5
  0
VERTEX
  5
A1F
  8
0
 10
0.0
 20
0.0
 30
0.0
 70
   128
 71
    -7
 72
     5
 73
     4
  0
VERTEX
  5
A20
  8
0
 10
0.0
 20
0.0
 30
0.0
 70
   128
 71
     4
 72
     3
 73
    -8
  0
VERTEX
  5
A21
  8
0
 10
0.0
 20
0.0
 30
0.0
 70
   128
 71
    -4
 72
     8
 73
     7
  0
VERTEX
  5
A22
  8
0
 10
0.0
 20
0.0
 30
0.0
 70
   128
 71
     3
 72
     2
 73
    -1
  0
VERTEX
  5
A23
  8
0
 10
0.0
 20
0.0
 30
0.0
 70
   128
 71
    -3
 72
     1
 73
     8
  0
SEQEND
  5
1280
  8
0
  0
POLYLINE
  5
A24
  8
0
 66
     1
 10
0.0
 20
0.0
 30
0.0
 70
    64
 71
     8
 72
     6
  0
VERTEX
  5
A25
  8
0
 10
-205.0000000000014
 20
-107.4999999999976
 30
-50.00000000000126
 70
   192
  0
VERTEX
  5
A26
  8
0
 10
-230.0000000000006
 20
-107.4999999999974
 30
-50.00000000000153
 70
   192
  0
VERTEX
  5
A27
  8
0
 10
-230.0000000000007
 20
-114.4999999999975
 30
-40.00000000000157
 70
   192
  0
VERTEX
  5
A28
  8
0
 10
-230.000000000001
 20
-135.499999999998
 30
-40.00000000000153
 70
   192
  0
VERTEX
  5
A29
  8
0
 10
-230.000000000001
 20
-142.4999999999982
 30
-50.00000000000158
 70
   192
  0
VERTEX
  5
A2A
  8
0
 10
-205.0000000000018
 20
-142.4999999999985
 30
-50.00000000000145
 70
   192
  0
VERTEX
  5
A2B
  8
0
 10
-205.0000000000018
 20
-135.4999999999985
 30
-40.00000000000139
 70
   192
  0
VERTEX
  5
A2C
  8
0
 10
-205.0000000000015
 20
-114.4999999999979
 30
-40.00000000000127
 70
   192
  0
VERTEX
  5
A2D
  8
0
 10
0.0
 20
0.0
 30
0.0
 70
   128
 71
     7
 72
     6
 73
    -5
  0
VERTEX
  5
A2E
  8
0
 10
0.0
 20
0.0
 30
0.0
 70
   128
 71
    -7
 72
     5
 73
     4
  0
VERTEX
  5
A2F
  8
0
 10
0.0
 20
0.0
 30
0.0
 70
   128
 71
     4
 72
     3
 73
    -8
  0
VERTEX
  5
A30
  8
0
 10
0.0
 20
0.0
 30
0.0
 70
   128
 71
    -4
 72
     8
 73
     7
  0
VERTEX
  5
A31
  8
0
 10
0.0
 20
0.0
 30
0.0
 70
   128
 71
     3
 72
     2
 73
    -1
  0
VERTEX
  5
A32
  8
0
 10
0.0
 20
0.0
 30
0.0
 70
   128
 71
    -3
 72
     1
 73
     8
  0
SEQEND
  5
1281
  8
0
  0
POLYLINE
  5
A33
  8
0
 66
     1
 10
0.0
 20
0.0
 30
0.0
 70
    64
 71
    10
 72
     8
  0
VERTEX
  5
A34
  8
0
 10
-59.00000000000395
 20
0.0000000000000029
 30
-165.0
 70
   192
  0
VERTEX
  5
A35
  8
0
 10
-11.00000000000288
 20
-0.0000000000000027
 30
-165.0
 70
   192
  0
VERTEX
  5
A36
  8
0
 10
-11.00000000000286
 20
0.0000000000000029
 30
-124.7652316125781
 70
   192
  0
VERTEX
  5
A37
  8
0
 10
-59.00000000000395
 20
0.0000000000000029
 30
-124.7652316125781
 70
   192
  0
VERTEX
  5
A38
  8
0
 10
-35.00000000000286
 20
-24.0
 30
-124.7652316125781
 70
   192
  0
VERTEX
  5
A39
  8
0
 10
-35.00000000000342
 20
-24.00000000000054
 30
-165.0
 70
   192
  0
VERTEX
  5
A3A
  8
0
 10
-51.97056274847999
 20
-16.97056274847714
 30
-124.7652316125781
 70
   192
  0
VERTEX
  5
A3B
  8
0
 10
-51.97056274848094
 20
-16.97056274847752
 30
-165.0
 70
   192
  0
VERTEX
  5
A3C
  8
0
 10
-18.02943725152571
 20
-16.97056274847714
 30
-124.7652316125781
 70
   192
  0
VERTEX
  5
A3D
  8
0
 10
-18.0294372515259
 20
-16.97056274847752
 30
-165.0
 70
   192
  0
VERTEX
  5
A3E
  8
0
 10
0.0
 20
0.0
 30
0.0
 70
   128
 71
     8
 72
     1
 73
    -4
  0
VERTEX
  5
A3F
  8
0
 10
0.0
 20
0.0
 30
0.0
 70
   128
 71
     7
 72
    -8
 73
     4
  0
VERTEX
  5
A40
  8
0
 10
0.0
 20
0.0
 30
0.0
 70
   128
 71
     6
 72
     8
 73
    -7
  0
VERTEX
  5
A41
  8
0
 10
0.0
 20
0.0
 30
0.0
 70
   128
 71
     5
 72
    -6
 73
     7
  0
VERTEX
  5
A42
  8
0
 10
0.0
 20
0.0
 30
0.0
 70
   128
 71
    10
 72
     6
 73
    -5
  0
VERTEX
  5
A43
  8
0
 10
0.0
 20
0.0
 30
0.0
 70
   128
 71
     9
 72
   -10
 73
     5
  0
VERTEX
  5
A44
  8
0
 10
0.0
 20
0.0
 30
0.0
 70
   128
 71
     2
 72
    10
 73
    -9
  0
VERTEX
  5
A45
  8
0
 10
0.0
 20
0.0
 30
0.0
 70
   128
 71
     3
 72
    -2
 73
     9
  0
SEQEND
  5
1282
  8
0
  0
POLYLINE
  5
A46
  8
0
 66
     1
 10
0.0
 20
0.0
 30
0.0
 70
    64
 71
    10
 72
     8
  0
VERTEX
  5
A47
  8
0
 10
-191.000000000004
 20
-0.000000000000002
 30
-20.00000000000201
 70
   192
  0
VERTEX
  5
A48
  8
0
 10
-155.0000000000029
 20
0.0000000000000022
 30
-20.00000000000164
 70
   192
  0
VERTEX
  5
A49
  8
0
 10
-155.0000000000029
 20
-0.000000000000002
 30
-5.000000000000004
 70
   192
  0
VERTEX
  5
A4A
  8
0
 10
-191.000000000004
 20
0.0000000000000022
 30
-5.0
 70
   192
  0
VERTEX
  5
A4B
  8
0
 10
-173.0000000000034
 20
-18.00000000000052
 30
-5.000000000000004
 70
   192
  0
VERTEX
  5
A4C
  8
0
 10
-173.0000000000034
 20
-18.00000000000052
 30
-20.00000000000189
 70
   192
  0
VERTEX
  5
A4D
  8
0
 10
-185.7279220613617
 20
-12.72792206135822
 30
-5.000000000000004
 70
   192
  0
VERTEX
  5
A4E
  8
0
 10
-185.7279220613617
 20
-12.72792206135822
 30
-20.000000000002
 70
   192
  0
VERTEX
  5
A4F
  8
0
 10
-160.2720779386452
 20
-12.72792206135822
 30
-5.000000000000004
 70
   192
  0
VERTEX
  5
A50
  8
0
 10
-160.2720779386452
 20
-12.72792206135822
 30
-20.00000000000173
 70
   192
  0
VERTEX
  5
A51
  8
0
 10
0.0
 20
0.0
 30
0.0
 70
   128
 71
     8
 72
     1
 73
    -4
  0
VERTEX
  5
A52
  8
0
 10
0.0
 20
0.0
 30
0.0
 70
   128
 71
     7
 72
    -8
 73
     4
  0
VERTEX
  5
A53
  8
0
 10
0.0
 20
0.0
 30
0.0
 70
   128
 71
     6
 72
     8
 73
    -7
  0
VERTEX
  5
A54
  8
0
 10
0.0
 20
0.0
 30
0.0
 70
   128
 71
     5
 72
    -6
 73
     7
  0
VERTEX
  5
A55
  8
0
 10
0.0
 20
0.0
 30
0.0
 70
   128
 71
    10
 72
     6
 73
    -5
  0
VERTEX
  5
A56
  8
0
 10
0.0
 20
0.0
 30
0.0
 70
   128
 71
     9
 72
   -10
 73
     5
  0
VERTEX
  5
A57
  8
0
 10
0.0
 20
0.0
 30
0.0
 70
   128
 71
     2
 72
    10
 73
    -9
  0
VERTEX
  5
A58
  8
0
 10
0.0
 20
0.0
 30
0.0
 70
   128
 71
     3
 72
    -2
 73
     9
  0
SEQEND
  5
1283
  8
0
  0
POLYLINE
  5
A59
  8
0
 66
     1
 10
0.0
 20
0.0
 30
0.0
 70
    64
 71
     8
 72
     6
  0
VERTEX
  5
A5A
  8
0
 10
220.4999999999967
 20
-308.0000000000024
 30
-5.0
 70
   192
  0
VERTEX
  5
A5B
  8
0
 10
220.5000000000032
 20
307.9999999999974
 30
-5.0
 70
   192
  0
VERTEX
  5
A5C
  8
0
 10
220.3866148617126
 20
309.2992000941998
 30
-5.0
 70
   192
  0
VERTEX
  5
A5D
  8
0
 10
220.0498877640632
 20
310.5591175264425
 30
-5.0
 70
   192
  0
VERTEX
  5
A5E
  8
0
 10
219.4999999999973
 20
311.7416573867818
 30
-5.0
 70
   192
  0
VERTEX
  5
A5F
  8
0
 10
219.4999999999973
 20
-311.7416573867752
 30
-4.999999999999998
 70
   192
  0
VERTEX
  5
A60
  8
0
 10
220.0498877640596
 20
-310.5591175264391
 30
-5.0
 70
   192
  0
VERTEX
  5
A61
  8
0
 10
220.3866148617068
 20
-309.2992000942003
 30
-5.0
 70
   192
  0
VERTEX
  5
A62
  8
0
 10
0.0
 20
0.0
 30
0.0
 70
   128
 71
     7
 72
     8
 73
    -1
  0
VERTEX
  5
A63
  8
0
 10
0.0
 20
0.0
 30
0.0
 70
   128
 71
     6
 72
    -7
 73
    -1
  0
VERTEX
  5
A64
  8
0
 10
0.0
 20
0.0
 30
0.0
 70
   128
 71
    -6
 72
     1
 73
    -2
  0
VERTEX
  5
A65
  8
0
 10
0.0
 20
0.0
 30
0.0
 70
   128
 71
     5
 72
    -6
 73
    -2
  0
VERTEX
  5
A66
  8
0
 10
0.0
 20
0.0
 30
0.0
 70
   128
 71
     3
 72
     4
 73
    -5
  0
VERTEX
  5
A67
  8
0
 10
0.0
 20
0.0
 30
0.0
 70
   128
 71
     2
 72
    -3
 73
    -5
  0
SEQEND
  5
1284
  8
0
  0
POLYLINE
  5
A68
  8
0
 66
     1
 10
0.0
 20
0.0
 30
0.0
 70
    64
 71
     6
 72
     4
  0
VERTEX
  5
A69
  8
0
 10
25.21776785630802
 20
40.20997507381968
 30
-135.4527630831822
 70
   192
  0
VERTEX
  5
A6A
  8
0
 10
29.39270379786528
 20
40.49791414833972
 30
-133.8197794446993
 70
   192
  0
VERTEX
  5
A6B
  8
0
 10
33.49229735897221
 20
40.81872630289966
 30
-132.0003633050312
 70
   192
  0
VERTEX
  5
A6C
  8
0
 10
37.50418872434352
 20
41.17144432479597
 30
-129.9999999999991
 70
   192
  0
VERTEX
  5
A6D
  8
0
 10
-119.9999999999977
 20
41.1714443247976
 30
-130.0000000000008
 70
   192
  0
VERTEX
  5
A6E
  8
0
 10
-119.9999999999977
 20
40.20997507382164
 30
-135.4527630831822
 70
   192
  0
VERTEX
  5
A6F
  8
0
 10
0.0
 20
0.0
 30
0.0
 70
   128
 71
     2
 72
     1
 73
    -6
  0
VERTEX
  5
A70
  8
0
 10
0.0
 20
0.0
 30
0.0
 70
   128
 71
    -2
 72
     6
 73
    -5
  0
VERTEX
  5
A71
  8
0
 10
0.0
 20
0.0
 30
0.0
 70
   128
 71
    -5
 72
     3
 73
    -2
  0
VERTEX
  5
A72
  8
0
 10
0.0
 20
0.0
 30
0.0
 70
   128
 71
     5
 72
     4
 73
    -3
  0
SEQEND
  5
1285
  8
0
  0
POLYLINE
  5
A73
  8
0
 66
     1
 10
0.0
 20
0.0
 30
0.0
 70
    64
 71
     6
 72
     4
  0
VERTEX
  5
A74
  8
0
 10
-119.9999999999977
 20
-41.17144432479514
 30
-130.0000000000008
 70
   192
  0
VERTEX
  5
A75
  8
0
 10
-119.9999999999977
 20
-40.20997507381901
 30
-135.4527630831831
 70
   192
  0
VERTEX
  5
A76
  8
0
 10
25.21776785630743
 20
-40.20997507382026
 30
-135.4527630831831
 70
   192
  0
VERTEX
  5
A77
  8
0
 10
29.39270379786528
 20
-40.49791414834036
 30
-133.8197794446999
 70
   192
  0
VERTEX
  5
A78
  8
0
 10
33.49229735897286
 20
-40.81872630290039
 30
-132.0003633050315
 70
   192
  0
VERTEX
  5
A79
  8
0
 10
37.50418872434462
 20
-41.17144432479679
 30
-129.9999999999991
 70
   192
  0
VERTEX
  5
A7A
  8
0
 10
0.0
 20
0.0
 30
0.0
 70
   128
 71
     2
 72
     3
 73
    -4
  0
VERTEX
  5
A7B
  8
0
 10
0.0
 20
0.0
 30
0.0
 70
   128
 71
     1
 72
    -2
 73
    -4
  0
VERTEX
  5
A7C
  8
0
 10
0.0
 20
0.0
 30
0.0
 70
   128
 71
     4
 72
    -5
 73
    -1
  0
VERTEX
  5
A7D
  8
0
 10
0.0
 20
0.0
 30
0.0
 70
   128
 71
     5
 72
     6
 73
    -1
  0
SEQEND
  5
1286
  8
0
  0
POLYLINE
  5
A7E
  8
0
 66
     1
 10
0.0
 20
0.0
 30
0.0
 70
    64
 71
    21
 72
    21
  0
VERTEX
  5
A7F
  8
0
 10
-70.00000000000045
 20
30.12537886977173
 30
-165.0000000000006
 70
   192
  0
VERTEX
  5
A80
  8
0
 10
-55.07517527229068
 20
28.67032155011852
 30
-165.0000000000005
 70
   192
  0
VERTEX
  5
A81
  8
0
 10
-48.86279181137419
 20
32.13756374081359
 30
-164.9999999999982
 70
   192
  0
VERTEX
  5
A82
  8
0
 10
-42.07761503162462
 20
34.27692176179843
 30
-164.9999999999982
 70
   192
  0
VERTEX
  5
A83
  8
0
 10
-35.00000000000287
 20
35.00000000000417
 30
-164.9999999999982
 70
   192
  0
VERTEX
  5
A84
  8
0
 10
-10.25126265847215
 20
24.74873734153269
 30
-164.9999999999983
 70
   192
  0
VERTEX
  5
A85
  8
0
 10
-0.0000000000006608
 20
0.0000000000019727
 30
-164.9999999999986
 70
   192
  0
VERTEX
  5
A86
  8
0
 10
-10.25126265847214
 20
-24.74873734152875
 30
-164.9999999999988
 70
   192
  0
VERTEX
  5
A87
  8
0
 10
-35.00000000000286
 20
-35.00000000000023
 30
-164.9999999999989
 70
   192
  0
VERTEX
  5
A88
  8
0
 10
-42.07761503162408
 20
-34.27692176179459
 30
-164.9999999999989
 70
   192
  0
VERTEX
  5
A89
  8
0
 10
-48.8627918113732
 20
-32.13756374081007
 30
-164.9999999999989
 70
   192
  0
VERTEX
  5
A8A
  8
0
 10
-55.07517527228936
 20
-28.6703215501155
 30
-164.9999999999988
 70
   192
  0
VERTEX
  5
A8B
  8
0
 10
-70.00000000000087
 20
-30.12537886977062
 30
-165.0000000000009
 70
   192
  0
VERTEX
  5
A8C
  8
0
 10
-11.00000000000288
 20
0.0
 30
-165.0
 70
   192
  0
VERTEX
  5
A8D
  8
0
 10
-18.02943725152589
 20
16.97056274847752
 30
-165.0
 70
   192
  0
VERTEX
  5
A8E
  8
0
 10
-35.00000000000342
 20
24.00000000000054
 30
-165.0
 70
   192
  0
VERTEX
  5
A8F
  8
0
 10
-51.97056274848094
 20
16.97056274847752
 30
-165.0
 70
   192
  0
VERTEX
  5
A90
  8
0
 10
-59.00000000000396
 20
0.0
 30
-165.0
 70
   192
  0
VERTEX
  5
A91
  8
0
 10
-51.97056274848094
 20
-16.97056274847752
 30
-165.0
 70
   192
  0
VERTEX
  5
A92
  8
0
 10
-35.00000000000342
 20
-24.00000000000054
 30
-165.0
 70
   192
  0
VERTEX
  5
A93
  8
0
 10
-18.0294372515259
 20
-16.97056274847752
 30
-165.0
 70
   192
  0
VERTEX
  5
A94
  8
0
 10
0.0
 20
0.0
 30
0.0
 70
   128
 71
   -12
 72
    19
 73
   -20
  0
VERTEX
  5
A95
  8
0
 10
0.0
 20
0.0
 30
0.0
 70
   128
 71
    11
 72
   -12
 73
   -20
  0
VERTEX
  5
A96
  8
0
 10
0.0
 20
0.0
 30
0.0
 70
   128
 71
    10
 72
   -11
 73
   -20
  0
VERTEX
  5
A97
  8
0
 10
0.0
 20
0.0
 30
0.0
 70
   128
 71
     9
 72
   -10
 73
   -20
  0
VERTEX
  5
A98
  8
0
 10
0.0
 20
0.0
 30
0.0
 70
   128
 71
   -21
 72
     8
 73
    -9
  0
VERTEX
  5
A99
  8
0
 10
0.0
 20
0.0
 30
0.0
 70
   128
 71
    20
 72
   -21
 73
    -9
  0
VERTEX
  5
A9A
  8
0
 10
0.0
 20
0.0
 30
0.0
 70
   128
 71
   -14
 72
     7
 73
    -8
  0
VERTEX
  5
A9B
  8
0
 10
0.0
 20
0.0
 30
0.0
 70
   128
 71
    21
 72
   -14
 73
    -8
  0
VERTEX
  5
A9C
  8
0
 10
0.0
 20
0.0
 30
0.0
 70
   128
 71
    -2
 72
    17
 73
   -18
  0
VERTEX
  5
A9D
  8
0
 10
0.0
 20
0.0
 30
0.0
 70
   128
 71
     1
 72
    -2
 73
   -18
  0
VERTEX
  5
A9E
  8
0
 10
0.0
 20
0.0
 30
0.0
 70
   128
 71
   -18
 72
    13
 73
    -1
  0
VERTEX
  5
A9F
  8
0
 10
0.0
 20
0.0
 30
0.0
 70
   128
 71
   -19
 72
    12
 73
   -13
  0
VERTEX
  5
AA0
  8
0
 10
0.0
 20
0.0
 30
0.0
 70
   128
 71
    18
 72
   -19
 73
   -13
  0
VERTEX
  5
AA1
  8
0
 10
0.0
 20
0.0
 30
0.0
 70
   128
 71
    -7
 72
    14
 73
   -15
  0
VERTEX
  5
AA2
  8
0
 10
0.0
 20
0.0
 30
0.0
 70
   128
 71
     6
 72
    -7
 73
   -15
  0
VERTEX
  5
AA3
  8
0
 10
0.0
 20
0.0
 30
0.0
 70
   128
 71
   -16
 72
     5
 73
    -6
  0
VERTEX
  5
AA4
  8
0
 10
0.0
 20
0.0
 30
0.0
 70
   128
 71
    15
 72
   -16
 73
    -6
  0
VERTEX
  5
AA5
  8
0
 10
0.0
 20
0.0
 30
0.0
 70
   128
 71
     3
 72
     4
 73
    -5
  0
VERTEX
  5
AA6
  8
0
 10
0.0
 20
0.0
 30
0.0
 70
   128
 71
     2
 72
    -3
 73
    -5
  0
VERTEX
  5
AA7
  8
0
 10
0.0
 20
0.0
 30
0.0
 70
   128
 71
   -17
 72
    -2
 73
    -5
  0
VERTEX
  5
AA8
  8
0
 10
0.0
 20
0.0
 30
0.0
 70
   128
 71
    16
 72
   -17
 73
    -5
  0
SEQEND
  5
1287
  8
0
  0
POLYLINE
  5
AA9
  8
0
 66
     1
 10
0.0
 20
0.0
 30
0.0
 70
    64
 71
     9
 72
     7
  0
VERTEX
  5
AAA
  8
0
 10
-119.9999999999977
 20
-34.99999999999954
 30
-135.452763083183
 70
   192
  0
VERTEX
  5
AAB
  8
0
 10
-119.9999999999989
 20
-34.99999999999994
 30
-20.00000000000141
 70
   192
  0
VERTEX
  5
AAC
  8
0
 10
-119.9999999999989
 20
-142.4999999999999
 30
-20.00000000000177
 70
   192
  0
VERTEX
  5
AAD
  8
0
 10
-119.9999999999979
 20
-142.4999999999996
 30
-110.5000000000002
 70
   192
  0
VERTEX
  5
AAE
  8
0
 10
-119.9999999999979
 20
-89.64566427726118
 30
-110.5000000000002
 70
   192
  0
VERTEX
  5
AAF
  8
0
 10
-119.9999999999978
 20
-75.34113363503795
 30
-121.0936357769086
 70
   192
  0
VERTEX
  5
AB0
  8
0
 10
-119.9999999999977
 20
-58.82711615591572
 30
-127.7368234580858
 70
   192
  0
VERTEX
  5
AB1
  8
0
 10
-119.9999999999977
 20
-41.17144432479514
 30
-130.0000000000008
 70
   192
  0
VERTEX
  5
AB2
  8
0
 10
-119.9999999999976
 20
-40.20997507381901
 30
-135.4527630831831
 70
   192
  0
VERTEX
  5
AB3
  8
0
 10
0.0
 20
0.0
 30
0.0
 70
   128
 71
     5
 72
     4
 73
    -3
  0
VERTEX
  5
AB4
  8
0
 10
0.0
 20
0.0
 30
0.0
 70
   128
 71
     3
 72
    -2
 73
    -8
  0
VERTEX
  5
AB5
  8
0
 10
0.0
 20
0.0
 30
0.0
 70
   128
 71
    -3
 72
    -8
 73
    -5
  0
VERTEX
  5
AB6
  8
0
 10
0.0
 20
0.0
 30
0.0
 70
   128
 71
     8
 72
     7
 73
    -6
  0
VERTEX
  5
AB7
  8
0
 10
0.0
 20
0.0
 30
0.0
 70
   128
 71
    -8
 72
     6
 73
    -5
  0
VERTEX
  5
AB8
  8
0
 10
0.0
 20
0.0
 30
0.0
 70
   128
 71
     2
 72
    -1
 73
    -8
  0
VERTEX
  5
AB9
  8
0
 10
0.0
 20
0.0
 30
0.0
 70
   128
 71
     1
 72
     9
 73
    -8
  0
SEQEND
  5
1288
  8
0
  0
POLYLINE
  5
ABA
  8
0
 66
     1
 10
0.0
 20
0.0
 30
0.0
 70
    64
 71
     9
 72
     7
  0
VERTEX
  5
ABB
  8
0
 10
-119.9999999999976
 20
40.20997507382163
 30
-135.4527630831822
 70
   192
  0
VERTEX
  5
ABC
  8
0
 10
-119.9999999999977
 20
41.17144432479759
 30
-130.0000000000007
 70
   192
  0
VERTEX
  5
ABD
  8
0
 10
-119.9999999999977
 20
58.82711615591817
 30
-127.7368234580858
 70
   192
  0
VERTEX
  5
ABE
  8
0
 10
-119.9999999999978
 20
75.34113363504042
 30
-121.0936357769086
 70
   192
  0
VERTEX
  5
ABF
  8
0
 10
-119.9999999999979
 20
89.64566427726369
 30
-110.5000000000002
 70
   192
  0
VERTEX
  5
AC0
  8
0
 10
-119.9999999999979
 20
142.5000000000004
 30
-110.5000000000007
 70
   192
  0
VERTEX
  5
AC1
  8
0
 10
-119.9999999999989
 20
142.5000000000001
 30
-20.00000000000077
 70
   192
  0
VERTEX
  5
AC2
  8
0
 10
-119.9999999999988
 20
35.00000000000006
 30
-20.00000000000115
 70
   192
  0
VERTEX
  5
AC3
  8
0
 10
-119.9999999999976
 20
35.00000000000047
 30
-135.4527630831823
 70
   192
  0
VERTEX
  5
AC4
  8
0
 10
0.0
 20
0.0
 30
0.0
 70
   128
 71
     5
 72
     4
 73
    -3
  0
VERTEX
  5
AC5
  8
0
 10
0.0
 20
0.0
 30
0.0
 70
   128
 71
     2
 72
     1
 73
    -9
  0
VERTEX
  5
AC6
  8
0
 10
0.0
 20
0.0
 30
0.0
 70
   128
 71
    -2
 72
     9
 73
    -8
  0
VERTEX
  5
AC7
  8
0
 10
0.0
 20
0.0
 30
0.0
 70
   128
 71
    -8
 72
    -5
 73
    -3
  0
VERTEX
  5
AC8
  8
0
 10
0.0
 20
0.0
 30
0.0
 70
   128
 71
    -8
 72
     3
 73
    -2
  0
VERTEX
  5
AC9
  8
0
 10
0.0
 20
0.0
 30
0.0
 70
   128
 71
     8
 72
     7
 73
    -6
  0
VERTEX
  5
ACA
  8
0
 10
0.0
 20
0.0
 30
0.0
 70
   128
 71
    -8
 72
     6
 73
    -5
  0
SEQEND
  5
1289
  8
0
  0
POLYLINE
  5
ACB
  8
0
 66
     1
 10
0.0
 20
0.0
 30
0.0
 70
    64
 71
     4
 72
     2
  0
VERTEX
  5
ACC
  8
0
 10
-119.9999999999988
 20
35.00000000000052
 30
-154.9999999999982
 70
   192
  0
VERTEX
  5
ACD
  8
0
 10
-119.9999999999974
 20
-34.99999999999946
 30
-154.9999999999989
 70
   192
  0
VERTEX
  5
ACE
  8
0
 10
-80.00000000000087
 20
-31.10030309581647
 30
-154.9999999999989
 70
   192
  0
VERTEX
  5
ACF
  8
0
 10
-80.00000000000045
 20
31.10030309581752
 30
-154.9999999999982
 70
   192
  0
VERTEX
  5
AD0
  8
0
 10
0.0
 20
0.0
 30
0.0
 70
   128
 71
     1
 72
     4
 73
    -3
  0
VERTEX
  5
AD1
  8
0
 10
0.0
 20
0.0
 30
0.0
 70
   128
 71
    -1
 72
     3
 73
     2
  0
SEQEND
  5
128A
  8
0
  0
POLYLINE
  5
AD2
  8
0
 66
     1
 10
0.0
 20
0.0
 30
0.0
 70
    64
 71
    22
 72
    20
  0
VERTEX
  5
AD3
  8
0
 10
74.03765663818295
 20
248.6670512340154
 30
-97.08279516492117
 70
   192
  0
VERTEX
  5
AD4
  8
0
 10
78.49999999999757
 20
249.8301890291978
 30
-89.73903214881173
 70
   192
  0
VERTEX
  5
AD5
  8
0
 10
68.95135130636716
 20
-247.5669160419621
 30
-104.0287754001047
 70
   192
  0
VERTEX
  5
AD6
  8
0
 10
68.9513513063706
 20
247.566916041962
 30
-104.0287754000995
 70
   192
  0
VERTEX
  5
AD7
  8
0
 10
74.03765663817953
 20
-248.6670512340162
 30
-97.08279516492631
 70
   192
  0
VERTEX
  5
AD8
  8
0
 10
78.49999999999409
 20
-249.8301890291987
 30
-89.73903214881697
 70
   192
  0
VERTEX
  5
AD9
  8
0
 10
63.29744861059392
 20
89.64566427726176
 30
-110.4999999999983
 70
   192
  0
VERTEX
  5
ADA
  8
0
 10
63.29744861059921
 20
246.5419747554953
 30
-110.4999999999923
 70
   192
  0
VERTEX
  5
ADB
  8
0
 10
63.29744861059694
 20
-89.64566427726311
 30
-110.4999999999958
 70
   192
  0
VERTEX
  5
ADC
  8
0
 10
52.21000668358049
 20
-76.34523982689612
 30
-120.5211857823677
 70
   192
  0
VERTEX
  5
ADD
  8
0
 10
42.259673042611
 20
60.33483970444858
 30
-127.3259840611299
 70
   192
  0
VERTEX
  5
ADE
  8
0
 10
52.2100066835795
 20
76.34523982689501
 30
-120.5211857823677
 70
   192
  0
VERTEX
  5
ADF
  8
0
 10
29.39270379786528
 20
40.49791414833972
 30
-133.8197794446993
 70
   192
  0
VERTEX
  5
AE0
  8
0
 10
33.49229735897221
 20
40.81872630289966
 30
-132.0003633050312
 70
   192
  0
VERTEX
  5
AE1
  8
0
 10
29.39270379786528
 20
-40.49791414834036
 30
-133.8197794446999
 70
   192
  0
VERTEX
  5
AE2
  8
0
 10
25.21776785630746
 20
-40.20997507382029
 30
-135.452763083183
 70
   192
  0
VERTEX
  5
AE3
  8
0
 10
25.21776785630802
 20
40.20997507381969
 30
-135.4527630831822
 70
   192
  0
VERTEX
  5
AE4
  8
0
 10
37.50418872434351
 20
41.17144432479599
 30
-129.9999999999991
 70
   192
  0
VERTEX
  5
AE5
  8
0
 10
33.49229735897286
 20
-40.81872630290039
 30
-132.0003633050315
 70
   192
  0
VERTEX
  5
AE6
  8
0
 10
37.50418872434462
 20
-41.17144432479679
 30
-129.9999999999991
 70
   192
  0
VERTEX
  5
AE7
  8
0
 10
63.29744861059584
 20
-246.5419747554939
 30
-110.4999999999974
 70
   192
  0
VERTEX
  5
AE8
  8
0
 10
42.2596730426123
 20
-60.33483970444949
 30
-127.3259840611299
 70
   192
  0
VERTEX
  5
AE9
  8
0
 10
0.0
 20
0.0
 30
0.0
 70
   128
 71
     1
 72
     2
 73
     3
  0
VERTEX
  5
AEA
  8
0
 10
0.0
 20
0.0
 30
0.0
 70
   128
 71
     3
 72
     4
 73
     1
  0
VERTEX
  5
AEB
  8
0
 10
0.0
 20
0.0
 30
0.0
 70
   128
 71
     2
 72
     5
 73
     3
  0
VERTEX
  5
AEC
  8
0
 10
0.0
 20
0.0
 30
0.0
 70
   128
 71
     2
 72
     6
 73
     5
  0
VERTEX
  5
AED
  8
0
 10
0.0
 20
0.0
 30
0.0
 70
   128
 71
     7
 72
     8
 73
     9
  0
VERTEX
  5
AEE
  8
0
 10
0.0
 20
0.0
 30
0.0
 70
   128
 71
   -10
 72
    11
 73
    12
  0
VERTEX
  5
AEF
  8
0
 10
0.0
 20
0.0
 30
0.0
 70
   128
 71
    13
 72
   -14
 73
    15
  0
VERTEX
  5
AF0
  8
0
 10
0.0
 20
0.0
 30
0.0
 70
   128
 71
    15
 72
    16
 73
   -17
  0
VERTEX
  5
AF1
  8
0
 10
0.0
 20
0.0
 30
0.0
 70
   128
 71
   -15
 72
    17
 73
    13
  0
VERTEX
  5
AF2
  8
0
 10
0.0
 20
0.0
 30
0.0
 70
   128
 71
    14
 72
   -18
 73
    19
  0
VERTEX
  5
AF3
  8
0
 10
0.0
 20
0.0
 30
0.0
 70
   128
 71
    14
 72
    19
 73
   -15
  0
VERTEX
  5
AF4
  8
0
 10
0.0
 20
0.0
 30
0.0
 70
   128
 71
    20
 72
   -19
 73
    18
  0
VERTEX
  5
AF5
  8
0
 10
0.0
 20
0.0
 30
0.0
 70
   128
 71
     9
 72
     8
 73
    -4
  0
VERTEX
  5
AF6
  8
0
 10
0.0
 20
0.0
 30
0.0
 70
   128
 71
     4
 72
    -3
 73
    -9
  0
VERTEX
  5
AF7
  8
0
 10
0.0
 20
0.0
 30
0.0
 70
   128
 71
     3
 72
    21
 73
    -9
  0
VERTEX
  5
AF8
  8
0
 10
0.0
 20
0.0
 30
0.0
 70
   128
 71
     7
 72
     9
 73
   -10
  0
VERTEX
  5
AF9
  8
0
 10
0.0
 20
0.0
 30
0.0
 70
   128
 71
    -7
 72
    10
 73
    12
  0
VERTEX
  5
AFA
  8
0
 10
0.0
 20
0.0
 30
0.0
 70
   128
 71
   -11
 72
    10
 73
    22
  0
VERTEX
  5
AFB
  8
0
 10
0.0
 20
0.0
 30
0.0
 70
   128
 71
    11
 72
    22
 73
   -20
  0
VERTEX
  5
AFC
  8
0
 10
0.0
 20
0.0
 30
0.0
 70
   128
 71
   -11
 72
    20
 73
    18
  0
SEQEND
  5
128B
  8
0
  0
POLYLINE
  5
AFD
  8
0
 66
     1
 10
0.0
 20
0.0
 30
0.0
 70
    64
 71
     4
 72
     2
  0
VERTEX
  5
AFE
  8
0
 10
163.499999999997
 20
-248.5000000000022
 30
-34.99999999999914
 70
   192
  0
VERTEX
  5
AFF
  8
0
 10
163.4999999999976
 20
-248.5000000000021
 30
-84.01883030975308
 70
   192
  0
VERTEX
  5
B00
  8
0
 10
163.4999999999976
 20
248.4999999999978
 30
-84.01883030974813
 70
   192
  0
VERTEX
  5
B01
  8
0
 10
163.4999999999971
 20
248.4999999999978
 30
-34.99999999999742
 70
   192
  0
VERTEX
  5
B02
  8
0
 10
0.0
 20
0.0
 30
0.0
 70
   128
 71
     3
 72
     4
 73
    -1
  0
VERTEX
  5
B03
  8
0
 10
0.0
 20
0.0
 30
0.0
 70
   128
 71
     2
 72
    -3
 73
     1
  0
SEQEND
  5
128C
  8
0
  0
POLYLINE
  5
B04
  8
0
 66
     1
 10
0.0
 20
0.0
 30
0.0
 70
    64
 71
    10
 72
     8
  0
VERTEX
  5
B05
  8
0
 10
163.4718525214973
 20
-249.249771491499
 30
-84.02072453632114
 70
   192
  0
VERTEX
  5
B06
  8
0
 10
163.4999999999976
 20
-248.5000000000022
 30
-84.01883030975308
 70
   192
  0
VERTEX
  5
B07
  8
0
 10
163.499999999997
 20
-248.5000000000022
 30
-34.99999999999914
 70
   192
  0
VERTEX
  5
B08
  8
0
 10
163.3874100859964
 20
-249.9963695370131
 30
-84.02640721602525
 70
   192
  0
VERTEX
  5
B09
  8
0
 10
163.2473859977552
 20
-250.733487454798
 30
-84.03583034599076
 70
   192
  0
VERTEX
  5
B0A
  8
0
 10
162.1602540378414
 20
-253.5000000000022
 30
-34.9999999999992
 70
   192
  0
VERTEX
  5
B0B
  8
0
 10
158.499999999997
 20
-257.1602540378466
 30
-34.99999999999926
 70
   192
  0
VERTEX
  5
B0C
  8
0
 10
157.7657550474238
 20
-257.5445195491755
 30
-41.03266614363382
 70
   192
  0
VERTEX
  5
B0D
  8
0
 10
161.3632912826354
 20
-254.6780781966903
 30
-59.13066457459767
 70
   192
  0
VERTEX
  5
B0E
  8
0
 10
153.499999999997
 20
-258.5000000000023
 30
-34.99999999999932
 70
   192
  0
VERTEX
  5
B0F
  8
0
 10
0.0
 20
0.0
 30
0.0
 70
   128
 71
     1
 72
     2
 73
     3
  0
VERTEX
  5
B10
  8
0
 10
0.0
 20
0.0
 30
0.0
 70
   128
 71
     3
 72
     4
 73
     1
  0
VERTEX
  5
B11
  8
0
 10
0.0
 20
0.0
 30
0.0
 70
   128
 71
     3
 72
     5
 73
     4
  0
VERTEX
  5
B12
  8
0
 10
0.0
 20
0.0
 30
0.0
 70
   128
 71
     6
 72
     7
 73
     8
  0
VERTEX
  5
B13
  8
0
 10
0.0
 20
0.0
 30
0.0
 70
   128
 71
     3
 72
     6
 73
     9
  0
VERTEX
  5
B14
  8
0
 10
0.0
 20
0.0
 30
0.0
 70
   128
 71
     5
 72
     3
 73
     9
  0
VERTEX
  5
B15
  8
0
 10
0.0
 20
0.0
 30
0.0
 70
   128
 71
     9
 72
     6
 73
     8
  0
VERTEX
  5
B16
  8
0
 10
0.0
 20
0.0
 30
0.0
 70
   128
 71
     8
 72
     7
 73
    10
  0
SEQEND
  5
128D
  8
0
  0
POLYLINE
  5
B17
  8
0
 66
     1
 10
0.0
 20
0.0
 30
0.0
 70
    64
 71
    10
 72
     8
  0
VERTEX
  5
B18
  8
0
 10
163.4999999999971
 20
248.4999999999978
 30
-34.99999999999743
 70
   192
  0
VERTEX
  5
B19
  8
0
 10
163.4718525214971
 20
249.2497714914952
 30
-84.02072453631612
 70
   192
  0
VERTEX
  5
B1A
  8
0
 10
163.3874100859959
 20
249.99636953701
 30
-84.02640721602022
 70
   192
  0
VERTEX
  5
B1B
  8
0
 10
163.4999999999976
 20
248.4999999999979
 30
-84.01883030974811
 70
   192
  0
VERTEX
  5
B1C
  8
0
 10
158.4999999999971
 20
257.1602540378421
 30
-34.99999999999745
 70
   192
  0
VERTEX
  5
B1D
  8
0
 10
162.1602540378415
 20
253.4999999999977
 30
-34.99999999999743
 70
   192
  0
VERTEX
  5
B1E
  8
0
 10
161.3632912826344
 20
254.6780781966864
 30
-59.13066457459797
 70
   192
  0
VERTEX
  5
B1F
  8
0
 10
153.4999999999972
 20
258.4999999999938
 30
-34.99999999999748
 70
   192
  0
VERTEX
  5
B20
  8
0
 10
157.7657550474234
 20
257.5445195491687
 30
-41.03266614363678
 70
   192
  0
VERTEX
  5
B21
  8
0
 10
163.2473859977539
 20
250.7334874547954
 30
-84.03583034598579
 70
   192
  0
VERTEX
  5
B22
  8
0
 10
0.0
 20
0.0
 30
0.0
 70
   128
 71
     1
 72
     2
 73
     3
  0
VERTEX
  5
B23
  8
0
 10
0.0
 20
0.0
 30
0.0
 70
   128
 71
     1
 72
     4
 73
     2
  0
VERTEX
  5
B24
  8
0
 10
0.0
 20
0.0
 30
0.0
 70
   128
 71
     5
 72
     6
 73
     7
  0
VERTEX
  5
B25
  8
0
 10
0.0
 20
0.0
 30
0.0
 70
   128
 71
     6
 72
     1
 73
     3
  0
VERTEX
  5
B26
  8
0
 10
0.0
 20
0.0
 30
0.0
 70
   128
 71
     8
 72
     5
 73
     9
  0
VERTEX
  5
B27
  8
0
 10
0.0
 20
0.0
 30
0.0
 70
   128
 71
     9
 72
     5
 73
     7
  0
VERTEX
  5
B28
  8
0
 10
0.0
 20
0.0
 30
0.0
 70
   128
 71
     7
 72
     6
 73
     3
  0
VERTEX
  5
B29
  8
0
 10
0.0
 20
0.0
 30
0.0
 70
   128
 71
     7
 72
     3
 73
    10
  0
SEQEND
  5
128E
  8
0
  0
POLYLINE
  5
B2A
  8
0
 66
     1
 10
0.0
 20
0.0
 30
0.0
 70
    64
 71
     7
 72
     5
  0
VERTEX
  5
B2B
  8
0
 10
-152.4999999999976
 20
-34.99999999999952
 30
-142.9967103839265
 70
   192
  0
VERTEX
  5
B2C
  8
0
 10
-152.4999999999989
 20
-34.99999999999994
 30
-20.00000000000174
 70
   192
  0
VERTEX
  5
B2D
  8
0
 10
-119.9999999999989
 20
-34.99999999999994
 30
-20.00000000000141
 70
   192
  0
VERTEX
  5
B2E
  8
0
 10
-119.9999999999976
 20
-34.99999999999952
 30
-135.452763083183
 70
   192
  0
VERTEX
  5
B2F
  8
0
 10
-119.9999999999974
 20
-34.99999999999947
 30
-154.9999999999987
 70
   192
  0
VERTEX
  5
B30
  8
0
 10
-131.6840349800117
 20
-34.99999999999947
 30
-153.6156695581345
 70
   192
  0
VERTEX
  5
B31
  8
0
 10
-142.7210873477603
 20
-34.99999999999949
 30
-149.5393330634317
 70
   192
  0
VERTEX
  5
B32
  8
0
 10
0.0
 20
0.0
 30
0.0
 70
   128
 71
     4
 72
     3
 73
    -2
  0
VERTEX
  5
B33
  8
0
 10
0.0
 20
0.0
 30
0.0
 70
   128
 71
    -4
 72
     2
 73
    -1
  0
VERTEX
  5
B34
  8
0
 10
0.0
 20
0.0
 30
0.0
 70
   128
 71
     1
 72
     7
 73
    -6
  0
VERTEX
  5
B35
  8
0
 10
0.0
 20
0.0
 30
0.0
 70
   128
 71
    -1
 72
     6
 73
    -5
  0
VERTEX
  5
B36
  8
0
 10
0.0
 20
0.0
 30
0.0
 70
   128
 71
    -1
 72
     5
 73
    -4
  0
SEQEND
  5
128F
  8
0
  0
POLYLINE
  5
B37
  8
0
 66
     1
 10
0.0
 20
0.0
 30
0.0
 70
    64
 71
     4
 72
     2
  0
VERTEX
  5
B38
  8
0
 10
-152.4999999999976
 20
35.00000000000049
 30
-142.9967103839258
 70
   192
  0
VERTEX
  5
B39
  8
0
 10
-152.4999999999989
 20
35.00000000000006
 30
-20.00000000000149
 70
   192
  0
VERTEX
  5
B3A
  8
0
 10
-152.4999999999989
 20
-34.99999999999994
 30
-20.00000000000174
 70
   192
  0
VERTEX
  5
B3B
  8
0
 10
-152.4999999999979
 20
-34.99999999999995
 30
-142.9967103839265
 70
   192
  0
VERTEX
  5
B3C
  8
0
 10
0.0
 20
0.0
 30
0.0
 70
   128
 71
     1
 72
     4
 73
    -3
  0
VERTEX
  5
B3D
  8
0
 10
0.0
 20
0.0
 30
0.0
 70
   128
 71
    -1
 72
     3
 73
     2
  0
SEQEND
  5
1290
  8
0
  0
POLYLINE
  5
B3E
  8
0
 66
     1
 10
0.0
 20
0.0
 30
0.0
 70
    64
 71
     7
 72
     5
  0
VERTEX
  5
B3F
  8
0
 10
-119.9999999999974
 20
35.00000000000054
 30
-154.9999999999982
 70
   192
  0
VERTEX
  5
B40
  8
0
 10
-119.9999999999976
 20
35.00000000000047
 30
-135.4527630831823
 70
   192
  0
VERTEX
  5
B41
  8
0
 10
-119.9999999999988
 20
35.00000000000006
 30
-20.00000000000115
 70
   192
  0
VERTEX
  5
B42
  8
0
 10
-152.4999999999989
 20
35.00000000000006
 30
-20.00000000000149
 70
   192
  0
VERTEX
  5
B43
  8
0
 10
-152.4999999999975
 20
35.00000000000049
 30
-142.9967103839259
 70
   192
  0
VERTEX
  5
B44
  8
0
 10
-142.7210873477599
 20
35.00000000000051
 30
-149.539333063431
 70
   192
  0
VERTEX
  5
B45
  8
0
 10
-131.6840349800115
 20
35.00000000000053
 30
-153.6156695581337
 70
   192
  0
VERTEX
  5
B46
  8
0
 10
0.0
 20
0.0
 30
0.0
 70
   128
 71
     2
 72
     1
 73
    -7
  0
VERTEX
  5
B47
  8
0
 10
0.0
 20
0.0
 30
0.0
 70
   128
 71
    -2
 72
     7
 73
    -6
  0
VERTEX
  5
B48
  8
0
 10
0.0
 20
0.0
 30
0.0
 70
   128
 71
    -2
 72
     6
 73
    -5
  0
VERTEX
  5
B49
  8
0
 10
0.0
 20
0.0
 30
0.0
 70
   128
 71
     5
 72
     4
 73
    -3
  0
VERTEX
  5
B4A
  8
0
 10
0.0
 20
0.0
 30
0.0
 70
   128
 71
    -5
 72
     3
 73
    -2
  0
SEQEND
  5
1291
  8
0
  0
POLYLINE
  5
B4B
  8
0
 66
     1
 10
0.0
 20
0.0
 30
0.0
 70
    64
 71
     4
 72
     2
  0
VERTEX
  5
B4C
  8
0
 10
-204.999999999998
 20
160.0000000000004
 30
-110.5000000000011
 70
   192
  0
VERTEX
  5
B4D
  8
0
 10
-204.9999999999989
 20
160.0000000000001
 30
-20.0000000000016
 70
   192
  0
VERTEX
  5
B4E
  8
0
 10
-119.9999999999989
 20
142.5000000000001
 30
-20.00000000000077
 70
   192
  0
VERTEX
  5
B4F
  8
0
 10
-119.9999999999979
 20
142.5000000000004
 30
-110.5000000000002
 70
   192
  0
VERTEX
  5
B50
  8
0
 10
0.0
 20
0.0
 30
0.0
 70
   128
 71
     1
 72
     4
 73
    -3
  0
VERTEX
  5
B51
  8
0
 10
0.0
 20
0.0
 30
0.0
 70
   128
 71
    -1
 72
     3
 73
     2
  0
SEQEND
  5
1292
  8
0
  0
POLYLINE
  5
B52
  8
0
 66
     1
 10
0.0
 20
0.0
 30
0.0
 70
    64
 71
    24
 72
    26
  0
VERTEX
  5
B53
  8
0
 10
-230.0000000000004
 20
-136.5419747554905
 30
-110.5000000000014
 70
   192
  0
VERTEX
  5
B54
  8
0
 10
-230.0000000000015
 20
-246.5419747554907
 30
-110.5000000000013
 70
   192
  0
VERTEX
  5
B55
  8
0
 10
-230.0000000000022
 20
-258.499999999993
 30
-35.00000000000185
 70
   192
  0
VERTEX
  5
B56
  8
0
 10
-230.000000000003
 20
-315.0000000000023
 30
-35.00000000000352
 70
   192
  0
VERTEX
  5
B57
  8
0
 10
-230.0000000000033
 20
-314.9999999999977
 30
-0.0000000000034959
 70
   192
  0
VERTEX
  5
B58
  8
0
 10
-229.9999999999967
 20
315.0000000000023
 30
-0.0000000000013093
 70
   192
  0
VERTEX
  5
B59
  8
0
 10
-229.9999999999964
 20
315.0000000000024
 30
-35.00000000000131
 70
   192
  0
VERTEX
  5
B5A
  8
0
 10
-229.999999999997
 20
258.4999999999978
 30
-35.00000000000151
 70
   192
  0
VERTEX
  5
B5B
  8
0
 10
-229.9999999999962
 20
246.5419747554953
 30
-110.5000000000014
 70
   192
  0
VERTEX
  5
B5C
  8
0
 10
-229.9999999999974
 20
136.541974755495
 30
-110.5000000000014
 70
   192
  0
VERTEX
  5
B5D
  8
0
 10
-229.9999999999979
 20
133.3923828685622
 30
-74.50000000000111
 70
   192
  0
VERTEX
  5
B5E
  8
0
 10
-230.0000000000005
 20
-133.3923828685577
 30
-74.50000000000134
 70
   192
  0
VERTEX
  5
B5F
  8
0
 10
-230.000000000001
 20
-142.4999999999982
 30
-50.00000000000146
 70
   192
  0
VERTEX
  5
B60
  8
0
 10
-230.0000000000008
 20
-135.4999999999982
 30
-60.0000000000015
 70
   192
  0
VERTEX
  5
B61
  8
0
 10
-230.0000000000007
 20
-114.4999999999976
 30
-60.00000000000156
 70
   192
  0
VERTEX
  5
B62
  8
0
 10
-230.0000000000006
 20
-107.4999999999974
 30
-50.00000000000153
 70
   192
  0
VERTEX
  5
B63
  8
0
 10
-230.0000000000007
 20
-114.4999999999975
 30
-40.00000000000157
 70
   192
  0
VERTEX
  5
B64
  8
0
 10
-230.000000000001
 20
-135.499999999998
 30
-40.00000000000153
 70
   192
  0
VERTEX
  5
B65
  8
0
 10
-229.999999999998
 20
142.5000000000022
 30
-50.00000000000143
 70
   192
  0
VERTEX
  5
B66
  8
0
 10
-229.9999999999982
 20
135.5000000000021
 30
-40.00000000000149
 70
   192
  0
VERTEX
  5
B67
  8
0
 10
-229.9999999999984
 20
114.5000000000022
 30
-40.00000000000156
 70
   192
  0
VERTEX
  5
B68
  8
0
 10
-229.9999999999984
 20
107.5000000000022
 30
-50.00000000000156
 70
   192
  0
VERTEX
  5
B69
  8
0
 10
-229.9999999999982
 20
114.5000000000022
 30
-60.00000000000157
 70
   192
  0
VERTEX
  5
B6A
  8
0
 10
-229.999999999998
 20
135.5000000000023
 30
-60.00000000000149
 70
   192
  0
VERTEX
  5
B6B
  8
0
 10
0.0
 20
0.0
 30
0.0
 70
   128
 71
     6
 72
     7
 73
    -8
  0
VERTEX
  5
B6C
  8
0
 10
0.0
 20
0.0
 30
0.0
 70
   128
 71
    -3
 72
    13
 73
   -14
  0
VERTEX
  5
B6D
  8
0
 10
0.0
 20
0.0
 30
0.0
 70
   128
 71
     2
 72
    -3
 73
   -14
  0
VERTEX
  5
B6E
  8
0
 10
0.0
 20
0.0
 30
0.0
 70
   128
 71
     1
 72
    -2
 73
   -14
  0
VERTEX
  5
B6F
  8
0
 10
0.0
 20
0.0
 30
0.0
 70
   128
 71
    14
 72
   -15
 73
   -12
  0
VERTEX
  5
B70
  8
0
 10
0.0
 20
0.0
 30
0.0
 70
   128
 71
    12
 72
    -1
 73
   -14
  0
VERTEX
  5
B71
  8
0
 10
0.0
 20
0.0
 30
0.0
 70
   128
 71
    11
 72
   -12
 73
   -15
  0
VERTEX
  5
B72
  8
0
 10
0.0
 20
0.0
 30
0.0
 70
   128
 71
    15
 72
   -16
 73
   -11
  0
VERTEX
  5
B73
  8
0
 10
0.0
 20
0.0
 30
0.0
 70
   128
 71
    16
 72
   -17
 73
   -11
  0
VERTEX
  5
B74
  8
0
 10
0.0
 20
0.0
 30
0.0
 70
   128
 71
     9
 72
    10
 73
   -11
  0
VERTEX
  5
B75
  8
0
 10
0.0
 20
0.0
 30
0.0
 70
   128
 71
    -8
 72
    19
 73
   -20
  0
VERTEX
  5
B76
  8
0
 10
0.0
 20
0.0
 30
0.0
 70
   128
 71
    -6
 72
    -8
 73
   -20
  0
VERTEX
  5
B77
  8
0
 10
0.0
 20
0.0
 30
0.0
 70
   128
 71
    20
 72
   -21
 73
    -6
  0
VERTEX
  5
B78
  8
0
 10
0.0
 20
0.0
 30
0.0
 70
   128
 71
     5
 72
    -6
 73
   -21
  0
VERTEX
  5
B79
  8
0
 10
0.0
 20
0.0
 30
0.0
 70
   128
 71
    21
 72
   -22
 73
    -5
  0
VERTEX
  5
B7A
  8
0
 10
0.0
 20
0.0
 30
0.0
 70
   128
 71
    22
 72
   -23
 73
    -5
  0
VERTEX
  5
B7B
  8
0
 10
0.0
 20
0.0
 30
0.0
 70
   128
 71
   -23
 72
   -11
 73
   -17
  0
VERTEX
  5
B7C
  8
0
 10
0.0
 20
0.0
 30
0.0
 70
   128
 71
   -17
 72
    -5
 73
   -23
  0
VERTEX
  5
B7D
  8
0
 10
0.0
 20
0.0
 30
0.0
 70
   128
 71
    23
 72
   -24
 73
   -11
  0
VERTEX
  5
B7E
  8
0
 10
0.0
 20
0.0
 30
0.0
 70
   128
 71
     8
 72
    -9
 73
   -11
  0
VERTEX
  5
B7F
  8
0
 10
0.0
 20
0.0
 30
0.0
 70
   128
 71
   -19
 72
    -8
 73
   -11
  0
VERTEX
  5
B80
  8
0
 10
0.0
 20
0.0
 30
0.0
 70
   128
 71
    24
 72
   -19
 73
   -11
  0
VERTEX
  5
B81
  8
0
 10
0.0
 20
0.0
 30
0.0
 70
   128
 71
    17
 72
   -18
 73
    -5
  0
VERTEX
  5
B82
  8
0
 10
0.0
 20
0.0
 30
0.0
 70
   128
 71
   -13
 72
    -3
 73
    -5
  0
VERTEX
  5
B83
  8
0
 10
0.0
 20
0.0
 30
0.0
 70
   128
 71
    18
 72
   -13
 73
    -5
  0
VERTEX
  5
B84
  8
0
 10
0.0
 20
0.0
 30
0.0
 70
   128
 71
     3
 72
     4
 73
    -5
  0
SEQEND
  5
1293
  8
0
  0
POLYLINE
  5
B85
  8
0
 66
     1
 10
0.0
 20
0.0
 30
0.0
 70
    64
 71
     9
 72
     7
  0
VERTEX
  5
B86
  8
0
 10
-228.6602540378477
 20
-319.9999999999977
 30
-0.0000000000035124
 70
   192
  0
VERTEX
  5
B87
  8
0
 10
-228.6602540378457
 20
-320.0000000000001
 30
-50.00000000000351
 70
   192
  0
VERTEX
  5
B88
  8
0
 10
-225.0000000000018
 20
-323.6602540378425
 30
-50.00000000000349
 70
   192
  0
VERTEX
  5
B89
  8
0
 10
-225.0000000000034
 20
-323.6602540378421
 30
-0.0000000000034868
 70
   192
  0
VERTEX
  5
B8A
  8
0
 10
-230.000000000003
 20
-314.9999999999976
 30
-35.00000000000352
 70
   192
  0
VERTEX
  5
B8B
  8
0
 10
-230.0000000000028
 20
-314.9999999999975
 30
-50.00000000000121
 70
   192
  0
VERTEX
  5
B8C
  8
0
 10
-230.0000000000033
 20
-314.9999999999977
 30
-0.0000000000035089
 70
   192
  0
VERTEX
  5
B8D
  8
0
 10
-220.0000000000034
 20
-324.9999999999976
 30
-50.00000000000344
 70
   192
  0
VERTEX
  5
B8E
  8
0
 10
-220.0000000000034
 20
-324.9999999999977
 30
-0.000000000003439
 70
   192
  0
VERTEX
  5
B8F
  8
0
 10
0.0
 20
0.0
 30
0.0
 70
   128
 71
     1
 72
     2
 73
    -3
  0
VERTEX
  5
B90
  8
0
 10
0.0
 20
0.0
 30
0.0
 70
   128
 71
    -1
 72
     3
 73
     4
  0
VERTEX
  5
B91
  8
0
 10
0.0
 20
0.0
 30
0.0
 70
   128
 71
     5
 72
     6
 73
    -2
  0
VERTEX
  5
B92
  8
0
 10
0.0
 20
0.0
 30
0.0
 70
   128
 71
     2
 72
     1
 73
    -7
  0
VERTEX
  5
B93
  8
0
 10
0.0
 20
0.0
 30
0.0
 70
   128
 71
    -2
 72
     7
 73
    -5
  0
VERTEX
  5
B94
  8
0
 10
0.0
 20
0.0
 30
0.0
 70
   128
 71
     4
 72
     3
 73
    -8
  0
VERTEX
  5
B95
  8
0
 10
0.0
 20
0.0
 30
0.0
 70
   128
 71
    -4
 72
     8
 73
     9
  0
SEQEND
  5
1294
  8
0
  0
POLYLINE
  5
B96
  8
0
 66
     1
 10
0.0
 20
0.0
 30
0.0
 70
    64
 71
     9
 72
     7
  0
VERTEX
  5
B97
  8
0
 10
-224.9999999999966
 20
323.6602540378467
 30
-0.0000000000012267
 70
   192
  0
VERTEX
  5
B98
  8
0
 10
-224.9999999999978
 20
323.6602540378459
 30
-50.00000000000123
 70
   192
  0
VERTEX
  5
B99
  8
0
 10
-228.6602540378422
 20
319.9999999999997
 30
-50.00000000000129
 70
   192
  0
VERTEX
  5
B9A
  8
0
 10
-228.6602540378411
 20
320.0000000000023
 30
-0.0000000000012778
 70
   192
  0
VERTEX
  5
B9B
  8
0
 10
-219.9999999999966
 20
325.0000000000023
 30
-0.0000000000011696
 70
   192
  0
VERTEX
  5
B9C
  8
0
 10
-219.999999999996
 20
325.0000000000024
 30
-50.00000000000117
 70
   192
  0
VERTEX
  5
B9D
  8
0
 10
-229.9999999999964
 20
315.0000000000024
 30
-35.00000000000131
 70
   192
  0
VERTEX
  5
B9E
  8
0
 10
-229.9999999999967
 20
315.0000000000023
 30
-0.0000000000013074
 70
   192
  0
VERTEX
  5
B9F
  8
0
 10
-229.9999999999962
 20
314.9999999999979
 30
-50.00000000000131
 70
   192
  0
VERTEX
  5
BA0
  8
0
 10
0.0
 20
0.0
 30
0.0
 70
   128
 71
     1
 72
     2
 73
    -3
  0
VERTEX
  5
BA1
  8
0
 10
0.0
 20
0.0
 30
0.0
 70
   128
 71
    -1
 72
     3
 73
     4
  0
VERTEX
  5
BA2
  8
0
 10
0.0
 20
0.0
 30
0.0
 70
   128
 71
     5
 72
     6
 73
    -2
  0
VERTEX
  5
BA3
  8
0
 10
0.0
 20
0.0
 30
0.0
 70
   128
 71
    -5
 72
     2
 73
     1
  0
VERTEX
  5
BA4
  8
0
 10
0.0
 20
0.0
 30
0.0
 70
   128
 71
    -4
 72
     7
 73
     8
  0
VERTEX
  5
BA5
  8
0
 10
0.0
 20
0.0
 30
0.0
 70
   128
 71
     4
 72
     3
 73
    -9
  0
VERTEX
  5
BA6
  8
0
 10
0.0
 20
0.0
 30
0.0
 70
   128
 71
    -4
 72
     9
 73
    -7
  0
SEQEND
  5
1295
  8
0
  0
POLYLINE
  5
BA7
  8
0
 66
     1
 10
0.0
 20
0.0
 30
0.0
 70
    64
 71
     4
 72
     2
  0
VERTEX
  5
BA8
  8
0
 10
220.0000000000043
 20
324.9999999999978
 30
-49.99999999999656
 70
   192
  0
VERTEX
  5
BA9
  8
0
 10
-219.9999999999966
 20
325.0000000000024
 30
-50.00000000000117
 70
   192
  0
VERTEX
  5
BAA
  8
0
 10
-219.9999999999966
 20
325.0000000000023
 30
-0.0000000000011653
 70
   192
  0
VERTEX
  5
BAB
  8
0
 10
220.0000000000034
 20
324.9999999999976
 30
0.0000000000034391
 70
   192
  0
VERTEX
  5
BAC
  8
0
 10
0.0
 20
0.0
 30
0.0
 70
   128
 71
     3
 72
     4
 73
    -1
  0
VERTEX
  5
BAD
  8
0
 10
0.0
 20
0.0
 30
0.0
 70
   128
 71
     2
 72
    -3
 73
     1
  0
SEQEND
  5
1296
  8
0
  0
POLYLINE
  5
BAE
  8
0
 66
     1
 10
0.0
 20
0.0
 30
0.0
 70
    64
 71
     8
 72
     6
  0
VERTEX
  5
BAF
  8
0
 10
228.6602540378477
 20
319.9999999999976
 30
0.0000000000035124
 70
   192
  0
VERTEX
  5
BB0
  8
0
 10
228.6602540378482
 20
319.9999999999978
 30
-49.99999999999648
 70
   192
  0
VERTEX
  5
BB1
  8
0
 10
225.000000000004
 20
323.6602540378421
 30
-49.9999999999965
 70
   192
  0
VERTEX
  5
BB2
  8
0
 10
225.0000000000034
 20
323.660254037842
 30
0.0000000000034868
 70
   192
  0
VERTEX
  5
BB3
  8
0
 10
230.0000000000033
 20
314.9999999999976
 30
0.0000000000035089
 70
   192
  0
VERTEX
  5
BB4
  8
0
 10
230.0000000000038
 20
314.9999999999977
 30
-49.99999999999648
 70
   192
  0
VERTEX
  5
BB5
  8
0
 10
220.0000000000043
 20
324.9999999999978
 30
-49.99999999999655
 70
   192
  0
VERTEX
  5
BB6
  8
0
 10
220.0000000000034
 20
324.9999999999976
 30
0.000000000003439
 70
   192
  0
VERTEX
  5
BB7
  8
0
 10
0.0
 20
0.0
 30
0.0
 70
   128
 71
     1
 72
     2
 73
    -3
  0
VERTEX
  5
BB8
  8
0
 10
0.0
 20
0.0
 30
0.0
 70
   128
 71
    -1
 72
     3
 73
     4
  0
VERTEX
  5
BB9
  8
0
 10
0.0
 20
0.0
 30
0.0
 70
   128
 71
     5
 72
     6
 73
    -2
  0
VERTEX
  5
BBA
  8
0
 10
0.0
 20
0.0
 30
0.0
 70
   128
 71
    -5
 72
     2
 73
     1
  0
VERTEX
  5
BBB
  8
0
 10
0.0
 20
0.0
 30
0.0
 70
   128
 71
     4
 72
     3
 73
    -7
  0
VERTEX
  5
BBC
  8
0
 10
0.0
 20
0.0
 30
0.0
 70
   128
 71
    -4
 72
     7
 73
     8
  0
SEQEND
  5
1297
  8
0
  0
POLYLINE
  5
BBD
  8
0
 66
     1
 10
0.0
 20
0.0
 30
0.0
 70
    64
 71
     4
 72
     2
  0
VERTEX
  5
BBE
  8
0
 10
229.9999999999972
 20
-315.0000000000022
 30
-49.99999999999869
 70
   192
  0
VERTEX
  5
BBF
  8
0
 10
230.0000000000038
 20
314.9999999999981
 30
-49.99999999999648
 70
   192
  0
VERTEX
  5
BC0
  8
0
 10
230.0000000000033
 20
314.9999999999976
 30
0.0000000000034959
 70
   192
  0
VERTEX
  5
BC1
  8
0
 10
229.9999999999967
 20
-315.0000000000024
 30
0.0000000000013093
 70
   192
  0
VERTEX
  5
BC2
  8
0
 10
0.0
 20
0.0
 30
0.0
 70
   128
 71
     3
 72
     4
 73
    -1
  0
VERTEX
  5
BC3
  8
0
 10
0.0
 20
0.0
 30
0.0
 70
   128
 71
     2
 72
    -3
 73
     1
  0
SEQEND
  5
1298
  8
0
  0
POLYLINE
  5
BC4
  8
0
 66
     1
 10
0.0
 20
0.0
 30
0.0
 70
    64
 71
     8
 72
     6
  0
VERTEX
  5
BC5
  8
0
 10
224.9999999999966
 20
-323.6602540378468
 30
0.0000000000012267
 70
   192
  0
VERTEX
  5
BC6
  8
0
 10
224.9999999999978
 20
-323.6602540378462
 30
-49.99999999999877
 70
   192
  0
VERTEX
  5
BC7
  8
0
 10
228.6602540378418
 20
-320.0000000000019
 30
-49.99999999999872
 70
   192
  0
VERTEX
  5
BC8
  8
0
 10
228.6602540378411
 20
-320.0000000000024
 30
0.0000000000012778
 70
   192
  0
VERTEX
  5
BC9
  8
0
 10
219.9999999999966
 20
-325.0000000000024
 30
0.0000000000011696
 70
   192
  0
VERTEX
  5
BCA
  8
0
 10
219.9999999999971
 20
-325.0000000000022
 30
-49.99999999999882
 70
   192
  0
VERTEX
  5
BCB
  8
0
 10
229.9999999999972
 20
-315.0000000000022
 30
-49.99999999999869
 70
   192
  0
VERTEX
  5
BCC
  8
0
 10
229.9999999999967
 20
-315.0000000000024
 30
0.0000000000013074
 70
   192
  0
VERTEX
  5
BCD
  8
0
 10
0.0
 20
0.0
 30
0.0
 70
   128
 71
     1
 72
     2
 73
    -3
  0
VERTEX
  5
BCE
  8
0
 10
0.0
 20
0.0
 30
0.0
 70
   128
 71
    -1
 72
     3
 73
     4
  0
VERTEX
  5
BCF
  8
0
 10
0.0
 20
0.0
 30
0.0
 70
   128
 71
     5
 72
     6
 73
    -2
  0
VERTEX
  5
BD0
  8
0
 10
0.0
 20
0.0
 30
0.0
 70
   128
 71
    -5
 72
     2
 73
     1
  0
VERTEX
  5
BD1
  8
0
 10
0.0
 20
0.0
 30
0.0
 70
   128
 71
     4
 72
     3
 73
    -7
  0
VERTEX
  5
BD2
  8
0
 10
0.0
 20
0.0
 30
0.0
 70
   128
 71
    -4
 72
     7
 73
     8
  0
SEQEND
  5
1299
  8
0
  0
POLYLINE
  5
BD3
  8
0
 66
     1
 10
0.0
 20
0.0
 30
0.0
 70
    64
 71
     4
 72
     2
  0
VERTEX
  5
BD4
  8
0
 10
-220.0000000000035
 20
-324.9999999999976
 30
-50.00000000000343
 70
   192
  0
VERTEX
  5
BD5
  8
0
 10
219.9999999999983
 20
-325.0000000000022
 30
-49.99999999999882
 70
   192
  0
VERTEX
  5
BD6
  8
0
 10
219.9999999999966
 20
-325.0000000000024
 30
0.0000000000011653
 70
   192
  0
VERTEX
  5
BD7
  8
0
 10
-220.0000000000034
 20
-324.9999999999977
 30
-0.0000000000034391
 70
   192
  0
VERTEX
  5
BD8
  8
0
 10
0.0
 20
0.0
 30
0.0
 70
   128
 71
     3
 72
     4
 73
    -1
  0
VERTEX
  5
BD9
  8
0
 10
0.0
 20
0.0
 30
0.0
 70
   128
 71
     2
 72
    -3
 73
     1
  0
SEQEND
  5
129A
  8
0
  0
POLYLINE
  5
BDA
  8
0
 66
     1
 10
0.0
 20
0.0
 30
0.0
 70
    64
 71
    32
 72
    32
  0
VERTEX
  5
BDB
  8
0
 10
-230.0000000000033
 20
-314.9999999999977
 30
-0.0000000000035089
 70
   192
  0
VERTEX
  5
BDC
  8
0
 10
-229.9999999999967
 20
315.0000000000023
 30
-0.0000000000013093
 70
   192
  0
VERTEX
  5
BDD
  8
0
 10
-228.6602540378411
 20
320.0000000000023
 30
-0.0000000000012778
 70
   192
  0
VERTEX
  5
BDE
  8
0
 10
-224.9999999999966
 20
323.6602540378467
 30
-0.0000000000012267
 70
   192
  0
VERTEX
  5
BDF
  8
0
 10
-219.9999999999966
 20
325.0000000000023
 30
-0.0000000000011696
 70
   192
  0
VERTEX
  5
BE0
  8
0
 10
220.0000000000034
 20
324.9999999999976
 30
0.0000000000034391
 70
   192
  0
VERTEX
  5
BE1
  8
0
 10
225.0000000000034
 20
323.660254037842
 30
0.0000000000034868
 70
   192
  0
VERTEX
  5
BE2
  8
0
 10
228.6602540378477
 20
319.9999999999976
 30
0.0000000000035124
 70
   192
  0
VERTEX
  5
BE3
  8
0
 10
230.0000000000033
 20
314.9999999999976
 30
0.0000000000035089
 70
   192
  0
VERTEX
  5
BE4
  8
0
 10
229.9999999999967
 20
-315.0000000000024
 30
0.0000000000013093
 70
   192
  0
VERTEX
  5
BE5
  8
0
 10
228.6602540378411
 20
-320.0000000000024
 30
0.0000000000012778
 70
   192
  0
VERTEX
  5
BE6
  8
0
 10
224.9999999999966
 20
-323.6602540378468
 30
0.0000000000012267
 70
   192
  0
VERTEX
  5
BE7
  8
0
 10
219.9999999999966
 20
-325.0000000000024
 30
0.0000000000011696
 70
   192
  0
VERTEX
  5
BE8
  8
0
 10
-220.0000000000034
 20
-324.9999999999977
 30
-0.0000000000034391
 70
   192
  0
VERTEX
  5
BE9
  8
0
 10
-225.0000000000034
 20
-323.6602540378421
 30
-0.0000000000034868
 70
   192
  0
VERTEX
  5
BEA
  8
0
 10
-228.6602540378477
 20
-319.9999999999977
 30
-0.0000000000035124
 70
   192
  0
VERTEX
  5
BEB
  8
0
 10
223.0000000000032
 20
307.9999999999973
 30
0.0000000000034111
 70
   192
  0
VERTEX
  5
BEC
  8
0
 10
221.6602540378478
 20
312.9999999999974
 30
0.0000000000034146
 70
   192
  0
VERTEX
  5
BED
  8
0
 10
218.0000000000034
 20
316.6602540378419
 30
0.000000000003389
 70
   192
  0
VERTEX
  5
BEE
  8
0
 10
213.0000000000034
 20
317.9999999999976
 30
0.0
 70
   192
  0
VERTEX
  5
BEF
  8
0
 10
-212.9999999999966
 20
318.0000000000021
 30
0.0
 70
   192
  0
VERTEX
  5
BF0
  8
0
 10
-217.9999999999966
 20
316.6602540378466
 30
0.0
 70
   192
  0
VERTEX
  5
BF1
  8
0
 10
-221.660254037841
 20
313.0000000000022
 30
0.0
 70
   192
  0
VERTEX
  5
BF2
  8
0
 10
-222.9999999999967
 20
308.0000000000023
 30
0.0
 70
   192
  0
VERTEX
  5
BF3
  8
0
 10
-223.0000000000032
 20
-307.9999999999977
 30
0.0
 70
   192
  0
VERTEX
  5
BF4
  8
0
 10
-221.6602540378477
 20
-312.9999999999977
 30
0.0
 70
   192
  0
VERTEX
  5
BF5
  8
0
 10
-218.0000000000033
 20
-316.6602540378421
 30
0.0
 70
   192
  0
VERTEX
  5
BF6
  8
0
 10
-213.0000000000033
 20
-317.9999999999978
 30
0.0
 70
   192
  0
VERTEX
  5
BF7
  8
0
 10
212.9999999999966
 20
-318.0000000000023
 30
0.0000000000011204
 70
   192
  0
VERTEX
  5
BF8
  8
0
 10
217.9999999999966
 20
-316.6602540378467
 30
0.0000000000011775
 70
   192
  0
VERTEX
  5
BF9
  8
0
 10
221.6602540378411
 20
-313.0000000000024
 30
0.0000000000012286
 70
   192
  0
VERTEX
  5
BFA
  8
0
 10
222.9999999999967
 20
-308.0000000000024
 30
0.0
 70
   192
  0
VERTEX
  5
BFB
  8
0
 10
0.0
 20
0.0
 30
0.0
 70
   128
 71
    18
 72
   -17
 73
    -7
  0
VERTEX
  5
BFC
  8
0
 10
0.0
 20
0.0
 30
0.0
 70
   128
 71
    -7
 72
    19
 73
   -18
  0
VERTEX
  5
BFD
  8
0
 10
0.0
 20
0.0
 30
0.0
 70
   128
 71
    -7
 72
    20
 73
   -19
  0
VERTEX
  5
BFE
  8
0
 10
0.0
 20
0.0
 30
0.0
 70
   128
 71
     7
 72
     6
 73
    -5
  0
VERTEX
  5
BFF
  8
0
 10
0.0
 20
0.0
 30
0.0
 70
   128
 71
    -7
 72
    -5
 73
   -21
  0
VERTEX
  5
C00
  8
0
 10
0.0
 20
0.0
 30
0.0
 70
   128
 71
    -7
 72
    21
 73
   -20
  0
VERTEX
  5
C01
  8
0
 10
0.0
 20
0.0
 30
0.0
 70
   128
 71
    -5
 72
    22
 73
   -21
  0
VERTEX
  5
C02
  8
0
 10
0.0
 20
0.0
 30
0.0
 70
   128
 71
     5
 72
    -4
 73
   -23
  0
VERTEX
  5
C03
  8
0
 10
0.0
 20
0.0
 30
0.0
 70
   128
 71
    -5
 72
    23
 73
   -22
  0
VERTEX
  5
C04
  8
0
 10
0.0
 20
0.0
 30
0.0
 70
   128
 71
    -4
 72
    24
 73
   -23
  0
VERTEX
  5
C05
  8
0
 10
0.0
 20
0.0
 30
0.0
 70
   128
 71
     4
 72
     3
 73
    -2
  0
VERTEX
  5
C06
  8
0
 10
0.0
 20
0.0
 30
0.0
 70
   128
 71
    -4
 72
     2
 73
    -1
  0
VERTEX
  5
C07
  8
0
 10
0.0
 20
0.0
 30
0.0
 70
   128
 71
    -4
 72
    -1
 73
   -25
  0
VERTEX
  5
C08
  8
0
 10
0.0
 20
0.0
 30
0.0
 70
   128
 71
    -4
 72
    25
 73
   -24
  0
VERTEX
  5
C09
  8
0
 10
0.0
 20
0.0
 30
0.0
 70
   128
 71
    -1
 72
    26
 73
   -25
  0
VERTEX
  5
C0A
  8
0
 10
0.0
 20
0.0
 30
0.0
 70
   128
 71
     1
 72
   -16
 73
   -27
  0
VERTEX
  5
C0B
  8
0
 10
0.0
 20
0.0
 30
0.0
 70
   128
 71
    -1
 72
    27
 73
   -26
  0
VERTEX
  5
C0C
  8
0
 10
0.0
 20
0.0
 30
0.0
 70
   128
 71
   -16
 72
    28
 73
   -27
  0
VERTEX
  5
C0D
  8
0
 10
0.0
 20
0.0
 30
0.0
 70
   128
 71
    16
 72
    15
 73
   -14
  0
VERTEX
  5
C0E
  8
0
 10
0.0
 20
0.0
 30
0.0
 70
   128
 71
   -16
 72
    14
 73
   -13
  0
VERTEX
  5
C0F
  8
0
 10
0.0
 20
0.0
 30
0.0
 70
   128
 71
   -16
 72
   -13
 73
   -29
  0
VERTEX
  5
C10
  8
0
 10
0.0
 20
0.0
 30
0.0
 70
   128
 71
   -16
 72
    29
 73
   -28
  0
VERTEX
  5
C11
  8
0
 10
0.0
 20
0.0
 30
0.0
 70
   128
 71
   -13
 72
    30
 73
   -29
  0
VERTEX
  5
C12
  8
0
 10
0.0
 20
0.0
 30
0.0
 70
   128
 71
    13
 72
   -12
 73
   -31
  0
VERTEX
  5
C13
  8
0
 10
0.0
 20
0.0
 30
0.0
 70
   128
 71
   -13
 72
    31
 73
   -30
  0
VERTEX
  5
C14
  8
0
 10
0.0
 20
0.0
 30
0.0
 70
   128
 71
   -12
 72
    32
 73
   -31
  0
VERTEX
  5
C15
  8
0
 10
0.0
 20
0.0
 30
0.0
 70
   128
 71
    12
 72
    11
 73
   -10
  0
VERTEX
  5
C16
  8
0
 10
0.0
 20
0.0
 30
0.0
 70
   128
 71
   -12
 72
    10
 73
    -9
  0
VERTEX
  5
C17
  8
0
 10
0.0
 20
0.0
 30
0.0
 70
   128
 71
   -12
 72
     9
 73
    -8
  0
VERTEX
  5
C18
  8
0
 10
0.0
 20
0.0
 30
0.0
 70
   128
 71
   -12
 72
     8
 73
    -7
  0
VERTEX
  5
C19
  8
0
 10
0.0
 20
0.0
 30
0.0
 70
   128
 71
   -12
 72
    -7
 73
   -17
  0
VERTEX
  5
C1A
  8
0
 10
0.0
 20
0.0
 30
0.0
 70
   128
 71
   -12
 72
    17
 73
   -32
  0
SEQEND
  5
129B
  8
0
  0
POLYLINE
  5
C1B
  8
0
 66
     1
 10
0.0
 20
0.0
 30
0.0
 70
    64
 71
     4
 72
     2
  0
VERTEX
  5
C1C
  8
0
 10
212.9999999999966
 20
-318.0000000000023
 30
0.0
 70
   192
  0
VERTEX
  5
C1D
  8
0
 10
-213.0000000000033
 20
-317.9999999999978
 30
0.0
 70
   192
  0
VERTEX
  5
C1E
  8
0
 10
-213.0000000000033
 20
-317.9999999999978
 30
-2.5
 70
   192
  0
VERTEX
  5
C1F
  8
0
 10
212.9999999999966
 20
-318.0000000000023
 30
-2.5
 70
   192
  0
VERTEX
  5
C20
  8
0
 10
0.0
 20
0.0
 30
0.0
 70
   128
 71
     1
 72
     4
 73
    -3
  0
VERTEX
  5
C21
  8
0
 10
0.0
 20
0.0
 30
0.0
 70
   128
 71
    -1
 72
     3
 73
     2
  0
SEQEND
  5
129C
  8
0
  0
POLYLINE
  5
C22
  8
0
 66
     1
 10
0.0
 20
0.0
 30
0.0
 70
    64
 71
     8
 72
     6
  0
VERTEX
  5
C23
  8
0
 10
-218.0000000000033
 20
-316.6602540378421
 30
-2.5
 70
   192
  0
VERTEX
  5
C24
  8
0
 10
-221.6602540378476
 20
-312.9999999999977
 30
-2.5
 70
   192
  0
VERTEX
  5
C25
  8
0
 10
-221.6602540378477
 20
-312.9999999999977
 30
0.0
 70
   192
  0
VERTEX
  5
C26
  8
0
 10
-218.0000000000033
 20
-316.6602540378421
 30
0.0
 70
   192
  0
VERTEX
  5
C27
  8
0
 10
-223.0000000000032
 20
-307.9999999999977
 30
-2.5
 70
   192
  0
VERTEX
  5
C28
  8
0
 10
-223.0000000000032
 20
-307.9999999999977
 30
0.0
 70
   192
  0
VERTEX
  5
C29
  8
0
 10
-213.0000000000033
 20
-317.9999999999978
 30
-2.5
 70
   192
  0
VERTEX
  5
C2A
  8
0
 10
-213.0000000000033
 20
-317.9999999999978
 30
0.0
 70
   192
  0
VERTEX
  5
C2B
  8
0
 10
0.0
 20
0.0
 30
0.0
 70
   128
 71
     1
 72
     2
 73
    -3
  0
VERTEX
  5
C2C
  8
0
 10
0.0
 20
0.0
 30
0.0
 70
   128
 71
     4
 72
    -1
 73
     3
  0
VERTEX
  5
C2D
  8
0
 10
0.0
 20
0.0
 30
0.0
 70
   128
 71
     2
 72
     5
 73
    -6
  0
VERTEX
  5
C2E
  8
0
 10
0.0
 20
0.0
 30
0.0
 70
   128
 71
     3
 72
    -2
 73
     6
  0
VERTEX
  5
C2F
  8
0
 10
0.0
 20
0.0
 30
0.0
 70
   128
 71
     7
 72
     1
 73
    -4
  0
VERTEX
  5
C30
  8
0
 10
0.0
 20
0.0
 30
0.0
 70
   128
 71
     8
 72
    -7
 73
     4
  0
SEQEND
  5
129D
  8
0
  0
POLYLINE
  5
C31
  8
0
 66
     1
 10
0.0
 20
0.0
 30
0.0
 70
    64
 71
     4
 72
     2
  0
VERTEX
  5
C32
  8
0
 10
-223.0000000000032
 20
-307.9999999999977
 30
0.0
 70
   192
  0
VERTEX
  5
C33
  8
0
 10
-222.9999999999967
 20
308.0000000000023
 30
0.0
 70
   192
  0
VERTEX
  5
C34
  8
0
 10
-222.9999999999967
 20
308.0000000000023
 30
-2.5
 70
   192
  0
VERTEX
  5
C35
  8
0
 10
-223.0000000000032
 20
-307.9999999999977
 30
-2.5
 70
   192
  0
VERTEX
  5
C36
  8
0
 10
0.0
 20
0.0
 30
0.0
 70
   128
 71
     1
 72
     4
 73
    -3
  0
VERTEX
  5
C37
  8
0
 10
0.0
 20
0.0
 30
0.0
 70
   128
 71
    -1
 72
     3
 73
     2
  0
SEQEND
  5
129E
  8
0
  0
POLYLINE
  5
C38
  8
0
 66
     1
 10
0.0
 20
0.0
 30
0.0
 70
    64
 71
     8
 72
     6
  0
VERTEX
  5
C39
  8
0
 10
-221.660254037841
 20
313.0000000000022
 30
-2.5
 70
   192
  0
VERTEX
  5
C3A
  8
0
 10
-217.9999999999966
 20
316.6602540378466
 30
-2.5
 70
   192
  0
VERTEX
  5
C3B
  8
0
 10
-217.9999999999966
 20
316.6602540378466
 30
0.0
 70
   192
  0
VERTEX
  5
C3C
  8
0
 10
-221.660254037841
 20
313.0000000000022
 30
0.0
 70
   192
  0
VERTEX
  5
C3D
  8
0
 10
-212.9999999999966
 20
318.0000000000021
 30
-2.5
 70
   192
  0
VERTEX
  5
C3E
  8
0
 10
-212.9999999999966
 20
318.0000000000021
 30
0.0
 70
   192
  0
VERTEX
  5
C3F
  8
0
 10
-222.9999999999967
 20
308.0000000000023
 30
-2.5
 70
   192
  0
VERTEX
  5
C40
  8
0
 10
-222.9999999999967
 20
308.0000000000023
 30
0.0
 70
   192
  0
VERTEX
  5
C41
  8
0
 10
0.0
 20
0.0
 30
0.0
 70
   128
 71
     1
 72
     2
 73
    -3
  0
VERTEX
  5
C42
  8
0
 10
0.0
 20
0.0
 30
0.0
 70
   128
 71
     4
 72
    -1
 73
     3
  0
VERTEX
  5
C43
  8
0
 10
0.0
 20
0.0
 30
0.0
 70
   128
 71
     2
 72
     5
 73
    -6
  0
VERTEX
  5
C44
  8
0
 10
0.0
 20
0.0
 30
0.0
 70
   128
 71
     3
 72
    -2
 73
     6
  0
VERTEX
  5
C45
  8
0
 10
0.0
 20
0.0
 30
0.0
 70
   128
 71
     7
 72
     1
 73
    -4
  0
VERTEX
  5
C46
  8
0
 10
0.0
 20
0.0
 30
0.0
 70
   128
 71
     8
 72
    -7
 73
     4
  0
SEQEND
  5
129F
  8
0
  0
POLYLINE
  5
C47
  8
0
 66
     1
 10
0.0
 20
0.0
 30
0.0
 70
    64
 71
     4
 72
     2
  0
VERTEX
  5
C48
  8
0
 10
-212.9999999999967
 20
318.0000000000021
 30
0.0
 70
   192
  0
VERTEX
  5
C49
  8
0
 10
213.0000000000034
 20
317.9999999999976
 30
0.0
 70
   192
  0
VERTEX
  5
C4A
  8
0
 10
213.0000000000034
 20
317.9999999999976
 30
-2.5
 70
   192
  0
VERTEX
  5
C4B
  8
0
 10
-212.9999999999966
 20
318.0000000000021
 30
-2.5
 70
   192
  0
VERTEX
  5
C4C
  8
0
 10
0.0
 20
0.0
 30
0.0
 70
   128
 71
     1
 72
     4
 73
    -3
  0
VERTEX
  5
C4D
  8
0
 10
0.0
 20
0.0
 30
0.0
 70
   128
 71
    -1
 72
     3
 73
     2
  0
SEQEND
  5
12A0
  8
0
  0
POLYLINE
  5
C4E
  8
0
 66
     1
 10
0.0
 20
0.0
 30
0.0
 70
    64
 71
     4
 72
     2
  0
VERTEX
  5
C4F
  8
0
 10
223.0000000000032
 20
307.9999999999973
 30
0.0
 70
   192
  0
VERTEX
  5
C50
  8
0
 10
222.9999999999967
 20
-308.0000000000024
 30
0.0
 70
   192
  0
VERTEX
  5
C51
  8
0
 10
222.9999999999967
 20
-308.0000000000024
 30
-2.5
 70
   192
  0
VERTEX
  5
C52
  8
0
 10
223.0000000000032
 20
307.9999999999975
 30
-2.5
 70
   192
  0
VERTEX
  5
C53
  8
0
 10
0.0
 20
0.0
 30
0.0
 70
   128
 71
     1
 72
     4
 73
    -3
  0
VERTEX
  5
C54
  8
0
 10
0.0
 20
0.0
 30
0.0
 70
   128
 71
    -1
 72
     3
 73
     2
  0
SEQEND
  5
12A1
  8
0
  0
POLYLINE
  5
C55
  8
0
 66
     1
 10
0.0
 20
0.0
 30
0.0
 70
    64
 71
    38
 72
    38
  0
VERTEX
  5
C56
  8
0
 10
-106.9412620521157
 20
314.4983843100664
 30
-4.999999999997033
 70
   192
  0
VERTEX
  5
C57
  8
0
 10
216.744462759692
 20
314.498384310063
 30
-4.999999999994772
 70
   192
  0
VERTEX
  5
C58
  8
0
 10
215.5611461406805
 20
315.04915104435
 30
-5.0
 70
   192
  0
VERTEX
  5
C59
  8
0
 10
214.3002628902215
 20
315.3864278522359
 30
-5.0
 70
   192
  0
VERTEX
  5
C5A
  8
0
 10
213.0000000000033
 20
315.4999999999976
 30
-5.0
 70
   192
  0
VERTEX
  5
C5B
  8
0
 10
-212.9999999999967
 20
315.5000000000022
 30
-5.0
 70
   192
  0
VERTEX
  5
C5C
  8
0
 10
-216.7499999999967
 20
314.4951905283855
 30
-5.0
 70
   192
  0
VERTEX
  5
C5D
  8
0
 10
-219.49519052838
 20
311.7500000000022
 30
-5.0
 70
   192
  0
VERTEX
  5
C5E
  8
0
 10
-220.4999999999967
 20
308.0000000000023
 30
-5.0
 70
   192
  0
VERTEX
  5
C5F
  8
0
 10
-220.5000000000032
 20
-307.9999999999977
 30
-5.0
 70
   192
  0
VERTEX
  5
C60
  8
0
 10
-219.4951905283866
 20
-311.7499999999977
 30
-5.0
 70
   192
  0
VERTEX
  5
C61
  8
0
 10
-216.7500000000033
 20
-314.495190528381
 30
-5.0
 70
   192
  0
VERTEX
  5
C62
  8
0
 10
-213.0000000000033
 20
-315.4999999999978
 30
-5.0
 70
   192
  0
VERTEX
  5
C63
  8
0
 10
212.9999999999966
 20
-315.5000000000023
 30
-5.0
 70
   192
  0
VERTEX
  5
C64
  8
0
 10
214.300262890215
 20
-315.3864278522406
 30
-5.0
 70
   192
  0
VERTEX
  5
C65
  8
0
 10
215.5611461406741
 20
-315.0491510443546
 30
-5.0
 70
   192
  0
VERTEX
  5
C66
  8
0
 10
216.7444627596857
 20
-314.4983843100675
 30
-5.0
 70
   192
  0
VERTEX
  5
C67
  8
0
 10
-106.9412620521155
 20
-314.4983843100641
 30
-4.999999999999248
 70
   192
  0
VERTEX
  5
C68
  8
0
 10
-110.7694974847751
 20
-293.8106037749577
 30
-4.999999999999877
 70
   192
  0
VERTEX
  5
C69
  8
0
 10
-113.9599771434263
 20
-273.0190272267189
 30
-4.999999999999999
 70
   192
  0
VERTEX
  5
C6A
  8
0
 10
-115.8903634398152
 20
-252.0779241254603
 30
-5.0
 70
   192
  0
VERTEX
  5
C6B
  8
0
 10
-116.0007447100302
 20
-249.5263989723892
 30
-4.999999999999998
 70
   192
  0
VERTEX
  5
C6C
  8
0
 10
-116.076460401435
 20
-246.9737113853196
 30
-5.0
 70
   192
  0
VERTEX
  5
C6D
  8
0
 10
-116.1045737922898
 20
-244.41942755972
 30
-5.0
 70
   192
  0
VERTEX
  5
C6E
  8
0
 10
-116.1045737922898
 20
244.4194275597167
 30
-5.0
 70
   192
  0
VERTEX
  5
C6F
  8
0
 10
-116.0764604014349
 20
246.9737113853184
 30
-5.0
 70
   192
  0
VERTEX
  5
C70
  8
0
 10
-116.00074471003
 20
249.5263989723899
 30
-5.0
 70
   192
  0
VERTEX
  5
C71
  8
0
 10
-115.8903634398148
 20
252.0779241254629
 30
-5.0
 70
   192
  0
VERTEX
  5
C72
  8
0
 10
-113.9599752956608
 20
273.019041590714
 30
-5.0
 70
   192
  0
VERTEX
  5
C73
  8
0
 10
-110.7687551518164
 20
293.8107339095945
 30
-5.000000000000001
 70
   192
  0
VERTEX
  5
C74
  8
0
 10
-191.000000000004
 20
0.0
 30
-5.000000000000004
 70
   192
  0
VERTEX
  5
C75
  8
0
 10
-185.7279220613617
 20
12.72792206135822
 30
-5.000000000000004
 70
   192
  0
VERTEX
  5
C76
  8
0
 10
-173.0000000000034
 20
18.00000000000052
 30
-5.000000000000004
 70
   192
  0
VERTEX
  5
C77
  8
0
 10
-160.2720779386452
 20
12.72792206135822
 30
-5.000000000000004
 70
   192
  0
VERTEX
  5
C78
  8
0
 10
-155.0000000000029
 20
0.0
 30
-5.000000000000004
 70
   192
  0
VERTEX
  5
C79
  8
0
 10
-160.2720779386452
 20
-12.72792206135822
 30
-5.000000000000004
 70
   192
  0
VERTEX
  5
C7A
  8
0
 10
-173.0000000000034
 20
-18.00000000000052
 30
-5.000000000000004
 70
   192
  0
VERTEX
  5
C7B
  8
0
 10
-185.7279220613617
 20
-12.72792206135822
 30
-5.000000000000004
 70
   192
  0
VERTEX
  5
C7C
  8
0
 10
0.0
 20
0.0
 30
0.0
 70
   128
 71
     3
 72
     4
 73
    -5
  0
VERTEX
  5
C7D
  8
0
 10
0.0
 20
0.0
 30
0.0
 70
   128
 71
     2
 72
    -3
 73
    -5
  0
VERTEX
  5
C7E
  8
0
 10
0.0
 20
0.0
 30
0.0
 70
   128
 71
    17
 72
   -18
 73
   -14
  0
VERTEX
  5
C7F
  8
0
 10
0.0
 20
0.0
 30
0.0
 70
   128
 71
    15
 72
    16
 73
   -17
  0
VERTEX
  5
C80
  8
0
 10
0.0
 20
0.0
 30
0.0
 70
   128
 71
    14
 72
   -15
 73
   -17
  0
VERTEX
  5
C81
  8
0
 10
0.0
 20
0.0
 30
0.0
 70
   128
 71
   -18
 72
    13
 73
   -14
  0
VERTEX
  5
C82
  8
0
 10
0.0
 20
0.0
 30
0.0
 70
   128
 71
    11
 72
    12
 73
   -13
  0
VERTEX
  5
C83
  8
0
 10
0.0
 20
0.0
 30
0.0
 70
   128
 71
   -19
 72
   -11
 73
   -13
  0
VERTEX
  5
C84
  8
0
 10
0.0
 20
0.0
 30
0.0
 70
   128
 71
    18
 72
   -19
 73
   -13
  0
VERTEX
  5
C85
  8
0
 10
0.0
 20
0.0
 30
0.0
 70
   128
 71
   -20
 72
    10
 73
   -11
  0
VERTEX
  5
C86
  8
0
 10
0.0
 20
0.0
 30
0.0
 70
   128
 71
    19
 72
   -20
 73
   -11
  0
VERTEX
  5
C87
  8
0
 10
0.0
 20
0.0
 30
0.0
 70
   128
 71
    20
 72
   -21
 73
   -10
  0
VERTEX
  5
C88
  8
0
 10
0.0
 20
0.0
 30
0.0
 70
   128
 71
    21
 72
   -22
 73
   -10
  0
VERTEX
  5
C89
  8
0
 10
0.0
 20
0.0
 30
0.0
 70
   128
 71
    22
 72
   -23
 73
   -10
  0
VERTEX
  5
C8A
  8
0
 10
0.0
 20
0.0
 30
0.0
 70
   128
 71
    23
 72
   -24
 73
   -10
  0
VERTEX
  5
C8B
  8
0
 10
0.0
 20
0.0
 30
0.0
 70
   128
 71
     9
 72
   -10
 73
   -31
  0
VERTEX
  5
C8C
  8
0
 10
0.0
 20
0.0
 30
0.0
 70
   128
 71
    31
 72
   -32
 73
    -9
  0
VERTEX
  5
C8D
  8
0
 10
0.0
 20
0.0
 30
0.0
 70
   128
 71
   -33
 72
   -25
 73
    -9
  0
VERTEX
  5
C8E
  8
0
 10
0.0
 20
0.0
 30
0.0
 70
   128
 71
    32
 72
   -33
 73
    -9
  0
VERTEX
  5
C8F
  8
0
 10
0.0
 20
0.0
 30
0.0
 70
   128
 71
    33
 72
   -34
 73
   -25
  0
VERTEX
  5
C90
  8
0
 10
0.0
 20
0.0
 30
0.0
 70
   128
 71
    34
 72
   -35
 73
   -25
  0
VERTEX
  5
C91
  8
0
 10
0.0
 20
0.0
 30
0.0
 70
   128
 71
    24
 72
   -25
 73
   -35
  0
VERTEX
  5
C92
  8
0
 10
0.0
 20
0.0
 30
0.0
 70
   128
 71
    35
 72
   -36
 73
   -24
  0
VERTEX
  5
C93
  8
0
 10
0.0
 20
0.0
 30
0.0
 70
   128
 71
    36
 72
   -37
 73
   -24
  0
VERTEX
  5
C94
  8
0
 10
0.0
 20
0.0
 30
0.0
 70
   128
 71
   -38
 72
   -10
 73
   -24
  0
VERTEX
  5
C95
  8
0
 10
0.0
 20
0.0
 30
0.0
 70
   128
 71
    37
 72
   -38
 73
   -24
  0
VERTEX
  5
C96
  8
0
 10
0.0
 20
0.0
 30
0.0
 70
   128
 71
    38
 72
   -31
 73
   -10
  0
VERTEX
  5
C97
  8
0
 10
0.0
 20
0.0
 30
0.0
 70
   128
 71
    25
 72
   -26
 73
    -9
  0
VERTEX
  5
C98
  8
0
 10
0.0
 20
0.0
 30
0.0
 70
   128
 71
    26
 72
   -27
 73
    -9
  0
VERTEX
  5
C99
  8
0
 10
0.0
 20
0.0
 30
0.0
 70
   128
 71
    27
 72
   -28
 73
    -9
  0
VERTEX
  5
C9A
  8
0
 10
0.0
 20
0.0
 30
0.0
 70
   128
 71
    28
 72
   -29
 73
    -9
  0
VERTEX
  5
C9B
  8
0
 10
0.0
 20
0.0
 30
0.0
 70
   128
 71
     7
 72
     8
 73
    -9
  0
VERTEX
  5
C9C
  8
0
 10
0.0
 20
0.0
 30
0.0
 70
   128
 71
   -30
 72
    -7
 73
    -9
  0
VERTEX
  5
C9D
  8
0
 10
0.0
 20
0.0
 30
0.0
 70
   128
 71
    29
 72
   -30
 73
    -9
  0
VERTEX
  5
C9E
  8
0
 10
0.0
 20
0.0
 30
0.0
 70
   128
 71
    -1
 72
     6
 73
    -7
  0
VERTEX
  5
C9F
  8
0
 10
0.0
 20
0.0
 30
0.0
 70
   128
 71
    30
 72
    -1
 73
    -7
  0
VERTEX
  5
CA0
  8
0
 10
0.0
 20
0.0
 30
0.0
 70
   128
 71
     5
 72
    -6
 73
    -1
  0
VERTEX
  5
CA1
  8
0
 10
0.0
 20
0.0
 30
0.0
 70
   128
 71
     1
 72
    -2
 73
    -5
  0
SEQEND
  5
12A2
  8
0
  0
POLYLINE
  5
CA2
  8
0
 66
     1
 10
0.0
 20
0.0
 30
0.0
 70
    64
 71
    11
 72
     9
  0
VERTEX
  5
CA3
  8
0
 10
-97.3360968932896
 20
54.26964878414606
 30
-114.7652316125784
 70
   192
  0
VERTEX
  5
CA4
  8
0
 10
-26.50136037689255
 20
54.26964878414532
 30
-114.7652316125779
 70
   192
  0
VERTEX
  5
CA5
  8
0
 10
-13.99904329243751
 20
68.12006432960084
 30
-113.2984766717656
 70
   192
  0
VERTEX
  5
CA6
  8
0
 10
-98.15196626621841
 20
102.1997766253636
 30
-104.8912473251451
 70
   192
  0
VERTEX
  5
CA7
  8
0
 10
10.62350126183401
 20
96.04804508892764
 30
-106.9401861158295
 70
   192
  0
VERTEX
  5
CA8
  8
0
 10
19.62180872748268
 20
105.8839108864797
 30
-103.5446859197555
 70
   192
  0
VERTEX
  5
CA9
  8
0
 10
28.9558723788117
 20
115.3837080610958
 30
-99.64143568970657
 70
   192
  0
VERTEX
  5
CAA
  8
0
 10
38.57705128038423
 20
124.6640707519175
 30
-95.1931202099952
 70
   192
  0
VERTEX
  5
CAB
  8
0
 10
-98.9533048806712
 20
124.6640707519189
 30
-95.19312020999617
 70
   192
  0
VERTEX
  5
CAC
  8
0
 10
-1.338469762780965
 20
82.42546687613579
 30
-110.6267500767878
 70
   192
  0
VERTEX
  5
CAD
  8
0
 10
-97.60786401052461
 20
78.51589423065741
 30
-111.4761949916955
 70
   192
  0
VERTEX
  5
CAE
  8
0
 10
0.0
 20
0.0
 30
0.0
 70
   128
 71
     1
 72
     2
 73
     3
  0
VERTEX
  5
CAF
  8
0
 10
0.0
 20
0.0
 30
0.0
 70
   128
 71
     4
 72
     5
 73
     6
  0
VERTEX
  5
CB0
  8
0
 10
0.0
 20
0.0
 30
0.0
 70
   128
 71
     7
 72
     8
 73
     9
  0
VERTEX
  5
CB1
  8
0
 10
0.0
 20
0.0
 30
0.0
 70
   128
 71
    10
 72
    11
 73
     3
  0
VERTEX
  5
CB2
  8
0
 10
0.0
 20
0.0
 30
0.0
 70
   128
 71
    11
 72
     1
 73
     3
  0
VERTEX
  5
CB3
  8
0
 10
0.0
 20
0.0
 30
0.0
 70
   128
 71
     4
 72
    11
 73
    10
  0
VERTEX
  5
CB4
  8
0
 10
0.0
 20
0.0
 30
0.0
 70
   128
 71
     5
 72
     4
 73
    10
  0
VERTEX
  5
CB5
  8
0
 10
0.0
 20
0.0
 30
0.0
 70
   128
 71
     9
 72
     4
 73
     6
  0
VERTEX
  5
CB6
  8
0
 10
0.0
 20
0.0
 30
0.0
 70
   128
 71
     7
 72
     9
 73
     6
  0
SEQEND
  5
12A3
  8
0
  0
POLYLINE
  5
CB7
  8
0
 66
     1
 10
0.0
 20
0.0
 30
0.0
 70
    64
 71
    11
 72
     9
  0
VERTEX
  5
CB8
  8
0
 10
-98.95330488067121
 20
124.6640707519189
 30
-95.19312020999617
 70
   192
  0
VERTEX
  5
CB9
  8
0
 10
38.57705128038423
 20
124.6640707519175
 30
-95.1931202099952
 70
   192
  0
VERTEX
  5
CBA
  8
0
 10
47.04183251860233
 20
132.7824184861473
 30
-90.9045500398872
 70
   192
  0
VERTEX
  5
CBB
  8
0
 10
87.10695405346192
 20
173.3665035351021
 30
-65.9903052332461
 70
   192
  0
VERTEX
  5
CBC
  8
0
 10
-100.5632578110761
 20
157.6476647893932
 30
-76.36332409886717
 70
   192
  0
VERTEX
  5
CBD
  8
0
 10
63.54754768101546
 20
149.3553646788515
 30
-81.45706382562265
 70
   192
  0
VERTEX
  5
CBE
  8
0
 10
55.38031806094361
 20
141.0371543096748
 30
-86.31791329396653
 70
   192
  0
VERTEX
  5
CBF
  8
0
 10
-102.4140805003541
 20
188.9411711559744
 30
-54.71634720980191
 70
   192
  0
VERTEX
  5
CC0
  8
0
 10
110.0654041072609
 20
196.2481157328789
 30
-49.05807056431209
 70
   192
  0
VERTEX
  5
CC1
  8
0
 10
-104.4850780515257
 20
218.1946828107884
 30
-30.49423431523336
 70
   192
  0
VERTEX
  5
CC2
  8
0
 10
132.5161757364799
 20
218.1946828107858
 30
-30.4942343152317
 70
   192
  0
VERTEX
  5
CC3
  8
0
 10
0.0
 20
0.0
 30
0.0
 70
   128
 71
     1
 72
     2
 73
     3
  0
VERTEX
  5
CC4
  8
0
 10
0.0
 20
0.0
 30
0.0
 70
   128
 71
     4
 72
     5
 73
     6
  0
VERTEX
  5
CC5
  8
0
 10
0.0
 20
0.0
 30
0.0
 70
   128
 71
     1
 72
     3
 73
     7
  0
VERTEX
  5
CC6
  8
0
 10
0.0
 20
0.0
 30
0.0
 70
   128
 71
     5
 72
     1
 73
     7
  0
VERTEX
  5
CC7
  8
0
 10
0.0
 20
0.0
 30
0.0
 70
   128
 71
     7
 72
     6
 73
     5
  0
VERTEX
  5
CC8
  8
0
 10
0.0
 20
0.0
 30
0.0
 70
   128
 71
     8
 72
     5
 73
     4
  0
VERTEX
  5
CC9
  8
0
 10
0.0
 20
0.0
 30
0.0
 70
   128
 71
     9
 72
     8
 73
     4
  0
VERTEX
  5
CCA
  8
0
 10
0.0
 20
0.0
 30
0.0
 70
   128
 71
    10
 72
     8
 73
     9
  0
VERTEX
  5
CCB
  8
0
 10
0.0
 20
0.0
 30
0.0
 70
   128
 71
    11
 72
    10
 73
     9
  0
SEQEND
  5
12A4
  8
0
  0
POLYLINE
  5
CCC
  8
0
 66
     1
 10
0.0
 20
0.0
 30
0.0
 70
    64
 71
    11
 72
     9
  0
VERTEX
  5
CCD
  8
0
 10
217.3302481378748
 20
314.1274449558651
 30
-5.000249826943826
 70
   192
  0
VERTEX
  5
CCE
  8
0
 10
216.744462759692
 20
314.498384310063
 30
-4.999999999999974
 70
   192
  0
VERTEX
  5
CCF
  8
0
 10
-106.9412620521157
 20
314.4983843100664
 30
-4.999999999997033
 70
   192
  0
VERTEX
  5
CD0
  8
0
 10
200.6874541351257
 20
293.1620435374952
 30
-5.844341314972091
 70
   192
  0
VERTEX
  5
CD1
  8
0
 10
218.3845015518214
 20
313.2335247084768
 30
-5.002962807105979
 70
   192
  0
VERTEX
  5
CD2
  8
0
 10
217.8769282733592
 20
313.7058284483312
 30
-5.001158055470263
 70
   192
  0
VERTEX
  5
CD3
  8
0
 10
-106.8715323932098
 20
294.1409354219998
 30
-5.768548875189317
 70
   192
  0
VERTEX
  5
CD4
  8
0
 10
-106.6623434164923
 20
273.8706241892049
 30
-8.07419550076607
 70
   192
  0
VERTEX
  5
CD5
  8
0
 10
183.326555258946
 20
273.4471751384256
 30
-8.13899055081444
 70
   192
  0
VERTEX
  5
CD6
  8
0
 10
-106.3154821148665
 20
253.8606093645504
 30
-11.89724393374669
 70
   192
  0
VERTEX
  5
CD7
  8
0
 10
166.1214417739528
 20
253.8606093645475
 30
-11.89724393374478
 70
   192
  0
VERTEX
  5
CD8
  8
0
 10
0.0
 20
0.0
 30
0.0
 70
   128
 71
     1
 72
     2
 73
     3
  0
VERTEX
  5
CD9
  8
0
 10
0.0
 20
0.0
 30
0.0
 70
   128
 71
     4
 72
     5
 73
     6
  0
VERTEX
  5
CDA
  8
0
 10
0.0
 20
0.0
 30
0.0
 70
   128
 71
     6
 72
     1
 73
     3
  0
VERTEX
  5
CDB
  8
0
 10
0.0
 20
0.0
 30
0.0
 70
   128
 71
     6
 72
     3
 73
     7
  0
VERTEX
  5
CDC
  8
0
 10
0.0
 20
0.0
 30
0.0
 70
   128
 71
     6
 72
     7
 73
     4
  0
VERTEX
  5
CDD
  8
0
 10
0.0
 20
0.0
 30
0.0
 70
   128
 71
     4
 72
     7
 73
     8
  0
VERTEX
  5
CDE
  8
0
 10
0.0
 20
0.0
 30
0.0
 70
   128
 71
     4
 72
     8
 73
     9
  0
VERTEX
  5
CDF
  8
0
 10
0.0
 20
0.0
 30
0.0
 70
   128
 71
     9
 72
     8
 73
    10
  0
VERTEX
  5
CE0
  8
0
 10
0.0
 20
0.0
 30
0.0
 70
   128
 71
     9
 72
    10
 73
    11
  0
SEQEND
  5
12A5
  8
0
  0
POLYLINE
  5
CE1
  8
0
 66
     1
 10
0.0
 20
0.0
 30
0.0
 70
    64
 71
    14
 72
    12
  0
VERTEX
  5
CE2
  8
0
 10
162.3929758399144
 20
249.9123011489831
 30
-12.91378578354873
 70
   192
  0
VERTEX
  5
CE3
  8
0
 10
164.3566823785988
 20
251.9235041895176
 30
-12.36914257223191
 70
   192
  0
VERTEX
  5
CE4
  8
0
 10
166.1214417739528
 20
253.8606093645475
 30
-11.8972439337448
 70
   192
  0
VERTEX
  5
CE5
  8
0
 10
160.2303221578996
 20
247.8302085422598
 30
-13.53758343429424
 70
   192
  0
VERTEX
  5
CE6
  8
0
 10
-106.3154821148665
 20
253.8606093645504
 30
-11.89724393374669
 70
   192
  0
VERTEX
  5
CE7
  8
0
 10
-105.9087156209749
 20
241.0040668773968
 30
-16.03001042280626
 70
   192
  0
VERTEX
  5
CE8
  8
0
 10
151.9661226793
 20
239.5684298441473
 30
-16.64595530203385
 70
   192
  0
VERTEX
  5
CE9
  8
0
 10
-105.2897460547742
 20
228.9432746571078
 30
-22.3187699921315
 70
   192
  0
VERTEX
  5
CEA
  8
0
 10
144.2566843055552
 20
231.2167367367361
 30
-20.9277327604202
 70
   192
  0
VERTEX
  5
CEB
  8
0
 10
137.1187752884073
 20
223.0840926289552
 30
-26.41786805637703
 70
   192
  0
VERTEX
  5
CEC
  8
0
 10
135.6435190913461
 20
221.4162199961877
 30
-27.73505068000866
 70
   192
  0
VERTEX
  5
CED
  8
0
 10
134.1093192407036
 20
219.7860826628124
 30
-29.0942163175065
 70
   192
  0
VERTEX
  5
CEE
  8
0
 10
-104.4850780515257
 20
218.1946828107883
 30
-30.49423431523336
 70
   192
  0
VERTEX
  5
CEF
  8
0
 10
132.5161757364799
 20
218.1946828107858
 30
-30.4942343152317
 70
   192
  0
VERTEX
  5
CF0
  8
0
 10
0.0
 20
0.0
 30
0.0
 70
   128
 71
     1
 72
     2
 73
     3
  0
VERTEX
  5
CF1
  8
0
 10
0.0
 20
0.0
 30
0.0
 70
   128
 71
     4
 72
     1
 73
     3
  0
VERTEX
  5
CF2
  8
0
 10
0.0
 20
0.0
 30
0.0
 70
   128
 71
     4
 72
     3
 73
     5
  0
VERTEX
  5
CF3
  8
0
 10
0.0
 20
0.0
 30
0.0
 70
   128
 71
     4
 72
     5
 73
     6
  0
VERTEX
  5
CF4
  8
0
 10
0.0
 20
0.0
 30
0.0
 70
   128
 71
     4
 72
     6
 73
     7
  0
VERTEX
  5
CF5
  8
0
 10
0.0
 20
0.0
 30
0.0
 70
   128
 71
     7
 72
     6
 73
     8
  0
VERTEX
  5
CF6
  8
0
 10
0.0
 20
0.0
 30
0.0
 70
   128
 71
     7
 72
     8
 73
     9
  0
VERTEX
  5
CF7
  8
0
 10
0.0
 20
0.0
 30
0.0
 70
   128
 71
    10
 72
     9
 73
     8
  0
VERTEX
  5
CF8
  8
0
 10
0.0
 20
0.0
 30
0.0
 70
   128
 71
     8
 72
    11
 73
    10
  0
VERTEX
  5
CF9
  8
0
 10
0.0
 20
0.0
 30
0.0
 70
   128
 71
     8
 72
    12
 73
    11
  0
VERTEX
  5
CFA
  8
0
 10
0.0
 20
0.0
 30
0.0
 70
   128
 71
     8
 72
    13
 73
    14
  0
VERTEX
  5
CFB
  8
0
 10
0.0
 20
0.0
 30
0.0
 70
   128
 71
     8
 72
    14
 73
    12
  0
SEQEND
  5
12A6
  8
0
  0
POLYLINE
  5
CFC
  8
0
 66
     1
 10
0.0
 20
0.0
 30
0.0
 70
    64
 71
    14
 72
    12
  0
VERTEX
  5
CFD
  8
0
 10
134.1093192407026
 20
-219.7860826628159
 30
-29.09421631750731
 70
   192
  0
VERTEX
  5
CFE
  8
0
 10
132.516175736478
 20
-218.1946828107884
 30
-30.49423431523322
 70
   192
  0
VERTEX
  5
CFF
  8
0
 10
-104.4850780515257
 20
-218.1946828107858
 30
-30.49423431523492
 70
   192
  0
VERTEX
  5
D00
  8
0
 10
-106.3154821148664
 20
-253.860609364548
 30
-11.89724393374854
 70
   192
  0
VERTEX
  5
D01
  8
0
 10
162.3929758399116
 20
-249.9123011489898
 30
-12.91378578354951
 70
   192
  0
VERTEX
  5
D02
  8
0
 10
160.2303221578996
 20
-247.8302085422685
 30
-13.53758343429425
 70
   192
  0
VERTEX
  5
D03
  8
0
 10
166.1214417739459
 20
-253.8606093645509
 30
-11.89724393374664
 70
   192
  0
VERTEX
  5
D04
  8
0
 10
164.3566823785937
 20
-251.9235041895226
 30
-12.36914257223329
 70
   192
  0
VERTEX
  5
D05
  8
0
 10
135.6435190913457
 20
-221.4162199961919
 30
-27.73505068000897
 70
   192
  0
VERTEX
  5
D06
  8
0
 10
-105.2897460547742
 20
-228.9432746571054
 30
-22.31876999213314
 70
   192
  0
VERTEX
  5
D07
  8
0
 10
137.1187752884073
 20
-223.08409262896
 30
-26.41786805637703
 70
   192
  0
VERTEX
  5
D08
  8
0
 10
144.2417344002782
 20
-231.2000930532171
 30
-20.93754120117872
 70
   192
  0
VERTEX
  5
D09
  8
0
 10
-105.9087156209748
 20
-241.0040668773945
 30
-16.03001042280798
 70
   192
  0
VERTEX
  5
D0A
  8
0
 10
151.956210578274
 20
-239.5580184032886
 30
-16.65054259530638
 70
   192
  0
VERTEX
  5
D0B
  8
0
 10
0.0
 20
0.0
 30
0.0
 70
   128
 71
     1
 72
     2
 73
     3
  0
VERTEX
  5
D0C
  8
0
 10
0.0
 20
0.0
 30
0.0
 70
   128
 71
     4
 72
     5
 73
     6
  0
VERTEX
  5
D0D
  8
0
 10
0.0
 20
0.0
 30
0.0
 70
   128
 71
     4
 72
     7
 73
     5
  0
VERTEX
  5
D0E
  8
0
 10
0.0
 20
0.0
 30
0.0
 70
   128
 71
     7
 72
     8
 73
     5
  0
VERTEX
  5
D0F
  8
0
 10
0.0
 20
0.0
 30
0.0
 70
   128
 71
     9
 72
     1
 73
     3
  0
VERTEX
  5
D10
  8
0
 10
0.0
 20
0.0
 30
0.0
 70
   128
 71
     9
 72
     3
 73
    10
  0
VERTEX
  5
D11
  8
0
 10
0.0
 20
0.0
 30
0.0
 70
   128
 71
    10
 72
    11
 73
     9
  0
VERTEX
  5
D12
  8
0
 10
0.0
 20
0.0
 30
0.0
 70
   128
 71
    10
 72
    12
 73
    11
  0
VERTEX
  5
D13
  8
0
 10
0.0
 20
0.0
 30
0.0
 70
   128
 71
    12
 72
    10
 73
    13
  0
VERTEX
  5
D14
  8
0
 10
0.0
 20
0.0
 30
0.0
 70
   128
 71
    12
 72
    13
 73
    14
  0
VERTEX
  5
D15
  8
0
 10
0.0
 20
0.0
 30
0.0
 70
   128
 71
    14
 72
    13
 73
     4
  0
VERTEX
  5
D16
  8
0
 10
0.0
 20
0.0
 30
0.0
 70
   128
 71
    14
 72
     4
 73
     6
  0
SEQEND
  5
12A7
  8
0
  0
POLYLINE
  5
D17
  8
0
 66
     1
 10
0.0
 20
0.0
 30
0.0
 70
    64
 71
    11
 72
     9
  0
VERTEX
  5
D18
  8
0
 10
217.3302481170137
 20
-314.1274449704403
 30
-5.000249826935881
 70
   192
  0
VERTEX
  5
D19
  8
0
 10
217.8769282348984
 20
-313.705828480988
 30
-5.001158055455633
 70
   192
  0
VERTEX
  5
D1A
  8
0
 10
218.3845014991421
 20
-313.2335247627161
 30
-5.002962807118442
 70
   192
  0
VERTEX
  5
D1B
  8
0
 10
-106.9412620521155
 20
-314.4983843100642
 30
-4.999999999999247
 70
   192
  0
VERTEX
  5
D1C
  8
0
 10
216.7444627596857
 20
-314.4983843100675
 30
-4.999999999996987
 70
   192
  0
VERTEX
  5
D1D
  8
0
 10
166.1214417739459
 20
-253.8606093645508
 30
-11.89724393374663
 70
   192
  0
VERTEX
  5
D1E
  8
0
 10
-106.3154821148664
 20
-253.860609364548
 30
-11.89724393374854
 70
   192
  0
VERTEX
  5
D1F
  8
0
 10
-106.6623434164922
 20
-273.8706241892024
 30
-8.074195500768036
 70
   192
  0
VERTEX
  5
D20
  8
0
 10
183.3265418217103
 20
-273.4471599138108
 30
-8.138992822172554
 70
   192
  0
VERTEX
  5
D21
  8
0
 10
-106.8715323932097
 20
-294.1409354219975
 30
-5.768548875191398
 70
   192
  0
VERTEX
  5
D22
  8
0
 10
200.6874256090276
 20
-293.1620111599704
 30
-5.844343900314101
 70
   192
  0
VERTEX
  5
D23
  8
0
 10
0.0
 20
0.0
 30
0.0
 70
   128
 71
     1
 72
     2
 73
     3
  0
VERTEX
  5
D24
  8
0
 10
0.0
 20
0.0
 30
0.0
 70
   128
 71
     3
 72
     4
 73
     5
  0
VERTEX
  5
D25
  8
0
 10
0.0
 20
0.0
 30
0.0
 70
   128
 71
     3
 72
     5
 73
     1
  0
VERTEX
  5
D26
  8
0
 10
0.0
 20
0.0
 30
0.0
 70
   128
 71
     6
 72
     7
 73
     8
  0
VERTEX
  5
D27
  8
0
 10
0.0
 20
0.0
 30
0.0
 70
   128
 71
     6
 72
     8
 73
     9
  0
VERTEX
  5
D28
  8
0
 10
0.0
 20
0.0
 30
0.0
 70
   128
 71
     9
 72
     8
 73
    10
  0
VERTEX
  5
D29
  8
0
 10
0.0
 20
0.0
 30
0.0
 70
   128
 71
     9
 72
    10
 73
    11
  0
VERTEX
  5
D2A
  8
0
 10
0.0
 20
0.0
 30
0.0
 70
   128
 71
    11
 72
    10
 73
     4
  0
VERTEX
  5
D2B
  8
0
 10
0.0
 20
0.0
 30
0.0
 70
   128
 71
    11
 72
     4
 73
     3
  0
SEQEND
  5
12A8
  8
0
  0
POLYLINE
  5
D2C
  8
0
 66
     1
 10
0.0
 20
0.0
 30
0.0
 70
    64
 71
    11
 72
     9
  0
VERTEX
  5
D2D
  8
0
 10
110.0654041072699
 20
-196.2481147345662
 30
-49.05807314626945
 70
   192
  0
VERTEX
  5
D2E
  8
0
 10
-102.4140805003541
 20
-188.941171155972
 30
-54.71634720980308
 70
   192
  0
VERTEX
  5
D2F
  8
0
 10
132.516175736478
 20
-218.1946828107884
 30
-30.49423431523327
 70
   192
  0
VERTEX
  5
D30
  8
0
 10
-104.4850780515257
 20
-218.1946828107859
 30
-30.49423431523492
 70
   192
  0
VERTEX
  5
D31
  8
0
 10
87.10695405348181
 20
-173.3665047517565
 30
-65.99030041369363
 70
   192
  0
VERTEX
  5
D32
  8
0
 10
-100.5632578110761
 20
-157.6476647893905
 30
-76.36332409886822
 70
   192
  0
VERTEX
  5
D33
  8
0
 10
63.54754768101547
 20
-149.355364678854
 30
-81.4570638256226
 70
   192
  0
VERTEX
  5
D34
  8
0
 10
55.38031806094443
 20
-141.0371421506018
 30
-86.31791205695231
 70
   192
  0
VERTEX
  5
D35
  8
0
 10
47.04183251860042
 20
-132.7824350192174
 30
-90.90455525179449
 70
   192
  0
VERTEX
  5
D36
  8
0
 10
38.57705128038276
 20
-124.6640707519177
 30
-95.19312020999594
 70
   192
  0
VERTEX
  5
D37
  8
0
 10
-98.95330488067125
 20
-124.6640707519163
 30
-95.1931202099969
 70
   192
  0
VERTEX
  5
D38
  8
0
 10
0.0
 20
0.0
 30
0.0
 70
   128
 71
     1
 72
     2
 73
     3
  0
VERTEX
  5
D39
  8
0
 10
0.0
 20
0.0
 30
0.0
 70
   128
 71
     2
 72
     4
 73
     3
  0
VERTEX
  5
D3A
  8
0
 10
0.0
 20
0.0
 30
0.0
 70
   128
 71
     2
 72
     1
 73
     5
  0
VERTEX
  5
D3B
  8
0
 10
0.0
 20
0.0
 30
0.0
 70
   128
 71
     6
 72
     7
 73
     8
  0
VERTEX
  5
D3C
  8
0
 10
0.0
 20
0.0
 30
0.0
 70
   128
 71
     8
 72
     9
 73
     6
  0
VERTEX
  5
D3D
  8
0
 10
0.0
 20
0.0
 30
0.0
 70
   128
 71
     2
 72
     5
 73
     7
  0
VERTEX
  5
D3E
  8
0
 10
0.0
 20
0.0
 30
0.0
 70
   128
 71
     6
 72
     2
 73
     7
  0
VERTEX
  5
D3F
  8
0
 10
0.0
 20
0.0
 30
0.0
 70
   128
 71
    10
 72
    11
 73
     6
  0
VERTEX
  5
D40
  8
0
 10
0.0
 20
0.0
 30
0.0
 70
   128
 71
     9
 72
    10
 73
     6
  0
SEQEND
  5
12A9
  8
0
  0
POLYLINE
  5
D41
  8
0
 66
     1
 10
0.0
 20
0.0
 30
0.0
 70
    64
 71
    11
 72
     9
  0
VERTEX
  5
D42
  8
0
 10
-98.95330488067124
 20
-124.6640707519163
 30
-95.19312020999692
 70
   192
  0
VERTEX
  5
D43
  8
0
 10
38.57705128038276
 20
-124.6640707519177
 30
-95.19312020999594
 70
   192
  0
VERTEX
  5
D44
  8
0
 10
28.95587237881209
 20
-115.3837104450147
 30
-99.64143720044487
 70
   192
  0
VERTEX
  5
D45
  8
0
 10
19.62180872748205
 20
-105.8839091727706
 30
-103.5446847576784
 70
   192
  0
VERTEX
  5
D46
  8
0
 10
10.62350126183401
 20
-96.04804508892919
 30
-106.9401861158295
 70
   192
  0
VERTEX
  5
D47
  8
0
 10
-98.15196626621844
 20
-102.1997766253623
 30
-104.8912473251452
 70
   192
  0
VERTEX
  5
D48
  8
0
 10
-1.338469762778499
 20
-82.42578507605319
 30
-110.6266195826636
 70
   192
  0
VERTEX
  5
D49
  8
0
 10
-13.9990432924307
 20
-68.12006182119765
 30
-113.2984753996973
 70
   192
  0
VERTEX
  5
D4A
  8
0
 10
-97.60786401052468
 20
-78.5158942306578
 30
-111.4761949916953
 70
   192
  0
VERTEX
  5
D4B
  8
0
 10
-26.50136037689258
 20
-54.26964878414869
 30
-114.7652316125779
 70
   192
  0
VERTEX
  5
D4C
  8
0
 10
-97.33609689328961
 20
-54.26964878414795
 30
-114.7652316125784
 70
   192
  0
VERTEX
  5
D4D
  8
0
 10
0.0
 20
0.0
 30
0.0
 70
   128
 71
     1
 72
     2
 73
     3
  0
VERTEX
  5
D4E
  8
0
 10
0.0
 20
0.0
 30
0.0
 70
   128
 71
     1
 72
     3
 73
     4
  0
VERTEX
  5
D4F
  8
0
 10
0.0
 20
0.0
 30
0.0
 70
   128
 71
     5
 72
     6
 73
     1
  0
VERTEX
  5
D50
  8
0
 10
0.0
 20
0.0
 30
0.0
 70
   128
 71
     4
 72
     5
 73
     1
  0
VERTEX
  5
D51
  8
0
 10
0.0
 20
0.0
 30
0.0
 70
   128
 71
     6
 72
     5
 73
     7
  0
VERTEX
  5
D52
  8
0
 10
0.0
 20
0.0
 30
0.0
 70
   128
 71
     6
 72
     7
 73
     8
  0
VERTEX
  5
D53
  8
0
 10
0.0
 20
0.0
 30
0.0
 70
   128
 71
     9
 72
     6
 73
     8
  0
VERTEX
  5
D54
  8
0
 10
0.0
 20
0.0
 30
0.0
 70
   128
 71
    10
 72
    11
 73
     9
  0
VERTEX
  5
D55
  8
0
 10
0.0
 20
0.0
 30
0.0
 70
   128
 71
     8
 72
    10
 73
     9
  0
SEQEND
  5
12AA
  8
0
  0
POLYLINE
  5
D56
  8
0
 66
     1
 10
0.0
 20
0.0
 30
0.0
 70
    64
 71
     8
 72
     6
  0
VERTEX
  5
D57
  8
0
 10
137.1187752884073
 20
223.0840926289552
 30
-26.41786805637703
 70
   192
  0
VERTEX
  5
D58
  8
0
 10
137.1187752884073
 20
-223.08409262896
 30
-26.41786805637704
 70
   192
  0
VERTEX
  5
D59
  8
0
 10
144.2417344002782
 20
-231.2000930532171
 30
-20.93754120117872
 70
   192
  0
VERTEX
  5
D5A
  8
0
 10
144.2566843055552
 20
231.2167367367361
 30
-20.9277327604202
 70
   192
  0
VERTEX
  5
D5B
  8
0
 10
151.956210578274
 20
-239.5580184032886
 30
-16.65054259530638
 70
   192
  0
VERTEX
  5
D5C
  8
0
 10
151.9661226793
 20
239.5684298441473
 30
-16.64595530203385
 70
   192
  0
VERTEX
  5
D5D
  8
0
 10
160.2303221578996
 20
247.8302085422598
 30
-13.53758343429429
 70
   192
  0
VERTEX
  5
D5E
  8
0
 10
160.2303221578996
 20
-247.8302085422685
 30
-13.53758343429425
 70
   192
  0
VERTEX
  5
D5F
  8
0
 10
0.0
 20
0.0
 30
0.0
 70
   128
 71
     1
 72
     2
 73
     3
  0
VERTEX
  5
D60
  8
0
 10
0.0
 20
0.0
 30
0.0
 70
   128
 71
     1
 72
     3
 73
     4
  0
VERTEX
  5
D61
  8
0
 10
0.0
 20
0.0
 30
0.0
 70
   128
 71
     4
 72
     3
 73
     5
  0
VERTEX
  5
D62
  8
0
 10
0.0
 20
0.0
 30
0.0
 70
   128
 71
     4
 72
     5
 73
     6
  0
VERTEX
  5
D63
  8
0
 10
0.0
 20
0.0
 30
0.0
 70
   128
 71
     7
 72
     6
 73
     5
  0
VERTEX
  5
D64
  8
0
 10
0.0
 20
0.0
 30
0.0
 70
   128
 71
     5
 72
     8
 73
     7
  0
SEQEND
  5
12AB
  8
0
  0
POLYLINE
  5
D65
  8
0
 66
     1
 10
0.0
 20
0.0
 30
0.0
 70
    64
 71
    20
 72
    18
  0
VERTEX
  5
D66
  8
0
 10
162.3929758399116
 20
-249.9123011489898
 30
-12.91378578354951
 70
   192
  0
VERTEX
  5
D67
  8
0
 10
164.3566823785937
 20
-251.9235041895226
 30
-12.36914257223329
 70
   192
  0
VERTEX
  5
D68
  8
0
 10
162.3929758399144
 20
249.9123011489831
 30
-12.91378578354873
 70
   192
  0
VERTEX
  5
D69
  8
0
 10
160.2303221578996
 20
247.8302085422598
 30
-13.53758343429424
 70
   192
  0
VERTEX
  5
D6A
  8
0
 10
160.2303221578996
 20
-247.8302085422685
 30
-13.53758343429429
 70
   192
  0
VERTEX
  5
D6B
  8
0
 10
164.3566823785988
 20
251.9235041895176
 30
-12.36914257223191
 70
   192
  0
VERTEX
  5
D6C
  8
0
 10
166.1214417739528
 20
253.8606093645475
 30
-11.8972439337448
 70
   192
  0
VERTEX
  5
D6D
  8
0
 10
219.1698292940593
 20
312.2701355768941
 30
-5.000255368627177
 70
   192
  0
VERTEX
  5
D6E
  8
0
 10
218.7980679806537
 20
312.7674930276685
 30
-5.001169138833441
 70
   192
  0
VERTEX
  5
D6F
  8
0
 10
218.3845015518214
 20
313.2335247084768
 30
-5.002962807105979
 70
   192
  0
VERTEX
  5
D70
  8
0
 10
219.1698292798606
 20
-312.2701355976619
 30
-5.000255368639014
 70
   192
  0
VERTEX
  5
D71
  8
0
 10
219.4999999999973
 20
-311.7416573867752
 30
-5.0
 70
   192
  0
VERTEX
  5
D72
  8
0
 10
219.4999999999973
 20
311.7416573867818
 30
-4.999999999999998
 70
   192
  0
VERTEX
  5
D73
  8
0
 10
183.326555258946
 20
273.4471751384256
 30
-8.13899055081444
 70
   192
  0
VERTEX
  5
D74
  8
0
 10
166.1214417739459
 20
-253.8606093645508
 30
-11.89724393374663
 70
   192
  0
VERTEX
  5
D75
  8
0
 10
183.3265418217103
 20
-273.4471599138108
 30
-8.138992822172554
 70
   192
  0
VERTEX
  5
D76
  8
0
 10
200.6874256090276
 20
-293.1620111599704
 30
-5.844343900314101
 70
   192
  0
VERTEX
  5
D77
  8
0
 10
200.6874541351257
 20
293.1620435374952
 30
-5.844341314972091
 70
   192
  0
VERTEX
  5
D78
  8
0
 10
218.7980679489394
 20
-312.7674930665157
 30
-5.001169138859888
 70
   192
  0
VERTEX
  5
D79
  8
0
 10
218.3845014991421
 20
-313.2335247627161
 30
-5.002962807118442
 70
   192
  0
VERTEX
  5
D7A
  8
0
 10
0.0
 20
0.0
 30
0.0
 70
   128
 71
     1
 72
    -2
 73
     3
  0
VERTEX
  5
D7B
  8
0
 10
0.0
 20
0.0
 30
0.0
 70
   128
 71
     3
 72
     4
 73
    -5
  0
VERTEX
  5
D7C
  8
0
 10
0.0
 20
0.0
 30
0.0
 70
   128
 71
    -3
 72
     5
 73
     1
  0
VERTEX
  5
D7D
  8
0
 10
0.0
 20
0.0
 30
0.0
 70
   128
 71
     2
 72
     6
 73
    -3
  0
VERTEX
  5
D7E
  8
0
 10
0.0
 20
0.0
 30
0.0
 70
   128
 71
     2
 72
     7
 73
     6
  0
VERTEX
  5
D7F
  8
0
 10
0.0
 20
0.0
 30
0.0
 70
   128
 71
     8
 72
     9
 73
    10
  0
VERTEX
  5
D80
  8
0
 10
0.0
 20
0.0
 30
0.0
 70
   128
 71
    10
 72
    11
 73
    12
  0
VERTEX
  5
D81
  8
0
 10
0.0
 20
0.0
 30
0.0
 70
   128
 71
    10
 72
    12
 73
    13
  0
VERTEX
  5
D82
  8
0
 10
0.0
 20
0.0
 30
0.0
 70
   128
 71
    10
 72
    13
 73
     8
  0
VERTEX
  5
D83
  8
0
 10
0.0
 20
0.0
 30
0.0
 70
   128
 71
    14
 72
     7
 73
     2
  0
VERTEX
  5
D84
  8
0
 10
0.0
 20
0.0
 30
0.0
 70
   128
 71
    14
 72
     2
 73
    15
  0
VERTEX
  5
D85
  8
0
 10
0.0
 20
0.0
 30
0.0
 70
   128
 71
    15
 72
    16
 73
    14
  0
VERTEX
  5
D86
  8
0
 10
0.0
 20
0.0
 30
0.0
 70
   128
 71
    14
 72
    16
 73
    17
  0
VERTEX
  5
D87
  8
0
 10
0.0
 20
0.0
 30
0.0
 70
   128
 71
    14
 72
    17
 73
    18
  0
VERTEX
  5
D88
  8
0
 10
0.0
 20
0.0
 30
0.0
 70
   128
 71
    19
 72
    11
 73
    10
  0
VERTEX
  5
D89
  8
0
 10
0.0
 20
0.0
 30
0.0
 70
   128
 71
    19
 72
    10
 73
    18
  0
VERTEX
  5
D8A
  8
0
 10
0.0
 20
0.0
 30
0.0
 70
   128
 71
    19
 72
    18
 73
    17
  0
VERTEX
  5
D8B
  8
0
 10
0.0
 20
0.0
 30
0.0
 70
   128
 71
    17
 72
    20
 73
    19
  0
SEQEND
  5
12AC
  8
0
  0
POLYLINE
  5
D8C
  8
0
 66
     1
 10
0.0
 20
0.0
 30
0.0
 70
    64
 71
    14
 72
    12
  0
VERTEX
  5
D8D
  8
0
 10
132.516175736478
 20
-218.1946828107884
 30
-30.49423431523322
 70
   192
  0
VERTEX
  5
D8E
  8
0
 10
137.1187752884073
 20
223.0840926289552
 30
-26.41786805637704
 70
   192
  0
VERTEX
  5
D8F
  8
0
 10
135.6435190913461
 20
221.4162199961877
 30
-27.73505068000866
 70
   192
  0
VERTEX
  5
D90
  8
0
 10
134.1093192407036
 20
219.7860826628124
 30
-29.0942163175065
 70
   192
  0
VERTEX
  5
D91
  8
0
 10
132.5161757364798
 20
218.1946828107858
 30
-30.49423431523168
 70
   192
  0
VERTEX
  5
D92
  8
0
 10
134.1093192407026
 20
-219.7860826628159
 30
-29.09421631750731
 70
   192
  0
VERTEX
  5
D93
  8
0
 10
135.6435190913457
 20
-221.4162199961919
 30
-27.73505068000897
 70
   192
  0
VERTEX
  5
D94
  8
0
 10
137.1187752884073
 20
-223.08409262896
 30
-26.41786805637703
 70
   192
  0
VERTEX
  5
D95
  8
0
 10
110.0654041072699
 20
-196.2481147345662
 30
-49.05807314626945
 70
   192
  0
VERTEX
  5
D96
  8
0
 10
110.0654041072609
 20
196.2481157328789
 30
-49.05807056431209
 70
   192
  0
VERTEX
  5
D97
  8
0
 10
87.10695405348181
 20
-173.3665047517565
 30
-65.99030041369363
 70
   192
  0
VERTEX
  5
D98
  8
0
 10
87.10695405346192
 20
173.3665035351021
 30
-65.9903052332461
 70
   192
  0
VERTEX
  5
D99
  8
0
 10
63.54754768101544
 20
-149.355364678854
 30
-81.45706382562268
 70
   192
  0
VERTEX
  5
D9A
  8
0
 10
63.54754768101546
 20
149.3553646788515
 30
-81.45706382562265
 70
   192
  0
VERTEX
  5
D9B
  8
0
 10
0.0
 20
0.0
 30
0.0
 70
   128
 71
     1
 72
     2
 73
     3
  0
VERTEX
  5
D9C
  8
0
 10
0.0
 20
0.0
 30
0.0
 70
   128
 71
     3
 72
     4
 73
     1
  0
VERTEX
  5
D9D
  8
0
 10
0.0
 20
0.0
 30
0.0
 70
   128
 71
     4
 72
     5
 73
     1
  0
VERTEX
  5
D9E
  8
0
 10
0.0
 20
0.0
 30
0.0
 70
   128
 71
     1
 72
     6
 73
     2
  0
VERTEX
  5
D9F
  8
0
 10
0.0
 20
0.0
 30
0.0
 70
   128
 71
     6
 72
     7
 73
     2
  0
VERTEX
  5
DA0
  8
0
 10
0.0
 20
0.0
 30
0.0
 70
   128
 71
     7
 72
     8
 73
     2
  0
VERTEX
  5
DA1
  8
0
 10
0.0
 20
0.0
 30
0.0
 70
   128
 71
     9
 72
     1
 73
     5
  0
VERTEX
  5
DA2
  8
0
 10
0.0
 20
0.0
 30
0.0
 70
   128
 71
    10
 72
     9
 73
     5
  0
VERTEX
  5
DA3
  8
0
 10
0.0
 20
0.0
 30
0.0
 70
   128
 71
    11
 72
     9
 73
    10
  0
VERTEX
  5
DA4
  8
0
 10
0.0
 20
0.0
 30
0.0
 70
   128
 71
    12
 72
    11
 73
    10
  0
VERTEX
  5
DA5
  8
0
 10
0.0
 20
0.0
 30
0.0
 70
   128
 71
    13
 72
    11
 73
    12
  0
VERTEX
  5
DA6
  8
0
 10
0.0
 20
0.0
 30
0.0
 70
   128
 71
    14
 72
    13
 73
    12
  0
SEQEND
  5
12AD
  8
0
  0
POLYLINE
  5
DA7
  8
0
 66
     1
 10
0.0
 20
0.0
 30
0.0
 70
    64
 71
    13
 72
    11
  0
VERTEX
  5
DA8
  8
0
 10
-97.3360968932896
 20
54.26964878414606
 30
-114.7652316125784
 70
   192
  0
VERTEX
  5
DA9
  8
0
 10
-26.50136037689228
 20
54.26964878414606
 30
-114.7652316125778
 70
   192
  0
VERTEX
  5
DAA
  8
0
 10
-26.50136037689228
 20
28.53479607603418
 30
-114.7652316125777
 70
   192
  0
VERTEX
  5
DAB
  8
0
 10
-44.66534783761841
 20
28.16101052381219
 30
-114.7652316125777
 70
   192
  0
VERTEX
  5
DAC
  8
0
 10
-59.23048413059466
 20
17.30159245102888
 30
-114.7652316125777
 70
   192
  0
VERTEX
  5
DAD
  8
0
 10
-64.77350269189924
 20
-0.0000000000000066
 30
-114.7652316125777
 70
   192
  0
VERTEX
  5
DAE
  8
0
 10
-59.23048413059465
 20
-17.30159245102889
 30
-114.7652316125777
 70
   192
  0
VERTEX
  5
DAF
  8
0
 10
-44.6653478376184
 20
-28.1610105238122
 30
-114.7652316125777
 70
   192
  0
VERTEX
  5
DB0
  8
0
 10
-26.50136037689228
 20
-28.53479607603416
 30
-114.7652316125778
 70
   192
  0
VERTEX
  5
DB1
  8
0
 10
-26.50136037689258
 20
-54.26964878414869
 30
-114.7652316125779
 70
   192
  0
VERTEX
  5
DB2
  8
0
 10
-97.33609689328961
 20
-54.26964878414795
 30
-114.7652316125784
 70
   192
  0
VERTEX
  5
DB3
  8
0
 10
-97.33804863671803
 20
-54.26964878414795
 30
-114.7652316125777
 70
   192
  0
VERTEX
  5
DB4
  8
0
 10
-97.33804863671803
 20
54.26964878414606
 30
-114.7652316125784
 70
   192
  0
VERTEX
  5
DB5
  8
0
 10
0.0
 20
0.0
 30
0.0
 70
   128
 71
     1
 72
    13
 73
   -12
  0
VERTEX
  5
DB6
  8
0
 10
0.0
 20
0.0
 30
0.0
 70
   128
 71
    -1
 72
    12
 73
   -11
  0
VERTEX
  5
DB7
  8
0
 10
0.0
 20
0.0
 30
0.0
 70
   128
 71
     4
 72
     3
 73
    -2
  0
VERTEX
  5
DB8
  8
0
 10
0.0
 20
0.0
 30
0.0
 70
   128
 71
     2
 72
    -1
 73
    -5
  0
VERTEX
  5
DB9
  8
0
 10
0.0
 20
0.0
 30
0.0
 70
   128
 71
    -2
 72
     5
 73
    -4
  0
VERTEX
  5
DBA
  8
0
 10
0.0
 20
0.0
 30
0.0
 70
   128
 71
    -1
 72
     6
 73
    -5
  0
VERTEX
  5
DBB
  8
0
 10
0.0
 20
0.0
 30
0.0
 70
   128
 71
    -1
 72
   -11
 73
    -7
  0
VERTEX
  5
DBC
  8
0
 10
0.0
 20
0.0
 30
0.0
 70
   128
 71
    -1
 72
     7
 73
    -6
  0
VERTEX
  5
DBD
  8
0
 10
0.0
 20
0.0
 30
0.0
 70
   128
 71
    11
 72
   -10
 73
    -8
  0
VERTEX
  5
DBE
  8
0
 10
0.0
 20
0.0
 30
0.0
 70
   128
 71
   -11
 72
     8
 73
    -7
  0
VERTEX
  5
DBF
  8
0
 10
0.0
 20
0.0
 30
0.0
 70
   128
 71
    10
 72
     9
 73
    -8
  0
SEQEND
  5
12AE
  8
0
  0
POLYLINE
  5
DC0
  8
0
 66
     1
 10
0.0
 20
0.0
 30
0.0
 70
    64
 71
    15
 72
    13
  0
VERTEX
  5
DC1
  8
0
 10
-3.093292638578365
 20
0.0
 30
-111.0704127420118
 70
   192
  0
VERTEX
  5
DC2
  8
0
 10
-6.224278197309129
 20
-12.77489328611972
 30
-111.8028873441428
 70
   192
  0
VERTEX
  5
DC3
  8
0
 10
-1.338469762778499
 20
-82.42578507605319
 30
-110.6266195826636
 70
   192
  0
VERTEX
  5
DC4
  8
0
 10
10.62350126183402
 20
96.04804508892764
 30
-106.9401861158295
 70
   192
  0
VERTEX
  5
DC5
  8
0
 10
-1.338469762780965
 20
82.42546687613579
 30
-110.6267500767878
 70
   192
  0
VERTEX
  5
DC6
  8
0
 10
10.62350126183401
 20
-96.04804508892919
 30
-106.9401861158295
 70
   192
  0
VERTEX
  5
DC7
  8
0
 10
-14.65907815105908
 20
-22.80583389336158
 30
-113.4045267483993
 70
   192
  0
VERTEX
  5
DC8
  8
0
 10
-13.9990432924307
 20
-68.12006182119765
 30
-113.2984753996973
 70
   192
  0
VERTEX
  5
DC9
  8
0
 10
-13.99904329243751
 20
68.12006432960084
 30
-113.2984766717656
 70
   192
  0
VERTEX
  5
DCA
  8
0
 10
-6.234192916547271
 20
12.79375623141636
 30
-111.8050670809214
 70
   192
  0
VERTEX
  5
DCB
  8
0
 10
-26.50136037689228
 20
54.26964878414606
 30
-114.7652316125778
 70
   192
  0
VERTEX
  5
DCC
  8
0
 10
-14.66333261183262
 20
22.80926854670472
 30
-113.4052075207329
 70
   192
  0
VERTEX
  5
DCD
  8
0
 10
-26.50136037689228
 20
28.53479607603416
 30
-114.7652316125778
 70
   192
  0
VERTEX
  5
DCE
  8
0
 10
-26.50136037689228
 20
-28.53479607603416
 30
-114.7652316125778
 70
   192
  0
VERTEX
  5
DCF
  8
0
 10
-26.50136037689228
 20
-54.26964878415041
 30
-114.7652316125778
 70
   192
  0
VERTEX
  5
DD0
  8
0
 10
0.0
 20
0.0
 30
0.0
 70
   128
 71
     1
 72
     2
 73
     3
  0
VERTEX
  5
DD1
  8
0
 10
0.0
 20
0.0
 30
0.0
 70
   128
 71
     4
 72
     5
 73
     1
  0
VERTEX
  5
DD2
  8
0
 10
0.0
 20
0.0
 30
0.0
 70
   128
 71
     3
 72
     6
 73
     4
  0
VERTEX
  5
DD3
  8
0
 10
0.0
 20
0.0
 30
0.0
 70
   128
 71
     1
 72
     3
 73
     4
  0
VERTEX
  5
DD4
  8
0
 10
0.0
 20
0.0
 30
0.0
 70
   128
 71
     7
 72
     8
 73
     2
  0
VERTEX
  5
DD5
  8
0
 10
0.0
 20
0.0
 30
0.0
 70
   128
 71
     8
 72
     3
 73
     2
  0
VERTEX
  5
DD6
  8
0
 10
0.0
 20
0.0
 30
0.0
 70
   128
 71
     1
 72
     5
 73
     9
  0
VERTEX
  5
DD7
  8
0
 10
0.0
 20
0.0
 30
0.0
 70
   128
 71
    10
 72
     1
 73
     9
  0
VERTEX
  5
DD8
  8
0
 10
0.0
 20
0.0
 30
0.0
 70
   128
 71
    10
 72
     9
 73
    11
  0
VERTEX
  5
DD9
  8
0
 10
0.0
 20
0.0
 30
0.0
 70
   128
 71
    12
 72
    10
 73
    11
  0
VERTEX
  5
DDA
  8
0
 10
0.0
 20
0.0
 30
0.0
 70
   128
 71
    11
 72
    13
 73
    12
  0
VERTEX
  5
DDB
  8
0
 10
0.0
 20
0.0
 30
0.0
 70
   128
 71
    14
 72
    15
 73
     7
  0
VERTEX
  5
DDC
  8
0
 10
0.0
 20
0.0
 30
0.0
 70
   128
 71
    15
 72
     8
 73
     7
  0
SEQEND
  5
12AF
  8
0
  0
POLYLINE
  5
DDD
  8
0
 66
     1
 10
0.0
 20
0.0
 30
0.0
 70
    64
 71
    14
 72
    12
  0
VERTEX
  5
DDE
  8
0
 10
55.38031806094443
 20
-141.0371421506018
 30
-86.31791205695231
 70
   192
  0
VERTEX
  5
DDF
  8
0
 10
63.54754768101544
 20
149.3553646788515
 30
-81.45706382562268
 70
   192
  0
VERTEX
  5
DE0
  8
0
 10
55.38031806094361
 20
141.0371543096748
 30
-86.31791329396653
 70
   192
  0
VERTEX
  5
DE1
  8
0
 10
63.54754768101547
 20
-149.355364678854
 30
-81.4570638256226
 70
   192
  0
VERTEX
  5
DE2
  8
0
 10
47.04183251860233
 20
132.7824184861473
 30
-90.9045500398872
 70
   192
  0
VERTEX
  5
DE3
  8
0
 10
38.57705128038423
 20
124.6640707519175
 30
-95.19312020999523
 70
   192
  0
VERTEX
  5
DE4
  8
0
 10
38.57705128038276
 20
-124.6640707519178
 30
-95.19312020999594
 70
   192
  0
VERTEX
  5
DE5
  8
0
 10
10.62350126183401
 20
96.04804508892764
 30
-106.9401861158295
 70
   192
  0
VERTEX
  5
DE6
  8
0
 10
10.62350126183402
 20
-96.04804508892919
 30
-106.9401861158295
 70
   192
  0
VERTEX
  5
DE7
  8
0
 10
19.62180872748205
 20
-105.8839091727706
 30
-103.5446847576784
 70
   192
  0
VERTEX
  5
DE8
  8
0
 10
19.62180872748268
 20
105.8839108864797
 30
-103.5446859197555
 70
   192
  0
VERTEX
  5
DE9
  8
0
 10
47.04183251860042
 20
-132.7824350192174
 30
-90.90455525179449
 70
   192
  0
VERTEX
  5
DEA
  8
0
 10
28.95587237881209
 20
-115.3837104450147
 30
-99.64143720044487
 70
   192
  0
VERTEX
  5
DEB
  8
0
 10
28.9558723788117
 20
115.3837080610958
 30
-99.64143568970657
 70
   192
  0
VERTEX
  5
DEC
  8
0
 10
0.0
 20
0.0
 30
0.0
 70
   128
 71
     1
 72
     2
 73
     3
  0
VERTEX
  5
DED
  8
0
 10
0.0
 20
0.0
 30
0.0
 70
   128
 71
     1
 72
     4
 73
     2
  0
VERTEX
  5
DEE
  8
0
 10
0.0
 20
0.0
 30
0.0
 70
   128
 71
     5
 72
     6
 73
     7
  0
VERTEX
  5
DEF
  8
0
 10
0.0
 20
0.0
 30
0.0
 70
   128
 71
     8
 72
     9
 73
    10
  0
VERTEX
  5
DF0
  8
0
 10
0.0
 20
0.0
 30
0.0
 70
   128
 71
    11
 72
     8
 73
    10
  0
VERTEX
  5
DF1
  8
0
 10
0.0
 20
0.0
 30
0.0
 70
   128
 71
     5
 72
     7
 73
    12
  0
VERTEX
  5
DF2
  8
0
 10
0.0
 20
0.0
 30
0.0
 70
   128
 71
     3
 72
     5
 73
    12
  0
VERTEX
  5
DF3
  8
0
 10
0.0
 20
0.0
 30
0.0
 70
   128
 71
    12
 72
     1
 73
     3
  0
VERTEX
  5
DF4
  8
0
 10
0.0
 20
0.0
 30
0.0
 70
   128
 71
    13
 72
     7
 73
     6
  0
VERTEX
  5
DF5
  8
0
 10
0.0
 20
0.0
 30
0.0
 70
   128
 71
    14
 72
    13
 73
     6
  0
VERTEX
  5
DF6
  8
0
 10
0.0
 20
0.0
 30
0.0
 70
   128
 71
    10
 72
    13
 73
    14
  0
VERTEX
  5
DF7
  8
0
 10
0.0
 20
0.0
 30
0.0
 70
   128
 71
    11
 72
    10
 73
    14
  0
SEQEND
  5
12B0
  8
0
  0
POLYLINE
  5
DF8
  8
0
 66
     1
 10
0.0
 20
0.0
 30
0.0
 70
    64
 71
    20
 72
    18
  0
VERTEX
  5
DF9
  8
0
 10
-108.9152518615888
 20
120.0856821448087
 30
-87.17432568930536
 70
   192
  0
VERTEX
  5
DFA
  8
0
 10
-108.1171004933605
 20
98.97244264293423
 30
-96.29723757367606
 70
   192
  0
VERTEX
  5
DFB
  8
0
 10
-107.5737027118534
 20
76.7168596451596
 30
-102.5083026375061
 70
   192
  0
VERTEX
  5
DFC
  8
0
 10
-107.2999956176355
 20
53.93070208530369
 30
-105.6367890400543
 70
   192
  0
VERTEX
  5
DFD
  8
0
 10
-107.2999956176355
 20
-53.93070208530564
 30
-105.6367890400543
 70
   192
  0
VERTEX
  5
DFE
  8
0
 10
-107.5737027118534
 20
-76.71685964516001
 30
-102.5083026375059
 70
   192
  0
VERTEX
  5
DFF
  8
0
 10
-108.1171004933604
 20
-98.97244264293299
 30
-96.2972375736762
 70
   192
  0
VERTEX
  5
E00
  8
0
 10
-108.9152518615887
 20
-120.0856821448061
 30
-87.174325689306
 70
   192
  0
VERTEX
  5
E01
  8
0
 10
-110.5252047919936
 20
-152.3196490450649
 30
-68.77247948979398
 70
   192
  0
VERTEX
  5
E02
  8
0
 10
-112.3760274812716
 20
-182.9019393578603
 30
-47.61747934820775
 70
   192
  0
VERTEX
  5
E03
  8
0
 10
-114.4470250324432
 20
-211.490598475065
 30
-23.945869019425
 70
   192
  0
VERTEX
  5
E04
  8
0
 10
-115.1332323278594
 20
-221.5137989959393
 30
-16.10248374228086
 70
   192
  0
VERTEX
  5
E05
  8
0
 10
-115.6913361047948
 20
-232.6010769858237
 30
-9.72332838153978
 70
   192
  0
VERTEX
  5
E06
  8
0
 10
-116.1045737922898
 20
-244.41942755972
 30
-5.0
 70
   192
  0
VERTEX
  5
E07
  8
0
 10
-116.1045737922898
 20
244.4194275597167
 30
-5.0
 70
   192
  0
VERTEX
  5
E08
  8
0
 10
-115.6913361047948
 20
232.6010769858225
 30
-9.723328381539813
 70
   192
  0
VERTEX
  5
E09
  8
0
 10
-115.1332323278594
 20
221.51379899594
 30
-16.10248374228037
 70
   192
  0
VERTEX
  5
E0A
  8
0
 10
-114.4470250324433
 20
211.4905984750674
 30
-23.9458690194235
 70
   192
  0
VERTEX
  5
E0B
  8
0
 10
-112.3760274812717
 20
182.9019393578629
 30
-47.61747934820637
 70
   192
  0
VERTEX
  5
E0C
  8
0
 10
-110.5252047919936
 20
152.3196490450674
 30
-68.77247948979301
 70
   192
  0
VERTEX
  5
E0D
  8
0
 10
0.0
 20
0.0
 30
0.0
 70
   128
 71
    16
 72
    15
 73
   -14
  0
VERTEX
  5
E0E
  8
0
 10
0.0
 20
0.0
 30
0.0
 70
   128
 71
   -14
 72
    17
 73
   -16
  0
VERTEX
  5
E0F
  8
0
 10
0.0
 20
0.0
 30
0.0
 70
   128
 71
   -14
 72
    18
 73
   -17
  0
VERTEX
  5
E10
  8
0
 10
0.0
 20
0.0
 30
0.0
 70
   128
 71
   -14
 72
    19
 73
   -18
  0
VERTEX
  5
E11
  8
0
 10
0.0
 20
0.0
 30
0.0
 70
   128
 71
   -14
 72
    20
 73
   -19
  0
VERTEX
  5
E12
  8
0
 10
0.0
 20
0.0
 30
0.0
 70
   128
 71
     9
 72
     8
 73
    -7
  0
VERTEX
  5
E13
  8
0
 10
0.0
 20
0.0
 30
0.0
 70
   128
 71
    -9
 72
     7
 73
    -6
  0
VERTEX
  5
E14
  8
0
 10
0.0
 20
0.0
 30
0.0
 70
   128
 71
    -9
 72
     6
 73
    -5
  0
VERTEX
  5
E15
  8
0
 10
0.0
 20
0.0
 30
0.0
 70
   128
 71
    -9
 72
     5
 73
    -4
  0
VERTEX
  5
E16
  8
0
 10
0.0
 20
0.0
 30
0.0
 70
   128
 71
    -9
 72
     4
 73
    -3
  0
VERTEX
  5
E17
  8
0
 10
0.0
 20
0.0
 30
0.0
 70
   128
 71
    -9
 72
     3
 73
    -2
  0
VERTEX
  5
E18
  8
0
 10
0.0
 20
0.0
 30
0.0
 70
   128
 71
    -9
 72
     2
 73
    -1
  0
VERTEX
  5
E19
  8
0
 10
0.0
 20
0.0
 30
0.0
 70
   128
 71
    -9
 72
     1
 73
   -20
  0
VERTEX
  5
E1A
  8
0
 10
0.0
 20
0.0
 30
0.0
 70
   128
 71
   -20
 72
    10
 73
    -9
  0
VERTEX
  5
E1B
  8
0
 10
0.0
 20
0.0
 30
0.0
 70
   128
 71
   -20
 72
    11
 73
   -10
  0
VERTEX
  5
E1C
  8
0
 10
0.0
 20
0.0
 30
0.0
 70
   128
 71
   -20
 72
    12
 73
   -11
  0
VERTEX
  5
E1D
  8
0
 10
0.0
 20
0.0
 30
0.0
 70
   128
 71
   -20
 72
    13
 73
   -12
  0
VERTEX
  5
E1E
  8
0
 10
0.0
 20
0.0
 30
0.0
 70
   128
 71
   -20
 72
    14
 73
   -13
  0
SEQEND
  5
12B1
  8
0
  0
POLYLINE
  5
E1F
  8
0
 66
     1
 10
0.0
 20
0.0
 30
0.0
 70
    64
 71
    24
 72
    22
  0
VERTEX
  5
E20
  8
0
 10
-220.0000000000035
 20
-324.9999999999976
 30
-50.00000000000343
 70
   192
  0
VERTEX
  5
E21
  8
0
 10
219.9999999999983
 20
-325.0000000000022
 30
-49.99999999999883
 70
   192
  0
VERTEX
  5
E22
  8
0
 10
224.9999999999978
 20
-323.6602540378462
 30
-49.99999999999877
 70
   192
  0
VERTEX
  5
E23
  8
0
 10
228.6602540378418
 20
-320.0000000000019
 30
-49.99999999999872
 70
   192
  0
VERTEX
  5
E24
  8
0
 10
229.9999999999972
 20
-315.0000000000022
 30
-49.99999999999869
 70
   192
  0
VERTEX
  5
E25
  8
0
 10
230.0000000000038
 20
314.9999999999981
 30
-49.99999999999648
 70
   192
  0
VERTEX
  5
E26
  8
0
 10
228.6602540378482
 20
319.9999999999978
 30
-49.99999999999648
 70
   192
  0
VERTEX
  5
E27
  8
0
 10
225.000000000004
 20
323.6602540378421
 30
-49.9999999999965
 70
   192
  0
VERTEX
  5
E28
  8
0
 10
220.0000000000043
 20
324.9999999999978
 30
-49.99999999999656
 70
   192
  0
VERTEX
  5
E29
  8
0
 10
-219.9999999999966
 20
325.0000000000024
 30
-50.00000000000117
 70
   192
  0
VERTEX
  5
E2A
  8
0
 10
-224.9999999999978
 20
323.6602540378459
 30
-50.00000000000123
 70
   192
  0
VERTEX
  5
E2B
  8
0
 10
-228.6602540378422
 20
319.9999999999997
 30
-50.00000000000129
 70
   192
  0
VERTEX
  5
E2C
  8
0
 10
-229.9999999999963
 20
315.0000000000026
 30
-50.00000000000131
 70
   192
  0
VERTEX
  5
E2D
  8
0
 10
209.9999999999973
 20
314.9999999999978
 30
-49.99999999999669
 70
   192
  0
VERTEX
  5
E2E
  8
0
 10
214.9999999999973
 20
313.6602540378422
 30
-49.99999999999664
 70
   192
  0
VERTEX
  5
E2F
  8
0
 10
218.6602540378417
 20
309.9999999999978
 30
-49.99999999999662
 70
   192
  0
VERTEX
  5
E30
  8
0
 10
219.9999999999973
 20
304.9999999999978
 30
-49.99999999999665
 70
   192
  0
VERTEX
  5
E31
  8
0
 10
219.9999999999972
 20
-305.0000000000026
 30
-49.99999999999876
 70
   192
  0
VERTEX
  5
E32
  8
0
 10
218.6602540378415
 20
-310.0000000000024
 30
-49.99999999999879
 70
   192
  0
VERTEX
  5
E33
  8
0
 10
214.9999999999971
 20
-313.6602540378467
 30
-49.99999999999884
 70
   192
  0
VERTEX
  5
E34
  8
0
 10
209.9999999999972
 20
-314.9999999997947
 30
-49.99999999999984
 70
   192
  0
VERTEX
  5
E35
  8
0
 10
-230.0000000000028
 20
-315.0000000000023
 30
-50.00000000000351
 70
   192
  0
VERTEX
  5
E36
  8
0
 10
-228.6602540378457
 20
-320.0000000000001
 30
-50.00000000000351
 70
   192
  0
VERTEX
  5
E37
  8
0
 10
-225.0000000000018
 20
-323.6602540378425
 30
-50.00000000000349
 70
   192
  0
VERTEX
  5
E38
  8
0
 10
0.0
 20
0.0
 30
0.0
 70
   128
 71
    14
 72
    13
 73
   -12
  0
VERTEX
  5
E39
  8
0
 10
0.0
 20
0.0
 30
0.0
 70
   128
 71
   -14
 72
    12
 73
   -11
  0
VERTEX
  5
E3A
  8
0
 10
0.0
 20
0.0
 30
0.0
 70
   128
 71
   -14
 72
    11
 73
   -10
  0
VERTEX
  5
E3B
  8
0
 10
0.0
 20
0.0
 30
0.0
 70
   128
 71
   -14
 72
    10
 73
    -9
  0
VERTEX
  5
E3C
  8
0
 10
0.0
 20
0.0
 30
0.0
 70
   128
 71
    -9
 72
    15
 73
   -14
  0
VERTEX
  5
E3D
  8
0
 10
0.0
 20
0.0
 30
0.0
 70
   128
 71
     9
 72
    -8
 73
   -16
  0
VERTEX
  5
E3E
  8
0
 10
0.0
 20
0.0
 30
0.0
 70
   128
 71
    -9
 72
    16
 73
   -15
  0
VERTEX
  5
E3F
  8
0
 10
0.0
 20
0.0
 30
0.0
 70
   128
 71
    -8
 72
    17
 73
   -16
  0
VERTEX
  5
E40
  8
0
 10
0.0
 20
0.0
 30
0.0
 70
   128
 71
     8
 72
     7
 73
    -6
  0
VERTEX
  5
E41
  8
0
 10
0.0
 20
0.0
 30
0.0
 70
   128
 71
    -8
 72
     6
 73
    -5
  0
VERTEX
  5
E42
  8
0
 10
0.0
 20
0.0
 30
0.0
 70
   128
 71
    -8
 72
    -5
 73
   -18
  0
VERTEX
  5
E43
  8
0
 10
0.0
 20
0.0
 30
0.0
 70
   128
 71
    -8
 72
    18
 73
   -17
  0
VERTEX
  5
E44
  8
0
 10
0.0
 20
0.0
 30
0.0
 70
   128
 71
    -5
 72
    19
 73
   -18
  0
VERTEX
  5
E45
  8
0
 10
0.0
 20
0.0
 30
0.0
 70
   128
 71
     5
 72
    -4
 73
   -20
  0
VERTEX
  5
E46
  8
0
 10
0.0
 20
0.0
 30
0.0
 70
   128
 71
    -5
 72
    20
 73
   -19
  0
VERTEX
  5
E47
  8
0
 10
0.0
 20
0.0
 30
0.0
 70
   128
 71
    -4
 72
    21
 73
   -20
  0
VERTEX
  5
E48
  8
0
 10
0.0
 20
0.0
 30
0.0
 70
   128
 71
     4
 72
     3
 73
    -2
  0
VERTEX
  5
E49
  8
0
 10
0.0
 20
0.0
 30
0.0
 70
   128
 71
    -4
 72
     2
 73
    -1
  0
VERTEX
  5
E4A
  8
0
 10
0.0
 20
0.0
 30
0.0
 70
   128
 71
    -4
 72
     1
 73
   -24
  0
VERTEX
  5
E4B
  8
0
 10
0.0
 20
0.0
 30
0.0
 70
   128
 71
    -4
 72
    24
 73
   -23
  0
VERTEX
  5
E4C
  8
0
 10
0.0
 20
0.0
 30
0.0
 70
   128
 71
    -4
 72
    23
 73
   -22
  0
VERTEX
  5
E4D
  8
0
 10
0.0
 20
0.0
 30
0.0
 70
   128
 71
    -4
 72
    22
 73
   -21
  0
SEQEND
  5
12B2
  8
0
  0
POLYLINE
  5
E4E
  8
0
 66
     1
 10
0.0
 20
0.0
 30
0.0
 70
    64
 71
     4
 72
     2
  0
VERTEX
  5
E4F
  8
0
 10
-230.0000000000028
 20
-315.0000000000023
 30
-50.0000000000035
 70
   192
  0
VERTEX
  5
E50
  8
0
 10
209.9999999999972
 20
-315.0000000000022
 30
-49.99999999999876
 70
   192
  0
VERTEX
  5
E51
  8
0
 10
209.999999999997
 20
-315.0000000000023
 30
-34.99999999999892
 70
   192
  0
VERTEX
  5
E52
  8
0
 10
-230.000000000003
 20
-314.9999999999976
 30
-35.00000000000352
 70
   192
  0
VERTEX
  5
E53
  8
0
 10
0.0
 20
0.0
 30
0.0
 70
   128
 71
     1
 72
     4
 73
    -3
  0
VERTEX
  5
E54
  8
0
 10
0.0
 20
0.0
 30
0.0
 70
   128
 71
    -1
 72
     3
 73
     2
  0
SEQEND
  5
12B3
  8
0
  0
POLYLINE
  5
E55
  8
0
 66
     1
 10
0.0
 20
0.0
 30
0.0
 70
    64
 71
     8
 72
     6
  0
VERTEX
  5
E56
  8
0
 10
214.9999999999969
 20
-313.6602540378468
 30
-34.99999999999884
 70
   192
  0
VERTEX
  5
E57
  8
0
 10
218.6602540378413
 20
-310.0000000000025
 30
-34.99999999999879
 70
   192
  0
VERTEX
  5
E58
  8
0
 10
218.6602540378415
 20
-310.0000000000024
 30
-49.99999999999879
 70
   192
  0
VERTEX
  5
E59
  8
0
 10
214.9999999999971
 20
-313.6602540378467
 30
-49.99999999999884
 70
   192
  0
VERTEX
  5
E5A
  8
0
 10
219.999999999997
 20
-305.0000000000027
 30
-34.99999999999876
 70
   192
  0
VERTEX
  5
E5B
  8
0
 10
219.9999999999972
 20
-305.0000000000026
 30
-49.9999999999977
 70
   192
  0
VERTEX
  5
E5C
  8
0
 10
209.999999999997
 20
-315.0000000000023
 30
-34.99999999999889
 70
   192
  0
VERTEX
  5
E5D
  8
0
 10
209.9999999999972
 20
-315.0000000000022
 30
-49.99999999999876
 70
   192
  0
VERTEX
  5
E5E
  8
0
 10
0.0
 20
0.0
 30
0.0
 70
   128
 71
     1
 72
     2
 73
    -3
  0
VERTEX
  5
E5F
  8
0
 10
0.0
 20
0.0
 30
0.0
 70
   128
 71
     4
 72
    -1
 73
     3
  0
VERTEX
  5
E60
  8
0
 10
0.0
 20
0.0
 30
0.0
 70
   128
 71
     2
 72
     5
 73
    -6
  0
VERTEX
  5
E61
  8
0
 10
0.0
 20
0.0
 30
0.0
 70
   128
 71
     3
 72
    -2
 73
     6
  0
VERTEX
  5
E62
  8
0
 10
0.0
 20
0.0
 30
0.0
 70
   128
 71
     7
 72
     1
 73
    -4
  0
VERTEX
  5
E63
  8
0
 10
0.0
 20
0.0
 30
0.0
 70
   128
 71
     8
 72
    -7
 73
     4
  0
SEQEND
  5
12B4
  8
0
  0
POLYLINE
  5
E64
  8
0
 66
     1
 10
0.0
 20
0.0
 30
0.0
 70
    64
 71
     4
 72
     2
  0
VERTEX
  5
E65
  8
0
 10
219.9999999999972
 20
-305.0000000000026
 30
-49.99999999999876
 70
   192
  0
VERTEX
  5
E66
  8
0
 10
219.9999999999973
 20
304.9999999999978
 30
-49.99999999999663
 70
   192
  0
VERTEX
  5
E67
  8
0
 10
219.9999999999971
 20
304.9999999999977
 30
-34.99999999999663
 70
   192
  0
VERTEX
  5
E68
  8
0
 10
219.9999999999971
 20
-305.0000000000027
 30
-34.99999999999876
 70
   192
  0
VERTEX
  5
E69
  8
0
 10
0.0
 20
0.0
 30
0.0
 70
   128
 71
     1
 72
     4
 73
    -3
  0
VERTEX
  5
E6A
  8
0
 10
0.0
 20
0.0
 30
0.0
 70
   128
 71
    -1
 72
     3
 73
     2
  0
SEQEND
  5
12B5
  8
0
  0
POLYLINE
  5
E6B
  8
0
 66
     1
 10
0.0
 20
0.0
 30
0.0
 70
    64
 71
     8
 72
     6
  0
VERTEX
  5
E6C
  8
0
 10
218.6602540378415
 20
309.9999999999977
 30
-34.99999999999662
 70
   192
  0
VERTEX
  5
E6D
  8
0
 10
214.9999999999971
 20
313.6602540378421
 30
-34.99999999999665
 70
   192
  0
VERTEX
  5
E6E
  8
0
 10
214.9999999999973
 20
313.6602540378422
 30
-49.99999999999664
 70
   192
  0
VERTEX
  5
E6F
  8
0
 10
218.6602540378417
 20
309.9999999999978
 30
-49.99999999999662
 70
   192
  0
VERTEX
  5
E70
  8
0
 10
209.9999999999971
 20
314.9999999999977
 30
-34.9999999999967
 70
   192
  0
VERTEX
  5
E71
  8
0
 10
209.9999999999973
 20
314.9999999999978
 30
-49.99999999999901
 70
   192
  0
VERTEX
  5
E72
  8
0
 10
219.9999999999971
 20
304.9999999999977
 30
-34.99999999999665
 70
   192
  0
VERTEX
  5
E73
  8
0
 10
219.9999999999973
 20
304.9999999999978
 30
-49.99999999999663
 70
   192
  0
VERTEX
  5
E74
  8
0
 10
0.0
 20
0.0
 30
0.0
 70
   128
 71
     1
 72
     2
 73
    -3
  0
VERTEX
  5
E75
  8
0
 10
0.0
 20
0.0
 30
0.0
 70
   128
 71
     4
 72
    -1
 73
     3
  0
VERTEX
  5
E76
  8
0
 10
0.0
 20
0.0
 30
0.0
 70
   128
 71
     2
 72
     5
 73
    -6
  0
VERTEX
  5
E77
  8
0
 10
0.0
 20
0.0
 30
0.0
 70
   128
 71
     3
 72
    -2
 73
     6
  0
VERTEX
  5
E78
  8
0
 10
0.0
 20
0.0
 30
0.0
 70
   128
 71
     7
 72
     1
 73
    -4
  0
VERTEX
  5
E79
  8
0
 10
0.0
 20
0.0
 30
0.0
 70
   128
 71
     8
 72
    -7
 73
     4
  0
SEQEND
  5
12B6
  8
0
  0
POLYLINE
  5
E7A
  8
0
 66
     1
 10
0.0
 20
0.0
 30
0.0
 70
    64
 71
     4
 72
     2
  0
VERTEX
  5
E7B
  8
0
 10
209.9999999999973
 20
314.9999999999978
 30
-49.9999999999967
 70
   192
  0
VERTEX
  5
E7C
  8
0
 10
-229.9999999999962
 20
315.0000000000025
 30
-50.00000000000131
 70
   192
  0
VERTEX
  5
E7D
  8
0
 10
-229.9999999999963
 20
314.9999999999978
 30
-35.0000000000013
 70
   192
  0
VERTEX
  5
E7E
  8
0
 10
209.9999999999971
 20
314.9999999999977
 30
-34.9999999999967
 70
   192
  0
VERTEX
  5
E7F
  8
0
 10
0.0
 20
0.0
 30
0.0
 70
   128
 71
     1
 72
     4
 73
    -3
  0
VERTEX
  5
E80
  8
0
 10
0.0
 20
0.0
 30
0.0
 70
   128
 71
    -1
 72
     3
 73
     2
  0
SEQEND
  5
12B7
  8
0
  0
POLYLINE
  5
E81
  8
0
 66
     1
 10
0.0
 20
0.0
 30
0.0
 70
    64
 71
    20
 72
    18
  0
VERTEX
  5
E82
  8
0
 10
-230.0000000000024
 20
-258.5000000000023
 30
-35.00000000000333
 70
   192
  0
VERTEX
  5
E83
  8
0
 10
153.499999999997
 20
-258.5000000000023
 30
-34.99999999999931
 70
   192
  0
VERTEX
  5
E84
  8
0
 10
158.499999999997
 20
-257.1602540378466
 30
-34.99999999999926
 70
   192
  0
VERTEX
  5
E85
  8
0
 10
162.1602540378414
 20
-253.5000000000022
 30
-34.9999999999992
 70
   192
  0
VERTEX
  5
E86
  8
0
 10
163.499999999997
 20
-248.5000000000022
 30
-34.99999999999918
 70
   192
  0
VERTEX
  5
E87
  8
0
 10
163.4999999999971
 20
248.4999999999978
 30
-34.99999999999741
 70
   192
  0
VERTEX
  5
E88
  8
0
 10
162.1602540378415
 20
253.4999999999977
 30
-34.99999999999743
 70
   192
  0
VERTEX
  5
E89
  8
0
 10
158.4999999999971
 20
257.1602540378421
 30
-34.99999999999745
 70
   192
  0
VERTEX
  5
E8A
  8
0
 10
153.4999999999972
 20
258.4999999999978
 30
-34.9999999999975
 70
   192
  0
VERTEX
  5
E8B
  8
0
 10
-229.9999999999969
 20
258.4999999999978
 30
-35.0000000000015
 70
   192
  0
VERTEX
  5
E8C
  8
0
 10
-229.9999999999964
 20
314.9999999999978
 30
-35.00000000000131
 70
   192
  0
VERTEX
  5
E8D
  8
0
 10
209.9999999999971
 20
315.0000000001982
 30
-34.9999999999967
 70
   192
  0
VERTEX
  5
E8E
  8
0
 10
214.9999999999971
 20
313.6602540378421
 30
-34.99999999999665
 70
   192
  0
VERTEX
  5
E8F
  8
0
 10
218.6602540378415
 20
309.9999999999977
 30
-34.99999999999662
 70
   192
  0
VERTEX
  5
E90
  8
0
 10
219.9999999999971
 20
304.9999999999977
 30
-34.99999999999662
 70
   192
  0
VERTEX
  5
E91
  8
0
 10
219.9999999999971
 20
-305.0000000000027
 30
-34.99999999999876
 70
   192
  0
VERTEX
  5
E92
  8
0
 10
218.6602540378413
 20
-310.0000000000025
 30
-34.99999999999879
 70
   192
  0
VERTEX
  5
E93
  8
0
 10
214.9999999999969
 20
-313.6602540378468
 30
-34.99999999999884
 70
   192
  0
VERTEX
  5
E94
  8
0
 10
209.999999999997
 20
-315.0000000000023
 30
-34.9999999999989
 70
   192
  0
VERTEX
  5
E95
  8
0
 10
-230.0000000000029
 20
-314.9999999999975
 30
-35.00000000000352
 70
   192
  0
VERTEX
  5
E96
  8
0
 10
0.0
 20
0.0
 30
0.0
 70
   128
 71
    20
 72
     1
 73
    -2
  0
VERTEX
  5
E97
  8
0
 10
0.0
 20
0.0
 30
0.0
 70
   128
 71
    19
 72
   -20
 73
    -2
  0
VERTEX
  5
E98
  8
0
 10
0.0
 20
0.0
 30
0.0
 70
   128
 71
     2
 72
    -3
 73
   -19
  0
VERTEX
  5
E99
  8
0
 10
0.0
 20
0.0
 30
0.0
 70
   128
 71
     3
 72
    -4
 73
   -19
  0
VERTEX
  5
E9A
  8
0
 10
0.0
 20
0.0
 30
0.0
 70
   128
 71
     4
 72
    -5
 73
   -19
  0
VERTEX
  5
E9B
  8
0
 10
0.0
 20
0.0
 30
0.0
 70
   128
 71
    17
 72
    18
 73
   -19
  0
VERTEX
  5
E9C
  8
0
 10
0.0
 20
0.0
 30
0.0
 70
   128
 71
    16
 72
   -17
 73
   -19
  0
VERTEX
  5
E9D
  8
0
 10
0.0
 20
0.0
 30
0.0
 70
   128
 71
    15
 72
   -16
 73
   -19
  0
VERTEX
  5
E9E
  8
0
 10
0.0
 20
0.0
 30
0.0
 70
   128
 71
    -6
 72
   -15
 73
   -19
  0
VERTEX
  5
E9F
  8
0
 10
0.0
 20
0.0
 30
0.0
 70
   128
 71
     5
 72
    -6
 73
   -19
  0
VERTEX
  5
EA0
  8
0
 10
0.0
 20
0.0
 30
0.0
 70
   128
 71
     6
 72
    -7
 73
   -15
  0
VERTEX
  5
EA1
  8
0
 10
0.0
 20
0.0
 30
0.0
 70
   128
 71
     7
 72
    -8
 73
   -15
  0
VERTEX
  5
EA2
  8
0
 10
0.0
 20
0.0
 30
0.0
 70
   128
 71
     8
 72
    -9
 73
   -15
  0
VERTEX
  5
EA3
  8
0
 10
0.0
 20
0.0
 30
0.0
 70
   128
 71
    13
 72
    14
 73
   -15
  0
VERTEX
  5
EA4
  8
0
 10
0.0
 20
0.0
 30
0.0
 70
   128
 71
    12
 72
   -13
 73
   -15
  0
VERTEX
  5
EA5
  8
0
 10
0.0
 20
0.0
 30
0.0
 70
   128
 71
    11
 72
   -12
 73
   -15
  0
VERTEX
  5
EA6
  8
0
 10
0.0
 20
0.0
 30
0.0
 70
   128
 71
    10
 72
   -11
 73
   -15
  0
VERTEX
  5
EA7
  8
0
 10
0.0
 20
0.0
 30
0.0
 70
   128
 71
     9
 72
   -10
 73
   -15
  0
SEQEND
  5
12B8
  8
0
  0
POLYLINE
  5
EA8
  8
0
 66
     1
 10
0.0
 20
0.0
 30
0.0
 70
    64
 71
    10
 72
     8
  0
VERTEX
  5
EA9
  8
0
 10
63.29744861059584
 20
-246.5419747554939
 30
-110.4999999999974
 70
   192
  0
VERTEX
  5
EAA
  8
0
 10
68.95135130636716
 20
-247.5669160419621
 30
-104.0287754001047
 70
   192
  0
VERTEX
  5
EAB
  8
0
 10
74.03765663817953
 20
-248.6670512340162
 30
-97.08279516492631
 70
   192
  0
VERTEX
  5
EAC
  8
0
 10
78.49999999999409
 20
-249.8301890291987
 30
-89.73903214881699
 70
   192
  0
VERTEX
  5
EAD
  8
0
 10
163.2473859977549
 20
-250.733487454798
 30
-84.03583034599077
 70
   192
  0
VERTEX
  5
EAE
  8
0
 10
161.3632912826354
 20
-254.6780781966903
 30
-59.13066457459767
 70
   192
  0
VERTEX
  5
EAF
  8
0
 10
157.7657550474238
 20
-257.5445195491755
 30
-41.03266614363382
 70
   192
  0
VERTEX
  5
EB0
  8
0
 10
153.499999999997
 20
-258.5000000000063
 30
-34.9999999999993
 70
   192
  0
VERTEX
  5
EB1
  8
0
 10
-230.0000000000024
 20
-258.5000000000023
 30
-35.00000000000333
 70
   192
  0
VERTEX
  5
EB2
  8
0
 10
-230.0000000000013
 20
-246.5419747554905
 30
-110.5000000000013
 70
   192
  0
VERTEX
  5
EB3
  8
0
 10
0.0
 20
0.0
 30
0.0
 70
   128
 71
    10
 72
     1
 73
    -2
  0
VERTEX
  5
EB4
  8
0
 10
0.0
 20
0.0
 30
0.0
 70
   128
 71
     2
 72
    -3
 73
   -10
  0
VERTEX
  5
EB5
  8
0
 10
0.0
 20
0.0
 30
0.0
 70
   128
 71
     3
 72
    -4
 73
   -10
  0
VERTEX
  5
EB6
  8
0
 10
0.0
 20
0.0
 30
0.0
 70
   128
 71
     9
 72
   -10
 73
    -4
  0
VERTEX
  5
EB7
  8
0
 10
0.0
 20
0.0
 30
0.0
 70
   128
 71
     8
 72
    -9
 73
    -4
  0
VERTEX
  5
EB8
  8
0
 10
0.0
 20
0.0
 30
0.0
 70
   128
 71
     6
 72
     7
 73
    -8
  0
VERTEX
  5
EB9
  8
0
 10
0.0
 20
0.0
 30
0.0
 70
   128
 71
     5
 72
    -6
 73
    -8
  0
VERTEX
  5
EBA
  8
0
 10
0.0
 20
0.0
 30
0.0
 70
   128
 71
     4
 72
    -5
 73
    -8
  0
SEQEND
  5
12B9
  8
0
  0
POLYLINE
  5
EBB
  8
0
 66
     1
 10
0.0
 20
0.0
 30
0.0
 70
    64
 71
     8
 72
     6
  0
VERTEX
  5
EBC
  8
0
 10
63.29744861059694
 20
-89.64566427726311
 30
-110.4999999999958
 70
   192
  0
VERTEX
  5
EBD
  8
0
 10
63.29744861059585
 20
-246.5419747554939
 30
-110.4999999999974
 70
   192
  0
VERTEX
  5
EBE
  8
0
 10
-230.0000000000014
 20
-246.5419747554905
 30
-110.5000000000013
 70
   192
  0
VERTEX
  5
EBF
  8
0
 10
-230.0000000000004
 20
-136.5419747554905
 30
-110.5000000000014
 70
   192
  0
VERTEX
  5
EC0
  8
0
 10
-204.999999999998
 20
-136.5419747554907
 30
-110.5000000000011
 70
   192
  0
VERTEX
  5
EC1
  8
0
 10
-205.0000000000007
 20
-160.0000000000001
 30
-110.5000000000011
 70
   192
  0
VERTEX
  5
EC2
  8
0
 10
-119.9999999999979
 20
-142.4999999999996
 30
-110.5000000000002
 70
   192
  0
VERTEX
  5
EC3
  8
0
 10
-119.9999999999979
 20
-89.6456642772612
 30
-110.5000000000002
 70
   192
  0
VERTEX
  5
EC4
  8
0
 10
0.0
 20
0.0
 30
0.0
 70
   128
 71
     4
 72
     5
 73
    -6
  0
VERTEX
  5
EC5
  8
0
 10
0.0
 20
0.0
 30
0.0
 70
   128
 71
     3
 72
    -4
 73
    -6
  0
VERTEX
  5
EC6
  8
0
 10
0.0
 20
0.0
 30
0.0
 70
   128
 71
     6
 72
    -7
 73
    -3
  0
VERTEX
  5
EC7
  8
0
 10
0.0
 20
0.0
 30
0.0
 70
   128
 71
     1
 72
     2
 73
    -3
  0
VERTEX
  5
EC8
  8
0
 10
0.0
 20
0.0
 30
0.0
 70
   128
 71
    -7
 72
    -1
 73
    -3
  0
VERTEX
  5
EC9
  8
0
 10
0.0
 20
0.0
 30
0.0
 70
   128
 71
     7
 72
     8
 73
    -1
  0
SEQEND
  5
12BA
  8
0
  0
POLYLINE
  5
ECA
  8
0
 66
     1
 10
0.0
 20
0.0
 30
0.0
 70
    64
 71
     4
 72
     2
  0
VERTEX
  5
ECB
  8
0
 10
-204.999999999998
 20
-136.5419747554907
 30
-110.5000000000011
 70
   192
  0
VERTEX
  5
ECC
  8
0
 10
-230.0000000000002
 20
-136.5419747554905
 30
-110.5000000000014
 70
   192
  0
VERTEX
  5
ECD
  8
0
 10
-230.0000000000008
 20
-133.3923828685574
 30
-74.50000000000136
 70
   192
  0
VERTEX
  5
ECE
  8
0
 10
-204.9999999999984
 20
-133.3923828685576
 30
-74.50000000000108
 70
   192
  0
VERTEX
  5
ECF
  8
0
 10
0.0
 20
0.0
 30
0.0
 70
   128
 71
     3
 72
     4
 73
    -1
  0
VERTEX
  5
ED0
  8
0
 10
0.0
 20
0.0
 30
0.0
 70
   128
 71
     2
 72
    -3
 73
     1
  0
SEQEND
  5
12BB
  8
0
  0
POLYLINE
  5
ED1
  8
0
 66
     1
 10
0.0
 20
0.0
 30
0.0
 70
    64
 71
     4
 72
     2
  0
VERTEX
  5
ED2
  8
0
 10
-204.9999999999984
 20
-133.3923828685576
 30
-74.50000000000108
 70
   192
  0
VERTEX
  5
ED3
  8
0
 10
-230.0000000000007
 20
-133.3923828685574
 30
-74.50000000000135
 70
   192
  0
VERTEX
  5
ED4
  8
0
 10
-229.9999999999978
 20
133.3923828685622
 30
-74.50000000000136
 70
   192
  0
VERTEX
  5
ED5
  8
0
 10
-204.9999999999984
 20
133.392382868562
 30
-74.5000000000011
 70
   192
  0
VERTEX
  5
ED6
  8
0
 10
0.0
 20
0.0
 30
0.0
 70
   128
 71
     3
 72
     4
 73
    -1
  0
VERTEX
  5
ED7
  8
0
 10
0.0
 20
0.0
 30
0.0
 70
   128
 71
     2
 72
    -3
 73
     1
  0
SEQEND
  5
12BC
  8
0
  0
POLYLINE
  5
ED8
  8
0
 66
     1
 10
0.0
 20
0.0
 30
0.0
 70
    64
 71
     4
 72
     2
  0
VERTEX
  5
ED9
  8
0
 10
-204.9999999999984
 20
133.392382868562
 30
-74.5000000000011
 70
   192
  0
VERTEX
  5
EDA
  8
0
 10
-229.9999999999977
 20
133.3923828685622
 30
-74.50000000000136
 70
   192
  0
VERTEX
  5
EDB
  8
0
 10
-229.9999999999975
 20
136.5419747554953
 30
-110.5000000000014
 70
   192
  0
VERTEX
  5
EDC
  8
0
 10
-204.999999999998
 20
136.5419747554951
 30
-110.5000000000011
 70
   192
  0
VERTEX
  5
EDD
  8
0
 10
0.0
 20
0.0
 30
0.0
 70
   128
 71
     3
 72
     4
 73
    -1
  0
VERTEX
  5
EDE
  8
0
 10
0.0
 20
0.0
 30
0.0
 70
   128
 71
     2
 72
    -3
 73
     1
  0
SEQEND
  5
12BD
  8
0
  0
POLYLINE
  5
EDF
  8
0
 66
     1
 10
0.0
 20
0.0
 30
0.0
 70
    64
 71
     8
 72
     6
  0
VERTEX
  5
EE0
  8
0
 10
63.29744861059921
 20
246.5419747554953
 30
-110.4999999999923
 70
   192
  0
VERTEX
  5
EE1
  8
0
 10
63.29744861059811
 20
89.64566427726169
 30
-110.499999999994
 70
   192
  0
VERTEX
  5
EE2
  8
0
 10
-119.9999999999979
 20
89.6456642772637
 30
-110.5000000000002
 70
   192
  0
VERTEX
  5
EE3
  8
0
 10
-119.9999999999979
 20
142.5000000000004
 30
-110.5000000000002
 70
   192
  0
VERTEX
  5
EE4
  8
0
 10
-204.9999999999972
 20
160.0000000000003
 30
-110.5000000000011
 70
   192
  0
VERTEX
  5
EE5
  8
0
 10
-204.9999999999975
 20
136.5419747554951
 30
-110.5000000000011
 70
   192
  0
VERTEX
  5
EE6
  8
0
 10
-229.9999999999975
 20
136.5419747554953
 30
-110.5000000000014
 70
   192
  0
VERTEX
  5
EE7
  8
0
 10
-229.9999999999962
 20
246.5419747554953
 30
-110.5000000000014
 70
   192
  0
VERTEX
  5
EE8
  8
0
 10
0.0
 20
0.0
 30
0.0
 70
   128
 71
     2
 72
     3
 73
    -4
  0
VERTEX
  5
EE9
  8
0
 10
0.0
 20
0.0
 30
0.0
 70
   128
 71
     1
 72
    -2
 73
    -4
  0
VERTEX
  5
EEA
  8
0
 10
0.0
 20
0.0
 30
0.0
 70
   128
 71
     8
 72
    -1
 73
    -4
  0
VERTEX
  5
EEB
  8
0
 10
0.0
 20
0.0
 30
0.0
 70
   128
 71
     4
 72
    -5
 73
    -8
  0
VERTEX
  5
EEC
  8
0
 10
0.0
 20
0.0
 30
0.0
 70
   128
 71
    -5
 72
     7
 73
    -8
  0
VERTEX
  5
EED
  8
0
 10
0.0
 20
0.0
 30
0.0
 70
   128
 71
     5
 72
     6
 73
    -7
  0
SEQEND
  5
12BE
  8
0
  0
POLYLINE
  5
EEE
  8
0
 66
     1
 10
0.0
 20
0.0
 30
0.0
 70
    64
 71
    10
 72
     8
  0
VERTEX
  5
EEF
  8
0
 10
153.4999999999972
 20
258.4999999999938
 30
-34.99999999999748
 70
   192
  0
VERTEX
  5
EF0
  8
0
 10
157.7657550474234
 20
257.5445195491687
 30
-41.03266614363678
 70
   192
  0
VERTEX
  5
EF1
  8
0
 10
161.3632912826344
 20
254.6780781966864
 30
-59.13066457459797
 70
   192
  0
VERTEX
  5
EF2
  8
0
 10
163.2473859977539
 20
250.7334874547954
 30
-84.03583034598579
 70
   192
  0
VERTEX
  5
EF3
  8
0
 10
78.4999999999975
 20
249.8301890291979
 30
-89.73903214881172
 70
   192
  0
VERTEX
  5
EF4
  8
0
 10
74.03765663818295
 20
248.6670512340154
 30
-97.08279516492117
 70
   192
  0
VERTEX
  5
EF5
  8
0
 10
68.9513513063706
 20
247.566916041962
 30
-104.0287754000995
 70
   192
  0
VERTEX
  5
EF6
  8
0
 10
63.29744861059922
 20
246.5419747554952
 30
-110.4999999999923
 70
   192
  0
VERTEX
  5
EF7
  8
0
 10
-229.9999999999961
 20
246.5419747554953
 30
-110.5000000000014
 70
   192
  0
VERTEX
  5
EF8
  8
0
 10
-229.9999999999969
 20
258.4999999999978
 30
-35.0000000000015
 70
   192
  0
VERTEX
  5
EF9
  8
0
 10
0.0
 20
0.0
 30
0.0
 70
   128
 71
     3
 72
     4
 73
    -5
  0
VERTEX
  5
EFA
  8
0
 10
0.0
 20
0.0
 30
0.0
 70
   128
 71
     2
 72
    -3
 73
    -5
  0
VERTEX
  5
EFB
  8
0
 10
0.0
 20
0.0
 30
0.0
 70
   128
 71
     1
 72
    -2
 73
    -5
  0
VERTEX
  5
EFC
  8
0
 10
0.0
 20
0.0
 30
0.0
 70
   128
 71
    10
 72
    -1
 73
    -5
  0
VERTEX
  5
EFD
  8
0
 10
0.0
 20
0.0
 30
0.0
 70
   128
 71
     5
 72
    -6
 73
   -10
  0
VERTEX
  5
EFE
  8
0
 10
0.0
 20
0.0
 30
0.0
 70
   128
 71
     6
 72
    -7
 73
   -10
  0
VERTEX
  5
EFF
  8
0
 10
0.0
 20
0.0
 30
0.0
 70
   128
 71
     8
 72
     9
 73
   -10
  0
VERTEX
  5
F00
  8
0
 10
0.0
 20
0.0
 30
0.0
 70
   128
 71
     7
 72
    -8
 73
   -10
  0
SEQEND
  5
12BF
  8
0
  0
POLYLINE
  5
F01
  8
0
 66
     1
 10
0.0
 20
0.0
 30
0.0
 70
    64
 71
    20
 72
    22
  0
VERTEX
  5
F02
  8
0
 10
-204.999999999998
 20
-159.9999999999996
 30
-110.5000000000011
 70
   192
  0
VERTEX
  5
F03
  8
0
 10
-204.9999999999989
 20
-159.9999999999999
 30
-20.00000000000271
 70
   192
  0
VERTEX
  5
F04
  8
0
 10
-204.9999999999989
 20
160.0000000000001
 30
-20.0000000000016
 70
   192
  0
VERTEX
  5
F05
  8
0
 10
-204.9999999999972
 20
160.0000000000002
 30
-110.5000000000011
 70
   192
  0
VERTEX
  5
F06
  8
0
 10
-204.9999999999976
 20
136.5419747554951
 30
-110.5000000000011
 70
   192
  0
VERTEX
  5
F07
  8
0
 10
-204.9999999999978
 20
133.392382868562
 30
-74.50000000000111
 70
   192
  0
VERTEX
  5
F08
  8
0
 10
-205.0000000000009
 20
-133.3923828685576
 30
-74.50000000000108
 70
   192
  0
VERTEX
  5
F09
  8
0
 10
-205.0000000000005
 20
-136.5419747554908
 30
-110.5000000000011
 70
   192
  0
VERTEX
  5
F0A
  8
0
 10
-205.0000000000018
 20
-142.4999999999985
 30
-50.00000000000145
 70
   192
  0
VERTEX
  5
F0B
  8
0
 10
-205.0000000000016
 20
-135.4999999999982
 30
-60.00000000000134
 70
   192
  0
VERTEX
  5
F0C
  8
0
 10
-205.0000000000013
 20
-114.4999999999978
 30
-60.00000000000123
 70
   192
  0
VERTEX
  5
F0D
  8
0
 10
-205.0000000000014
 20
-107.4999999999976
 30
-50.00000000000126
 70
   192
  0
VERTEX
  5
F0E
  8
0
 10
-205.0000000000015
 20
-114.4999999999979
 30
-40.00000000000127
 70
   192
  0
VERTEX
  5
F0F
  8
0
 10
-205.0000000000018
 20
-135.4999999999985
 30
-40.00000000000139
 70
   192
  0
VERTEX
  5
F10
  8
0
 10
-204.9999999999988
 20
142.5000000000019
 30
-50.00000000000142
 70
   192
  0
VERTEX
  5
F11
  8
0
 10
-204.9999999999989
 20
135.500000000002
 30
-40.00000000000135
 70
   192
  0
VERTEX
  5
F12
  8
0
 10
-204.9999999999991
 20
114.5000000000019
 30
-40.00000000000127
 70
   192
  0
VERTEX
  5
F13
  8
0
 10
-204.9999999999991
 20
107.5000000000019
 30
-50.00000000000129
 70
   192
  0
VERTEX
  5
F14
  8
0
 10
-204.9999999999989
 20
114.5000000000019
 30
-60.00000000000129
 70
   192
  0
VERTEX
  5
F15
  8
0
 10
-204.9999999999988
 20
135.5000000000018
 30
-60.00000000000136
 70
   192
  0
VERTEX
  5
F16
  8
0
 10
0.0
 20
0.0
 30
0.0
 70
   128
 71
    -9
 72
     2
 73
    -1
  0
VERTEX
  5
F17
  8
0
 10
0.0
 20
0.0
 30
0.0
 70
   128
 71
    -1
 72
    10
 73
    -9
  0
VERTEX
  5
F18
  8
0
 10
0.0
 20
0.0
 30
0.0
 70
   128
 71
    -7
 72
    11
 73
   -10
  0
VERTEX
  5
F19
  8
0
 10
0.0
 20
0.0
 30
0.0
 70
   128
 71
   -10
 72
     1
 73
    -8
  0
VERTEX
  5
F1A
  8
0
 10
0.0
 20
0.0
 30
0.0
 70
   128
 71
   -10
 72
     8
 73
    -7
  0
VERTEX
  5
F1B
  8
0
 10
0.0
 20
0.0
 30
0.0
 70
   128
 71
   -11
 72
     7
 73
    -6
  0
VERTEX
  5
F1C
  8
0
 10
0.0
 20
0.0
 30
0.0
 70
   128
 71
    -6
 72
    12
 73
   -11
  0
VERTEX
  5
F1D
  8
0
 10
0.0
 20
0.0
 30
0.0
 70
   128
 71
    -6
 72
    13
 73
   -12
  0
VERTEX
  5
F1E
  8
0
 10
0.0
 20
0.0
 30
0.0
 70
   128
 71
     6
 72
     5
 73
    -4
  0
VERTEX
  5
F1F
  8
0
 10
0.0
 20
0.0
 30
0.0
 70
   128
 71
    16
 72
   -15
 73
    -3
  0
VERTEX
  5
F20
  8
0
 10
0.0
 20
0.0
 30
0.0
 70
   128
 71
    -3
 72
    17
 73
   -16
  0
VERTEX
  5
F21
  8
0
 10
0.0
 20
0.0
 30
0.0
 70
   128
 71
   -17
 72
     3
 73
    -2
  0
VERTEX
  5
F22
  8
0
 10
0.0
 20
0.0
 30
0.0
 70
   128
 71
    -2
 72
    18
 73
   -17
  0
VERTEX
  5
F23
  8
0
 10
0.0
 20
0.0
 30
0.0
 70
   128
 71
    -2
 72
    19
 73
   -18
  0
VERTEX
  5
F24
  8
0
 10
0.0
 20
0.0
 30
0.0
 70
   128
 71
    -2
 72
   -13
 73
    -6
  0
VERTEX
  5
F25
  8
0
 10
0.0
 20
0.0
 30
0.0
 70
   128
 71
    -2
 72
    -6
 73
   -19
  0
VERTEX
  5
F26
  8
0
 10
0.0
 20
0.0
 30
0.0
 70
   128
 71
    -6
 72
    -4
 73
   -20
  0
VERTEX
  5
F27
  8
0
 10
0.0
 20
0.0
 30
0.0
 70
   128
 71
    20
 72
   -19
 73
    -6
  0
VERTEX
  5
F28
  8
0
 10
0.0
 20
0.0
 30
0.0
 70
   128
 71
    -4
 72
    15
 73
   -20
  0
VERTEX
  5
F29
  8
0
 10
0.0
 20
0.0
 30
0.0
 70
   128
 71
     4
 72
    -3
 73
   -15
  0
VERTEX
  5
F2A
  8
0
 10
0.0
 20
0.0
 30
0.0
 70
   128
 71
    -2
 72
    14
 73
   -13
  0
VERTEX
  5
F2B
  8
0
 10
0.0
 20
0.0
 30
0.0
 70
   128
 71
    -2
 72
     9
 73
   -14
  0
SEQEND
  5
12C0
  8
0
  0
POLYLINE
  5
F2C
  8
0
 66
     1
 10
0.0
 20
0.0
 30
0.0
 70
    64
 71
     4
 72
     2
  0
VERTEX
  5
F2D
  8
0
 10
-119.9999999999989
 20
-142.4999999999999
 30
-20.00000000000177
 70
   192
  0
VERTEX
  5
F2E
  8
0
 10
-204.9999999999989
 20
-159.9999999999999
 30
-20.00000000000271
 70
   192
  0
VERTEX
  5
F2F
  8
0
 10
-205.0000000000005
 20
-160.0000000000001
 30
-110.5000000000011
 70
   192
  0
VERTEX
  5
F30
  8
0
 10
-119.9999999999979
 20
-142.4999999999996
 30
-110.5000000000002
 70
   192
  0
VERTEX
  5
F31
  8
0
 10
0.0
 20
0.0
 30
0.0
 70
   128
 71
     1
 72
     4
 73
    -3
  0
VERTEX
  5
F32
  8
0
 10
0.0
 20
0.0
 30
0.0
 70
   128
 71
    -1
 72
     3
 73
     2
  0
SEQEND
  5
12C1
  8
0
  0
POLYLINE
  5
F33
  8
0
 66
     1
 10
0.0
 20
0.0
 30
0.0
 70
    64
 71
    16
 72
    16
  0
VERTEX
  5
F34
  8
0
 10
-204.9999999999989
 20
-159.9999999999999
 30
-20.00000000000271
 70
   192
  0
VERTEX
  5
F35
  8
0
 10
-204.9999999999989
 20
160.0000000000001
 30
-20.0000000000016
 70
   192
  0
VERTEX
  5
F36
  8
0
 10
-119.9999999999989
 20
142.5000000000001
 30
-20.00000000000077
 70
   192
  0
VERTEX
  5
F37
  8
0
 10
-119.9999999999988
 20
35.00000000000006
 30
-20.00000000000115
 70
   192
  0
VERTEX
  5
F38
  8
0
 10
-152.4999999999989
 20
35.00000000000006
 30
-20.00000000000149
 70
   192
  0
VERTEX
  5
F39
  8
0
 10
-152.4999999999989
 20
-34.99999999999994
 30
-20.00000000000174
 70
   192
  0
VERTEX
  5
F3A
  8
0
 10
-119.9999999999989
 20
-34.99999999999994
 30
-20.00000000000141
 70
   192
  0
VERTEX
  5
F3B
  8
0
 10
-119.9999999999989
 20
-142.4999999999999
 30
-20.00000000000177
 70
   192
  0
VERTEX
  5
F3C
  8
0
 10
-191.000000000004
 20
-0.000000000000002
 30
-20.00000000000201
 70
   192
  0
VERTEX
  5
F3D
  8
0
 10
-185.7279220613617
 20
-12.72792206135822
 30
-20.000000000002
 70
   192
  0
VERTEX
  5
F3E
  8
0
 10
-173.0000000000034
 20
-18.00000000000052
 30
-20.00000000000189
 70
   192
  0
VERTEX
  5
F3F
  8
0
 10
-160.2720779386452
 20
-12.72792206135822
 30
-20.00000000000173
 70
   192
  0
VERTEX
  5
F40
  8
0
 10
-155.0000000000029
 20
0.0000000000000022
 30
-20.00000000000164
 70
   192
  0
VERTEX
  5
F41
  8
0
 10
-160.2720779386452
 20
12.72792206135822
 30
-20.00000000000165
 70
   192
  0
VERTEX
  5
F42
  8
0
 10
-173.0000000000034
 20
18.00000000000052
 30
-20.00000000000176
 70
   192
  0
VERTEX
  5
F43
  8
0
 10
-185.7279220613617
 20
12.72792206135822
 30
-20.00000000000191
 70
   192
  0
VERTEX
  5
F44
  8
0
 10
0.0
 20
0.0
 30
0.0
 70
   128
 71
     3
 72
     4
 73
    -5
  0
VERTEX
  5
F45
  8
0
 10
0.0
 20
0.0
 30
0.0
 70
   128
 71
     2
 72
    -3
 73
    -5
  0
VERTEX
  5
F46
  8
0
 10
0.0
 20
0.0
 30
0.0
 70
   128
 71
    -1
 72
     9
 73
   -10
  0
VERTEX
  5
F47
  8
0
 10
0.0
 20
0.0
 30
0.0
 70
   128
 71
   -11
 72
    -6
 73
    -1
  0
VERTEX
  5
F48
  8
0
 10
0.0
 20
0.0
 30
0.0
 70
   128
 71
    10
 72
   -11
 73
    -1
  0
VERTEX
  5
F49
  8
0
 10
0.0
 20
0.0
 30
0.0
 70
   128
 71
    11
 72
   -12
 73
    -6
  0
VERTEX
  5
F4A
  8
0
 10
0.0
 20
0.0
 30
0.0
 70
   128
 71
    12
 72
   -13
 73
    -6
  0
VERTEX
  5
F4B
  8
0
 10
0.0
 20
0.0
 30
0.0
 70
   128
 71
     5
 72
    -6
 73
   -13
  0
VERTEX
  5
F4C
  8
0
 10
0.0
 20
0.0
 30
0.0
 70
   128
 71
    13
 72
   -14
 73
    -5
  0
VERTEX
  5
F4D
  8
0
 10
0.0
 20
0.0
 30
0.0
 70
   128
 71
    14
 72
   -15
 73
    -5
  0
VERTEX
  5
F4E
  8
0
 10
0.0
 20
0.0
 30
0.0
 70
   128
 71
   -16
 72
    -2
 73
    -5
  0
VERTEX
  5
F4F
  8
0
 10
0.0
 20
0.0
 30
0.0
 70
   128
 71
    15
 72
   -16
 73
    -5
  0
VERTEX
  5
F50
  8
0
 10
0.0
 20
0.0
 30
0.0
 70
   128
 71
    16
 72
    -9
 73
    -2
  0
VERTEX
  5
F51
  8
0
 10
0.0
 20
0.0
 30
0.0
 70
   128
 71
    -9
 72
     1
 73
    -2
  0
VERTEX
  5
F52
  8
0
 10
0.0
 20
0.0
 30
0.0
 70
   128
 71
     7
 72
     8
 73
    -1
  0
VERTEX
  5
F53
  8
0
 10
0.0
 20
0.0
 30
0.0
 70
   128
 71
     6
 72
    -7
 73
    -1
  0
SEQEND
  5
12C2
  8
0
  0
POLYLINE
  5
F54
  8
0
 66
     1
 10
0.0
 20
0.0
 30
0.0
 70
    64
 71
    10
 72
     8
  0
VERTEX
  5
F55
  8
0
 10
-155.0000000000029
 20
-0.000000000000002
 30
-20.00000000000164
 70
   192
  0
VERTEX
  5
F56
  8
0
 10
-191.000000000004
 20
0.0000000000000022
 30
-20.00000000000202
 70
   192
  0
VERTEX
  5
F57
  8
0
 10
-191.000000000004
 20
0.0000000000000022
 30
-5.0
 70
   192
  0
VERTEX
  5
F58
  8
0
 10
-155.0000000000029
 20
0.0
 30
-5.0
 70
   192
  0
VERTEX
  5
F59
  8
0
 10
-173.0000000000034
 20
18.00000000000052
 30
-5.000000000000004
 70
   192
  0
VERTEX
  5
F5A
  8
0
 10
-173.0000000000034
 20
18.00000000000052
 30
-20.00000000000176
 70
   192
  0
VERTEX
  5
F5B
  8
0
 10
-160.2720779386452
 20
12.72792206135822
 30
-5.000000000000004
 70
   192
  0
VERTEX
  5
F5C
  8
0
 10
-160.2720779386452
 20
12.72792206135822
 30
-20.00000000000165
 70
   192
  0
VERTEX
  5
F5D
  8
0
 10
-185.7279220613617
 20
12.72792206135822
 30
-5.000000000000004
 70
   192
  0
VERTEX
  5
F5E
  8
0
 10
-185.7279220613617
 20
12.72792206135822
 30
-20.00000000000191
 70
   192
  0
VERTEX
  5
F5F
  8
0
 10
0.0
 20
0.0
 30
0.0
 70
   128
 71
     8
 72
     1
 73
    -4
  0
VERTEX
  5
F60
  8
0
 10
0.0
 20
0.0
 30
0.0
 70
   128
 71
     7
 72
    -8
 73
     4
  0
VERTEX
  5
F61
  8
0
 10
0.0
 20
0.0
 30
0.0
 70
   128
 71
     6
 72
     8
 73
    -7
  0
VERTEX
  5
F62
  8
0
 10
0.0
 20
0.0
 30
0.0
 70
   128
 71
     5
 72
    -6
 73
     7
  0
VERTEX
  5
F63
  8
0
 10
0.0
 20
0.0
 30
0.0
 70
   128
 71
    10
 72
     6
 73
    -5
  0
VERTEX
  5
F64
  8
0
 10
0.0
 20
0.0
 30
0.0
 70
   128
 71
     9
 72
   -10
 73
     5
  0
VERTEX
  5
F65
  8
0
 10
0.0
 20
0.0
 30
0.0
 70
   128
 71
     3
 72
     2
 73
   -10
  0
VERTEX
  5
F66
  8
0
 10
0.0
 20
0.0
 30
0.0
 70
   128
 71
     9
 72
    -3
 73
    10
  0
SEQEND
  5
12C3
  8
0
  0
POLYLINE
  5
F67
  8
0
 66
     1
 10
0.0
 20
0.0
 30
0.0
 70
    64
 71
    10
 72
     8
  0
VERTEX
  5
F68
  8
0
 10
-11.00000000000288
 20
0.0
 30
-165.0
 70
   192
  0
VERTEX
  5
F69
  8
0
 10
-59.00000000000395
 20
0.0000000000000029
 30
-165.0
 70
   192
  0
VERTEX
  5
F6A
  8
0
 10
-59.00000000000395
 20
0.0000000000000029
 30
-124.7652316125781
 70
   192
  0
VERTEX
  5
F6B
  8
0
 10
-11.00000000000288
 20
0.0
 30
-124.7652316125781
 70
   192
  0
VERTEX
  5
F6C
  8
0
 10
-35.00000000000286
 20
24.00000000000001
 30
-124.7652316125781
 70
   192
  0
VERTEX
  5
F6D
  8
0
 10
-35.00000000000342
 20
24.00000000000054
 30
-165.0
 70
   192
  0
VERTEX
  5
F6E
  8
0
 10
-18.02943725152571
 20
16.97056274847714
 30
-124.7652316125781
 70
   192
  0
VERTEX
  5
F6F
  8
0
 10
-18.02943725152589
 20
16.97056274847752
 30
-165.0
 70
   192
  0
VERTEX
  5
F70
  8
0
 10
-51.97056274848
 20
16.97056274847714
 30
-124.7652316125781
 70
   192
  0
VERTEX
  5
F71
  8
0
 10
-51.97056274848094
 20
16.97056274847752
 30
-165.0
 70
   192
  0
VERTEX
  5
F72
  8
0
 10
0.0
 20
0.0
 30
0.0
 70
   128
 71
     8
 72
     1
 73
    -4
  0
VERTEX
  5
F73
  8
0
 10
0.0
 20
0.0
 30
0.0
 70
   128
 71
     7
 72
    -8
 73
     4
  0
VERTEX
  5
F74
  8
0
 10
0.0
 20
0.0
 30
0.0
 70
   128
 71
     6
 72
     8
 73
    -7
  0
VERTEX
  5
F75
  8
0
 10
0.0
 20
0.0
 30
0.0
 70
   128
 71
     5
 72
    -6
 73
     7
  0
VERTEX
  5
F76
  8
0
 10
0.0
 20
0.0
 30
0.0
 70
   128
 71
    10
 72
     6
 73
    -5
  0
VERTEX
  5
F77
  8
0
 10
0.0
 20
0.0
 30
0.0
 70
   128
 71
     9
 72
   -10
 73
     5
  0
VERTEX
  5
F78
  8
0
 10
0.0
 20
0.0
 30
0.0
 70
   128
 71
     3
 72
     2
 73
   -10
  0
VERTEX
  5
F79
  8
0
 10
0.0
 20
0.0
 30
0.0
 70
   128
 71
     9
 72
    -3
 73
    10
  0
SEQEND
  5
12C4
  8
0
  0
POLYLINE
  5
F7A
  8
0
 66
     1
 10
0.0
 20
0.0
 30
0.0
 70
    64
 71
     8
 72
     6
  0
VERTEX
  5
F7B
  8
0
 10
-119.9999999999977
 20
58.82711615591817
 30
-127.7368234580858
 70
   192
  0
VERTEX
  5
F7C
  8
0
 10
37.50418872434351
 20
41.17144432479599
 30
-129.9999999999991
 70
   192
  0
VERTEX
  5
F7D
  8
0
 10
-119.9999999999975
 20
41.17144432479762
 30
-130.0000000000008
 70
   192
  0
VERTEX
  5
F7E
  8
0
 10
-119.9999999999979
 20
89.64566427726368
 30
-110.5000000000002
 70
   192
  0
VERTEX
  5
F7F
  8
0
 10
63.2974486105939
 20
89.64566427726177
 30
-110.4999999999983
 70
   192
  0
VERTEX
  5
F80
  8
0
 10
52.2100066835795
 20
76.34523982689501
 30
-120.5211857823677
 70
   192
  0
VERTEX
  5
F81
  8
0
 10
-119.9999999999978
 20
75.34113363504042
 30
-121.0936357769086
 70
   192
  0
VERTEX
  5
F82
  8
0
 10
42.259673042611
 20
60.33483970444858
 30
-127.3259840611299
 70
   192
  0
VERTEX
  5
F83
  8
0
 10
0.0
 20
0.0
 30
0.0
 70
   128
 71
     1
 72
     2
 73
     3
  0
VERTEX
  5
F84
  8
0
 10
0.0
 20
0.0
 30
0.0
 70
   128
 71
     4
 72
     5
 73
     6
  0
VERTEX
  5
F85
  8
0
 10
0.0
 20
0.0
 30
0.0
 70
   128
 71
     4
 72
     6
 73
     7
  0
VERTEX
  5
F86
  8
0
 10
0.0
 20
0.0
 30
0.0
 70
   128
 71
     7
 72
     6
 73
     8
  0
VERTEX
  5
F87
  8
0
 10
0.0
 20
0.0
 30
0.0
 70
   128
 71
     7
 72
     8
 73
     1
  0
VERTEX
  5
F88
  8
0
 10
0.0
 20
0.0
 30
0.0
 70
   128
 71
     1
 72
     8
 73
     2
  0
SEQEND
  5
12C5
  8
0
  0
POLYLINE
  5
F89
  8
0
 66
     1
 10
0.0
 20
0.0
 30
0.0
 70
    64
 71
     8
 72
     6
  0
VERTEX
  5
F8A
  8
0
 10
-119.9999999999977
 20
-41.17144432479516
 30
-130.0000000000007
 70
   192
  0
VERTEX
  5
F8B
  8
0
 10
37.5041887243446
 20
-41.17144432479679
 30
-129.9999999999991
 70
   192
  0
VERTEX
  5
F8C
  8
0
 10
42.2596730426123
 20
-60.33483970444949
 30
-127.3259840611299
 70
   192
  0
VERTEX
  5
F8D
  8
0
 10
-119.9999999999977
 20
-58.82711615591572
 30
-127.7368234580858
 70
   192
  0
VERTEX
  5
F8E
  8
0
 10
-119.9999999999978
 20
-75.34113363503795
 30
-121.0936357769086
 70
   192
  0
VERTEX
  5
F8F
  8
0
 10
52.21000668358049
 20
-76.34523982689612
 30
-120.5211857823677
 70
   192
  0
VERTEX
  5
F90
  8
0
 10
-119.999999999998
 20
-89.64566427726119
 30
-110.5000000000002
 70
   192
  0
VERTEX
  5
F91
  8
0
 10
63.29744861059442
 20
-89.64566427726311
 30
-110.4999999999983
 70
   192
  0
VERTEX
  5
F92
  8
0
 10
0.0
 20
0.0
 30
0.0
 70
   128
 71
     1
 72
     2
 73
     3
  0
VERTEX
  5
F93
  8
0
 10
0.0
 20
0.0
 30
0.0
 70
   128
 71
     1
 72
     3
 73
     4
  0
VERTEX
  5
F94
  8
0
 10
0.0
 20
0.0
 30
0.0
 70
   128
 71
     5
 72
     4
 73
     3
  0
VERTEX
  5
F95
  8
0
 10
0.0
 20
0.0
 30
0.0
 70
   128
 71
     3
 72
     6
 73
     7
  0
VERTEX
  5
F96
  8
0
 10
0.0
 20
0.0
 30
0.0
 70
   128
 71
     3
 72
     7
 73
     5
  0
VERTEX
  5
F97
  8
0
 10
0.0
 20
0.0
 30
0.0
 70
   128
 71
     6
 72
     8
 73
     7
  0
SEQEND
  5
12C6
  8
0
  0
POLYLINE
  5
F98
  8
0
 66
     1
 10
0.0
 20
0.0
 30
0.0
 70
    64
 71
     8
 72
     6
  0
VERTEX
  5
F99
  8
0
 10
-131.6840349800115
 20
35.00000000000053
 30
-153.6156695581337
 70
   192
  0
VERTEX
  5
F9A
  8
0
 10
-131.6840349800117
 20
-34.99999999999947
 30
-153.6156695581345
 70
   192
  0
VERTEX
  5
F9B
  8
0
 10
-142.7210873477603
 20
-34.99999999999949
 30
-149.5393330634317
 70
   192
  0
VERTEX
  5
F9C
  8
0
 10
-142.7210873477599
 20
35.00000000000051
 30
-149.539333063431
 70
   192
  0
VERTEX
  5
F9D
  8
0
 10
-119.9999999999974
 20
35.00000000000053
 30
-154.999999999998
 70
   192
  0
VERTEX
  5
F9E
  8
0
 10
-119.9999999999992
 20
-34.99999999999945
 30
-154.9999999999989
 70
   192
  0
VERTEX
  5
F9F
  8
0
 10
-152.499999999998
 20
-34.99999999999951
 30
-142.9967103839266
 70
   192
  0
VERTEX
  5
FA0
  8
0
 10
-152.4999999999974
 20
35.00000000000049
 30
-142.9967103839258
 70
   192
  0
VERTEX
  5
FA1
  8
0
 10
0.0
 20
0.0
 30
0.0
 70
   128
 71
     1
 72
     2
 73
    -3
  0
VERTEX
  5
FA2
  8
0
 10
0.0
 20
0.0
 30
0.0
 70
   128
 71
    -1
 72
     3
 73
     4
  0
VERTEX
  5
FA3
  8
0
 10
0.0
 20
0.0
 30
0.0
 70
   128
 71
     5
 72
     6
 73
    -2
  0
VERTEX
  5
FA4
  8
0
 10
0.0
 20
0.0
 30
0.0
 70
   128
 71
    -5
 72
     2
 73
     1
  0
VERTEX
  5
FA5
  8
0
 10
0.0
 20
0.0
 30
0.0
 70
   128
 71
     4
 72
     3
 73
    -7
  0
VERTEX
  5
FA6
  8
0
 10
0.0
 20
0.0
 30
0.0
 70
   128
 71
    -4
 72
     7
 73
     8
  0
SEQEND
  5
12C7
  8
0
  0
POLYLINE
  5
FA7
  8
0
 66
     1
 10
0.0
 20
0.0
 30
0.0
 70
    64
 71
    10
 72
     8
  0
VERTEX
  5
FA8
  8
0
 10
163.4999999999976
 20
-248.5000000000022
 30
-84.01883030975308
 70
   192
  0
VERTEX
  5
FA9
  8
0
 10
163.4718525214973
 20
-249.249771491499
 30
-84.02072453632114
 70
   192
  0
VERTEX
  5
FAA
  8
0
 10
163.3874100859964
 20
-249.9963695370131
 30
-84.02640721602525
 70
   192
  0
VERTEX
  5
FAB
  8
0
 10
163.2473859977552
 20
-250.733487454798
 30
-84.03583034599076
 70
   192
  0
VERTEX
  5
FAC
  8
0
 10
78.49999999999409
 20
-249.8301890291987
 30
-89.73903214881697
 70
   192
  0
VERTEX
  5
FAD
  8
0
 10
78.49999999999757
 20
249.8301890291978
 30
-89.73903214881173
 70
   192
  0
VERTEX
  5
FAE
  8
0
 10
163.247385997754
 20
250.7334874547954
 30
-84.03583034598579
 70
   192
  0
VERTEX
  5
FAF
  8
0
 10
163.3874100859959
 20
249.99636953701
 30
-84.02640721602022
 70
   192
  0
VERTEX
  5
FB0
  8
0
 10
163.4718525214971
 20
249.2497714914952
 30
-84.02072453631612
 70
   192
  0
VERTEX
  5
FB1
  8
0
 10
163.4999999999976
 20
248.4999999999978
 30
-84.01883030974811
 70
   192
  0
VERTEX
  5
FB2
  8
0
 10
0.0
 20
0.0
 30
0.0
 70
   128
 71
     6
 72
     7
 73
    -8
  0
VERTEX
  5
FB3
  8
0
 10
0.0
 20
0.0
 30
0.0
 70
   128
 71
     8
 72
    -9
 73
    -6
  0
VERTEX
  5
FB4
  8
0
 10
0.0
 20
0.0
 30
0.0
 70
   128
 71
     9
 72
   -10
 73
    -6
  0
VERTEX
  5
FB5
  8
0
 10
0.0
 20
0.0
 30
0.0
 70
   128
 71
    -1
 72
     5
 73
    -6
  0
VERTEX
  5
FB6
  8
0
 10
0.0
 20
0.0
 30
0.0
 70
   128
 71
    10
 72
    -1
 73
    -6
  0
VERTEX
  5
FB7
  8
0
 10
0.0
 20
0.0
 30
0.0
 70
   128
 71
     1
 72
     2
 73
    -3
  0
VERTEX
  5
FB8
  8
0
 10
0.0
 20
0.0
 30
0.0
 70
   128
 71
     4
 72
    -5
 73
    -1
  0
VERTEX
  5
FB9
  8
0
 10
0.0
 20
0.0
 30
0.0
 70
   128
 71
     3
 72
    -4
 73
    -1
  0
SEQEND
  5
12C8
  8
0
  0
POLYLINE
  5
FBA
  8
0
 66
     1
 10
0.0
 20
0.0
 30
0.0
 70
    64
 71
     8
 72
     6
  0
VERTEX
  5
FBB
  8
0
 10
-230.000000000001
 20
-142.4999999999982
 30
-50.00000000000146
 70
   192
  0
VERTEX
  5
FBC
  8
0
 10
-230.0000000000008
 20
-135.4999999999982
 30
-60.0000000000015
 70
   192
  0
VERTEX
  5
FBD
  8
0
 10
-230.0000000000007
 20
-114.4999999999976
 30
-60.00000000000156
 70
   192
  0
VERTEX
  5
FBE
  8
0
 10
-230.0000000000006
 20
-107.4999999999974
 30
-50.00000000000153
 70
   192
  0
VERTEX
  5
FBF
  8
0
 10
-205.0000000000014
 20
-107.4999999999976
 30
-50.00000000000126
 70
   192
  0
VERTEX
  5
FC0
  8
0
 10
-205.0000000000013
 20
-114.4999999999978
 30
-60.00000000000123
 70
   192
  0
VERTEX
  5
FC1
  8
0
 10
-205.0000000000016
 20
-135.4999999999982
 30
-60.00000000000134
 70
   192
  0
VERTEX
  5
FC2
  8
0
 10
-205.0000000000018
 20
-142.4999999999985
 30
-50.00000000000131
 70
   192
  0
VERTEX
  5
FC3
  8
0
 10
0.0
 20
0.0
 30
0.0
 70
   128
 71
     6
 72
     5
 73
    -4
  0
VERTEX
  5
FC4
  8
0
 10
0.0
 20
0.0
 30
0.0
 70
   128
 71
    -6
 72
     4
 73
     3
  0
VERTEX
  5
FC5
  8
0
 10
0.0
 20
0.0
 30
0.0
 70
   128
 71
     3
 72
     2
 73
    -7
  0
VERTEX
  5
FC6
  8
0
 10
0.0
 20
0.0
 30
0.0
 70
   128
 71
    -3
 72
     7
 73
     6
  0
VERTEX
  5
FC7
  8
0
 10
0.0
 20
0.0
 30
0.0
 70
   128
 71
     2
 72
     1
 73
    -8
  0
VERTEX
  5
FC8
  8
0
 10
0.0
 20
0.0
 30
0.0
 70
   128
 71
    -2
 72
     8
 73
     7
  0
SEQEND
  5
12C9
  8
0
  0
POLYLINE
  5
FC9
  8
0
 66
     1
 10
0.0
 20
0.0
 30
0.0
 70
    64
 71
     8
 72
     6
  0
VERTEX
  5
FCA
  8
0
 10
-229.999999999998
 20
142.5000000000022
 30
-50.00000000000143
 70
   192
  0
VERTEX
  5
FCB
  8
0
 10
-229.9999999999982
 20
135.5000000000021
 30
-40.00000000000149
 70
   192
  0
VERTEX
  5
FCC
  8
0
 10
-229.9999999999984
 20
114.5000000000022
 30
-40.00000000000156
 70
   192
  0
VERTEX
  5
FCD
  8
0
 10
-229.9999999999984
 20
107.5000000000022
 30
-50.00000000000156
 70
   192
  0
VERTEX
  5
FCE
  8
0
 10
-204.9999999999991
 20
107.5000000000019
 30
-50.00000000000129
 70
   192
  0
VERTEX
  5
FCF
  8
0
 10
-204.9999999999991
 20
114.5000000000019
 30
-40.00000000000127
 70
   192
  0
VERTEX
  5
FD0
  8
0
 10
-204.9999999999989
 20
135.500000000002
 30
-40.00000000000135
 70
   192
  0
VERTEX
  5
FD1
  8
0
 10
-204.9999999999988
 20
142.5000000000019
 30
-50.00000000000129
 70
   192
  0
VERTEX
  5
FD2
  8
0
 10
0.0
 20
0.0
 30
0.0
 70
   128
 71
     6
 72
     5
 73
    -4
  0
VERTEX
  5
FD3
  8
0
 10
0.0
 20
0.0
 30
0.0
 70
   128
 71
    -6
 72
     4
 73
     3
  0
VERTEX
  5
FD4
  8
0
 10
0.0
 20
0.0
 30
0.0
 70
   128
 71
     3
 72
     2
 73
    -7
  0
VERTEX
  5
FD5
  8
0
 10
0.0
 20
0.0
 30
0.0
 70
   128
 71
    -3
 72
     7
 73
     6
  0
VERTEX
  5
FD6
  8
0
 10
0.0
 20
0.0
 30
0.0
 70
   128
 71
     2
 72
     1
 73
    -8
  0
VERTEX
  5
FD7
  8
0
 10
0.0
 20
0.0
 30
0.0
 70
   128
 71
    -2
 72
     8
 73
     7
  0
SEQEND
  5
12CA
  8
0
  0
POLYLINE
  5
FD8
  8
0
 66
     1
 10
0.0
 20
0.0
 30
0.0
 70
    64
 71
    12
 72
    10
  0
VERTEX
  5
FD9
  8
0
 10
-11.00000000000285
 20
0.0
 30
-124.7652316125781
 70
   192
  0
VERTEX
  5
FDA
  8
0
 10
-3.093292638578367
 20
0.0
 30
-111.0704127420118
 70
   192
  0
VERTEX
  5
FDB
  8
0
 10
-6.234192916547271
 20
12.79375623141636
 30
-111.8050670809214
 70
   192
  0
VERTEX
  5
FDC
  8
0
 10
-18.02943725152571
 20
16.97056274847714
 30
-124.7652316125781
 70
   192
  0
VERTEX
  5
FDD
  8
0
 10
-26.50136037689228
 20
28.53479607603416
 30
-114.7652316125778
 70
   192
  0
VERTEX
  5
FDE
  8
0
 10
-35.00000000000286
 20
24.00000000000001
 30
-124.7652316125781
 70
   192
  0
VERTEX
  5
FDF
  8
0
 10
-14.66333261183262
 20
22.80926854670472
 30
-113.4052075207329
 70
   192
  0
VERTEX
  5
FE0
  8
0
 10
-64.77350269189922
 20
0.0000000000000036
 30
-114.7652316125777
 70
   192
  0
VERTEX
  5
FE1
  8
0
 10
-59.00000000000286
 20
0.0000000000000029
 30
-124.7652316125781
 70
   192
  0
VERTEX
  5
FE2
  8
0
 10
-51.97056274848
 20
16.97056274847714
 30
-124.7652316125781
 70
   192
  0
VERTEX
  5
FE3
  8
0
 10
-59.23048413059466
 20
17.30159245102888
 30
-114.7652316125777
 70
   192
  0
VERTEX
  5
FE4
  8
0
 10
-44.66534783761841
 20
28.16101052381219
 30
-114.7652316125777
 70
   192
  0
VERTEX
  5
FE5
  8
0
 10
0.0
 20
0.0
 30
0.0
 70
   128
 71
     1
 72
     2
 73
     3
  0
VERTEX
  5
FE6
  8
0
 10
0.0
 20
0.0
 30
0.0
 70
   128
 71
     4
 72
     1
 73
     3
  0
VERTEX
  5
FE7
  8
0
 10
0.0
 20
0.0
 30
0.0
 70
   128
 71
     5
 72
     6
 73
     4
  0
VERTEX
  5
FE8
  8
0
 10
0.0
 20
0.0
 30
0.0
 70
   128
 71
     7
 72
     5
 73
     4
  0
VERTEX
  5
FE9
  8
0
 10
0.0
 20
0.0
 30
0.0
 70
   128
 71
     8
 72
     9
 73
    10
  0
VERTEX
  5
FEA
  8
0
 10
0.0
 20
0.0
 30
0.0
 70
   128
 71
    11
 72
     8
 73
    10
  0
VERTEX
  5
FEB
  8
0
 10
0.0
 20
0.0
 30
0.0
 70
   128
 71
     7
 72
     4
 73
     3
  0
VERTEX
  5
FEC
  8
0
 10
0.0
 20
0.0
 30
0.0
 70
   128
 71
    12
 72
     6
 73
     5
  0
VERTEX
  5
FED
  8
0
 10
0.0
 20
0.0
 30
0.0
 70
   128
 71
    10
 72
     6
 73
    12
  0
VERTEX
  5
FEE
  8
0
 10
0.0
 20
0.0
 30
0.0
 70
   128
 71
    11
 72
    10
 73
    12
  0
SEQEND
  5
12CB
  8
0
  0
POLYLINE
  5
FEF
  8
0
 66
     1
 10
0.0
 20
0.0
 30
0.0
 70
    64
 71
    17
 72
    15
  0
VERTEX
  5
FF0
  8
0
 10
-119.9999999999977
 20
40.20997507382164
 30
-135.4527630831822
 70
   192
  0
VERTEX
  5
FF1
  8
0
 10
25.217767856308
 20
40.20997507381985
 30
-135.4527630831822
 70
   192
  0
VERTEX
  5
FF2
  8
0
 10
25.21776785630746
 20
-40.20997507382026
 30
-135.4527630831831
 70
   192
  0
VERTEX
  5
FF3
  8
0
 10
-119.9999999999976
 20
-40.20997507381901
 30
-135.4527630831831
 70
   192
  0
VERTEX
  5
FF4
  8
0
 10
-119.9999999999976
 20
-34.99999999999942
 30
-135.452763083183
 70
   192
  0
VERTEX
  5
FF5
  8
0
 10
-55.07517527229123
 20
-28.67032155011749
 30
-135.4527630831829
 70
   192
  0
VERTEX
  5
FF6
  8
0
 10
-48.86279181137473
 20
-32.13756374081044
 30
-135.452763083183
 70
   192
  0
VERTEX
  5
FF7
  8
0
 10
-42.0776150316249
 20
-34.27692176179541
 30
-135.452763083183
 70
   192
  0
VERTEX
  5
FF8
  8
0
 10
-35.00000000000286
 20
-35.00000000000119
 30
-135.452763083183
 70
   192
  0
VERTEX
  5
FF9
  8
0
 10
-10.25126265847167
 20
-24.74873734152953
 30
-135.4527630831829
 70
   192
  0
VERTEX
  5
FFA
  8
0
 10
0.0
 20
0.0000000000016632
 30
-135.4527630831827
 70
   192
  0
VERTEX
  5
FFB
  8
0
 10
-10.25126265847168
 20
24.74873734153285
 30
-135.4527630831824
 70
   192
  0
VERTEX
  5
FFC
  8
0
 10
-35.00000000000286
 20
35.00000000000452
 30
-135.4527630831823
 70
   192
  0
VERTEX
  5
FFD
  8
0
 10
-42.07761503162476
 20
34.27692176179877
 30
-135.4527630831823
 70
   192
  0
VERTEX
  5
FFE
  8
0
 10
-48.86279181137443
 20
32.1375637408139
 30
-135.4527630831823
 70
   192
  0
VERTEX
  5
FFF
  8
0
 10
-55.07517527229105
 20
28.67032155011876
 30
-135.4527630831824
 70
   192
  0
VERTEX
  5
1000
  8
0
 10
-119.9999999999976
 20
35.00000000000047
 30
-135.4527630831823
 70
   192
  0
VERTEX
  5
1001
  8
0
 10
0.0
 20
0.0
 30
0.0
 70
   128
 71
     5
 72
     6
 73
    -7
  0
VERTEX
  5
1002
  8
0
 10
0.0
 20
0.0
 30
0.0
 70
   128
 71
     4
 72
    -5
 73
    -7
  0
VERTEX
  5
1003
  8
0
 10
0.0
 20
0.0
 30
0.0
 70
   128
 71
     7
 72
    -8
 73
    -4
  0
VERTEX
  5
1004
  8
0
 10
0.0
 20
0.0
 30
0.0
 70
   128
 71
     8
 72
    -9
 73
    -4
  0
VERTEX
  5
1005
  8
0
 10
0.0
 20
0.0
 30
0.0
 70
   128
 71
    -9
 72
     3
 73
    -4
  0
VERTEX
  5
1006
  8
0
 10
0.0
 20
0.0
 30
0.0
 70
   128
 71
     9
 72
   -10
 73
    -3
  0
VERTEX
  5
1007
  8
0
 10
0.0
 20
0.0
 30
0.0
 70
   128
 71
   -11
 72
     2
 73
    -3
  0
VERTEX
  5
1008
  8
0
 10
0.0
 20
0.0
 30
0.0
 70
   128
 71
    10
 72
   -11
 73
    -3
  0
VERTEX
  5
1009
  8
0
 10
0.0
 20
0.0
 30
0.0
 70
   128
 71
    11
 72
   -12
 73
    -2
  0
VERTEX
  5
100A
  8
0
 10
0.0
 20
0.0
 30
0.0
 70
   128
 71
    12
 72
   -13
 73
    -2
  0
VERTEX
  5
100B
  8
0
 10
0.0
 20
0.0
 30
0.0
 70
   128
 71
     1
 72
    -2
 73
   -13
  0
VERTEX
  5
100C
  8
0
 10
0.0
 20
0.0
 30
0.0
 70
   128
 71
    13
 72
   -14
 73
    -1
  0
VERTEX
  5
100D
  8
0
 10
0.0
 20
0.0
 30
0.0
 70
   128
 71
    14
 72
   -15
 73
    -1
  0
VERTEX
  5
100E
  8
0
 10
0.0
 20
0.0
 30
0.0
 70
   128
 71
    16
 72
    17
 73
    -1
  0
VERTEX
  5
100F
  8
0
 10
0.0
 20
0.0
 30
0.0
 70
   128
 71
    15
 72
   -16
 73
    -1
  0
SEQEND
  5
12CC
  8
0
  0
POLYLINE
  5
1010
  8
0
 66
     1
 10
0.0
 20
0.0
 30
0.0
 70
    64
 71
     8
 72
     6
  0
VERTEX
  5
1011
  8
0
 10
-42.07761503162408
 20
-34.27692176179459
 30
-164.9999999999989
 70
   192
  0
VERTEX
  5
1012
  8
0
 10
-42.0776150316249
 20
-34.27692176179541
 30
-135.452763083183
 70
   192
  0
VERTEX
  5
1013
  8
0
 10
-48.86279181137473
 20
-32.13756374081044
 30
-135.452763083183
 70
   192
  0
VERTEX
  5
1014
  8
0
 10
-48.8627918113732
 20
-32.13756374081007
 30
-164.9999999999989
 70
   192
  0
VERTEX
  5
1015
  8
0
 10
-35.00000000000286
 20
-35.00000000000022
 30
-164.9999999999989
 70
   192
  0
VERTEX
  5
1016
  8
0
 10
-35.00000000000286
 20
-35.00000000000087
 30
-135.452763083183
 70
   192
  0
VERTEX
  5
1017
  8
0
 10
-55.07517527229145
 20
-28.67032155011516
 30
-135.452763083183
 70
   192
  0
VERTEX
  5
1018
  8
0
 10
-55.07517527229108
 20
-28.6703215501143
 30
-165.0000000000007
 70
   192
  0
VERTEX
  5
1019
  8
0
 10
0.0
 20
0.0
 30
0.0
 70
   128
 71
     1
 72
     2
 73
    -3
  0
VERTEX
  5
101A
  8
0
 10
0.0
 20
0.0
 30
0.0
 70
   128
 71
    -1
 72
     3
 73
     4
  0
VERTEX
  5
101B
  8
0
 10
0.0
 20
0.0
 30
0.0
 70
   128
 71
     5
 72
     6
 73
    -2
  0
VERTEX
  5
101C
  8
0
 10
0.0
 20
0.0
 30
0.0
 70
   128
 71
    -5
 72
     2
 73
     1
  0
VERTEX
  5
101D
  8
0
 10
0.0
 20
0.0
 30
0.0
 70
   128
 71
     4
 72
     3
 73
    -7
  0
VERTEX
  5
101E
  8
0
 10
0.0
 20
0.0
 30
0.0
 70
   128
 71
    -4
 72
     7
 73
     8
  0
SEQEND
  5
12CD
  8
0
  0
POLYLINE
  5
101F
  8
0
 66
     1
 10
0.0
 20
0.0
 30
0.0
 70
    64
 71
     8
 72
     6
  0
VERTEX
  5
1020
  8
0
 10
-70.00000000000087
 20
-30.12537886977062
 30
-165.0000000000009
 70
   192
  0
VERTEX
  5
1021
  8
0
 10
-55.07517527229068
 20
-28.67032155011737
 30
-165.0000000000007
 70
   192
  0
VERTEX
  5
1022
  8
0
 10
-55.07517527229145
 20
-28.67032155011515
 30
-135.452763083183
 70
   192
  0
VERTEX
  5
1023
  8
0
 10
-119.9999999999976
 20
-34.99999999999952
 30
-135.452763083183
 70
   192
  0
VERTEX
  5
1024
  8
0
 10
-119.9999999999974
 20
-34.99999999999945
 30
-154.9999999999989
 70
   192
  0
VERTEX
  5
1025
  8
0
 10
-80.00000000000088
 20
-31.10030309581648
 30
-154.9999999999989
 70
   192
  0
VERTEX
  5
1026
  8
0
 10
-75.1095832358924
 20
-30.62352451793747
 30
-156.2773958089717
 70
   192
  0
VERTEX
  5
1027
  8
0
 10
-71.27739580897396
 20
-30.24991528181236
 30
-160.1095832358906
 70
   192
  0
VERTEX
  5
1028
  8
0
 10
0.0
 20
0.0
 30
0.0
 70
   128
 71
     4
 72
     5
 73
    -6
  0
VERTEX
  5
1029
  8
0
 10
0.0
 20
0.0
 30
0.0
 70
   128
 71
     3
 72
    -4
 73
    -6
  0
VERTEX
  5
102A
  8
0
 10
0.0
 20
0.0
 30
0.0
 70
   128
 71
     6
 72
    -7
 73
    -3
  0
VERTEX
  5
102B
  8
0
 10
0.0
 20
0.0
 30
0.0
 70
   128
 71
    -8
 72
     2
 73
    -3
  0
VERTEX
  5
102C
  8
0
 10
0.0
 20
0.0
 30
0.0
 70
   128
 71
     7
 72
    -8
 73
    -3
  0
VERTEX
  5
102D
  8
0
 10
0.0
 20
0.0
 30
0.0
 70
   128
 71
     8
 72
     1
 73
    -2
  0
SEQEND
  5
12CE
  8
0
  0
POLYLINE
  5
102E
  8
0
 66
     1
 10
0.0
 20
0.0
 30
0.0
 70
    64
 71
     8
 72
     6
  0
VERTEX
  5
102F
  8
0
 10
-55.07517527229068
 20
28.67032155011852
 30
-165.0000000000005
 70
   192
  0
VERTEX
  5
1030
  8
0
 10
-55.07517527229108
 20
28.67032155011843
 30
-135.4527630831824
 70
   192
  0
VERTEX
  5
1031
  8
0
 10
-119.9999999999976
 20
35.00000000000047
 30
-135.4527630831823
 70
   192
  0
VERTEX
  5
1032
  8
0
 10
-119.9999999999974
 20
35.00000000000054
 30
-154.9999999999981
 70
   192
  0
VERTEX
  5
1033
  8
0
 10
-80.00000000000044
 20
31.10030309581752
 30
-154.9999999999982
 70
   192
  0
VERTEX
  5
1034
  8
0
 10
-75.10958323589114
 20
30.62352451793845
 30
-156.2773958089714
 70
   192
  0
VERTEX
  5
1035
  8
0
 10
-71.27739580897246
 20
30.24991528181334
 30
-160.1095832358909
 70
   192
  0
VERTEX
  5
1036
  8
0
 10
-70.00000000000045
 20
30.12537886977173
 30
-165.0000000000006
 70
   192
  0
VERTEX
  5
1037
  8
0
 10
0.0
 20
0.0
 30
0.0
 70
   128
 71
     5
 72
     4
 73
    -3
  0
VERTEX
  5
1038
  8
0
 10
0.0
 20
0.0
 30
0.0
 70
   128
 71
    -5
 72
     3
 73
    -2
  0
VERTEX
  5
1039
  8
0
 10
0.0
 20
0.0
 30
0.0
 70
   128
 71
    -2
 72
     6
 73
    -5
  0
VERTEX
  5
103A
  8
0
 10
0.0
 20
0.0
 30
0.0
 70
   128
 71
     2
 72
    -1
 73
    -7
  0
VERTEX
  5
103B
  8
0
 10
0.0
 20
0.0
 30
0.0
 70
   128
 71
    -2
 72
     7
 73
    -6
  0
VERTEX
  5
103C
  8
0
 10
0.0
 20
0.0
 30
0.0
 70
   128
 71
     1
 72
     8
 73
    -7
  0
SEQEND
  5
12CF
  8
0
  0
POLYLINE
  5
103D
  8
0
 66
     1
 10
0.0
 20
0.0
 30
0.0
 70
    64
 71
     9
 72
     7
  0
VERTEX
  5
103E
  8
0
 10
-115.8903634398152
 20
-252.0779241254602
 30
-5.000000000000004
 70
   192
  0
VERTEX
  5
103F
  8
0
 10
-113.843556467036
 20
-252.9485609718324
 30
-8.598555549283276
 70
   192
  0
VERTEX
  5
1040
  8
0
 10
-110.4494478184593
 20
-253.5804881135205
 30
-11.04349397644478
 70
   192
  0
VERTEX
  5
1041
  8
0
 10
-106.3154821148664
 20
-253.860609364548
 30
-11.89724393374854
 70
   192
  0
VERTEX
  5
1042
  8
0
 10
-106.6623434164922
 20
-273.8706241892024
 30
-8.074195500768036
 70
   192
  0
VERTEX
  5
1043
  8
0
 10
-106.8715323932097
 20
-294.1409354219975
 30
-5.768548875191398
 70
   192
  0
VERTEX
  5
1044
  8
0
 10
-106.9412620521155
 20
-314.4983843100642
 30
-4.999999999999247
 70
   192
  0
VERTEX
  5
1045
  8
0
 10
-110.7694974847751
 20
-293.8106037749577
 30
-4.999999999999877
 70
   192
  0
VERTEX
  5
1046
  8
0
 10
-113.9599771434263
 20
-273.0190272267189
 30
-4.999999999999999
 70
   192
  0
VERTEX
  5
1047
  8
0
 10
0.0
 20
0.0
 30
0.0
 70
   128
 71
     5
 72
     4
 73
     3
  0
VERTEX
  5
1048
  8
0
 10
0.0
 20
0.0
 30
0.0
 70
   128
 71
     5
 72
     3
 73
     8
  0
VERTEX
  5
1049
  8
0
 10
0.0
 20
0.0
 30
0.0
 70
   128
 71
     8
 72
     6
 73
     5
  0
VERTEX
  5
104A
  8
0
 10
0.0
 20
0.0
 30
0.0
 70
   128
 71
     8
 72
     7
 73
     6
  0
VERTEX
  5
104B
  8
0
 10
0.0
 20
0.0
 30
0.0
 70
   128
 71
     3
 72
     2
 73
     9
  0
VERTEX
  5
104C
  8
0
 10
0.0
 20
0.0
 30
0.0
 70
   128
 71
     3
 72
     9
 73
     8
  0
VERTEX
  5
104D
  8
0
 10
0.0
 20
0.0
 30
0.0
 70
   128
 71
     2
 72
     1
 73
     9
  0
SEQEND
  5
12D0
  8
0
  0
POLYLINE
  5
104E
  8
0
 66
     1
 10
0.0
 20
0.0
 30
0.0
 70
    64
 71
    15
 72
    13
  0
VERTEX
  5
104F
  8
0
 10
-115.8903634398152
 20
-252.0779241254603
 30
-5.0
 70
   192
  0
VERTEX
  5
1050
  8
0
 10
-116.0007447100302
 20
-249.5263989723892
 30
-4.999999999999998
 70
   192
  0
VERTEX
  5
1051
  8
0
 10
-116.076460401435
 20
-246.9737113853196
 30
-5.0
 70
   192
  0
VERTEX
  5
1052
  8
0
 10
-116.1045737922898
 20
-244.41942755972
 30
-5.0
 70
   192
  0
VERTEX
  5
1053
  8
0
 10
-115.6913361047948
 20
-232.6010769858237
 30
-9.72332838153978
 70
   192
  0
VERTEX
  5
1054
  8
0
 10
-115.1332323278594
 20
-221.5137989959393
 30
-16.10248374228086
 70
   192
  0
VERTEX
  5
1055
  8
0
 10
-114.4470250324432
 20
-211.490598475065
 30
-23.945869019425
 70
   192
  0
VERTEX
  5
1056
  8
0
 10
-112.9071527931613
 20
-214.723396207432
 30
-27.38913208275768
 70
   192
  0
VERTEX
  5
1057
  8
0
 10
-109.2888600442841
 20
-217.1583960911159
 30
-29.76757303533596
 70
   192
  0
VERTEX
  5
1058
  8
0
 10
-104.4850780515257
 20
-218.1946828107859
 30
-30.49423431523492
 70
   192
  0
VERTEX
  5
1059
  8
0
 10
-105.2897460547742
 20
-228.9432746571054
 30
-22.31876999213314
 70
   192
  0
VERTEX
  5
105A
  8
0
 10
-105.9087156209748
 20
-241.0040668773945
 30
-16.03001042280798
 70
   192
  0
VERTEX
  5
105B
  8
0
 10
-106.3154821148664
 20
-253.860609364548
 30
-11.89724393374844
 70
   192
  0
VERTEX
  5
105C
  8
0
 10
-110.4494478184593
 20
-253.5804881135205
 30
-11.04349397644478
 70
   192
  0
VERTEX
  5
105D
  8
0
 10
-113.843556467036
 20
-252.9485609718324
 30
-8.598555549283276
 70
   192
  0
VERTEX
  5
105E
  8
0
 10
0.0
 20
0.0
 30
0.0
 70
   128
 71
    11
 72
    10
 73
     9
  0
VERTEX
  5
105F
  8
0
 10
0.0
 20
0.0
 30
0.0
 70
   128
 71
     9
 72
    14
 73
    12
  0
VERTEX
  5
1060
  8
0
 10
0.0
 20
0.0
 30
0.0
 70
   128
 71
     9
 72
    12
 73
    11
  0
VERTEX
  5
1061
  8
0
 10
0.0
 20
0.0
 30
0.0
 70
   128
 71
    14
 72
    13
 73
    12
  0
VERTEX
  5
1062
  8
0
 10
0.0
 20
0.0
 30
0.0
 70
   128
 71
     9
 72
     8
 73
    15
  0
VERTEX
  5
1063
  8
0
 10
0.0
 20
0.0
 30
0.0
 70
   128
 71
     9
 72
    15
 73
    14
  0
VERTEX
  5
1064
  8
0
 10
0.0
 20
0.0
 30
0.0
 70
   128
 71
     2
 72
     1
 73
    15
  0
VERTEX
  5
1065
  8
0
 10
0.0
 20
0.0
 30
0.0
 70
   128
 71
    15
 72
     8
 73
     5
  0
VERTEX
  5
1066
  8
0
 10
0.0
 20
0.0
 30
0.0
 70
   128
 71
    15
 72
     5
 73
     3
  0
VERTEX
  5
1067
  8
0
 10
0.0
 20
0.0
 30
0.0
 70
   128
 71
    15
 72
     3
 73
     2
  0
VERTEX
  5
1068
  8
0
 10
0.0
 20
0.0
 30
0.0
 70
   128
 71
     5
 72
     4
 73
     3
  0
VERTEX
  5
1069
  8
0
 10
0.0
 20
0.0
 30
0.0
 70
   128
 71
     8
 72
     6
 73
     5
  0
VERTEX
  5
106A
  8
0
 10
0.0
 20
0.0
 30
0.0
 70
   128
 71
     8
 72
     7
 73
     6
  0
SEQEND
  5
12D1
  8
0
  0
POLYLINE
  5
106B
  8
0
 66
     1
 10
0.0
 20
0.0
 30
0.0
 70
    64
 71
    12
 72
    10
  0
VERTEX
  5
106C
  8
0
 10
-114.4470250324432
 20
-211.490598475065
 30
-23.945869019425
 70
   192
  0
VERTEX
  5
106D
  8
0
 10
-112.3760274812716
 20
-182.9019393578603
 30
-47.61747934820775
 70
   192
  0
VERTEX
  5
106E
  8
0
 10
-110.5252047919936
 20
-152.3196490450649
 30
-68.77247948979398
 70
   192
  0
VERTEX
  5
106F
  8
0
 10
-108.9152518615887
 20
-120.0856821448061
 30
-87.174325689306
 70
   192
  0
VERTEX
  5
1070
  8
0
 10
-107.336835364579
 20
-122.2782030318738
 30
-91.29368689321997
 70
   192
  0
VERTEX
  5
1071
  8
0
 10
-103.7239302482083
 20
-123.93864989583
 30
-94.2018677745703
 70
   192
  0
VERTEX
  5
1072
  8
0
 10
-98.95330488067124
 20
-124.6640707519163
 30
-95.1931202099969
 70
   192
  0
VERTEX
  5
1073
  8
0
 10
-100.5632578110761
 20
-157.6476647893905
 30
-76.36332409886822
 70
   192
  0
VERTEX
  5
1074
  8
0
 10
-102.4140805003541
 20
-188.941171155972
 30
-54.71634720980308
 70
   192
  0
VERTEX
  5
1075
  8
0
 10
-104.4850780515257
 20
-218.1946828107859
 30
-30.49423431523491
 70
   192
  0
VERTEX
  5
1076
  8
0
 10
-109.2888600442841
 20
-217.1583960911159
 30
-29.76757303533596
 70
   192
  0
VERTEX
  5
1077
  8
0
 10
-112.9071527931613
 20
-214.723396207432
 30
-27.38913208275768
 70
   192
  0
VERTEX
  5
1078
  8
0
 10
0.0
 20
0.0
 30
0.0
 70
   128
 71
     8
 72
     7
 73
     6
  0
VERTEX
  5
1079
  8
0
 10
0.0
 20
0.0
 30
0.0
 70
   128
 71
     6
 72
    11
 73
     9
  0
VERTEX
  5
107A
  8
0
 10
0.0
 20
0.0
 30
0.0
 70
   128
 71
     6
 72
     9
 73
     8
  0
VERTEX
  5
107B
  8
0
 10
0.0
 20
0.0
 30
0.0
 70
   128
 71
    11
 72
    10
 73
     9
  0
VERTEX
  5
107C
  8
0
 10
0.0
 20
0.0
 30
0.0
 70
   128
 71
     6
 72
     5
 73
    12
  0
VERTEX
  5
107D
  8
0
 10
0.0
 20
0.0
 30
0.0
 70
   128
 71
     6
 72
    12
 73
    11
  0
VERTEX
  5
107E
  8
0
 10
0.0
 20
0.0
 30
0.0
 70
   128
 71
     2
 72
     1
 73
    12
  0
VERTEX
  5
107F
  8
0
 10
0.0
 20
0.0
 30
0.0
 70
   128
 71
    12
 72
     5
 73
     3
  0
VERTEX
  5
1080
  8
0
 10
0.0
 20
0.0
 30
0.0
 70
   128
 71
    12
 72
     3
 73
     2
  0
VERTEX
  5
1081
  8
0
 10
0.0
 20
0.0
 30
0.0
 70
   128
 71
     5
 72
     4
 73
     3
  0
SEQEND
  5
12D2
  8
0
  0
POLYLINE
  5
1082
  8
0
 66
     1
 10
0.0
 20
0.0
 30
0.0
 70
    64
 71
    13
 72
    11
  0
VERTEX
  5
1083
  8
0
 10
-98.95330488067124
 20
-124.6640707519163
 30
-95.19312020999685
 70
   192
  0
VERTEX
  5
1084
  8
0
 10
-103.7239302482083
 20
-123.93864989583
 30
-94.2018677745703
 70
   192
  0
VERTEX
  5
1085
  8
0
 10
-107.336835364579
 20
-122.2782030318738
 30
-91.29368689321997
 70
   192
  0
VERTEX
  5
1086
  8
0
 10
-108.9152518615887
 20
-120.0856821448061
 30
-87.174325689306
 70
   192
  0
VERTEX
  5
1087
  8
0
 10
-108.1171004933604
 20
-98.97244264293299
 30
-96.2972375736762
 70
   192
  0
VERTEX
  5
1088
  8
0
 10
-107.5737027118534
 20
-76.71685964516001
 30
-102.5083026375059
 70
   192
  0
VERTEX
  5
1089
  8
0
 10
-107.2999956176355
 20
-53.93070208530564
 30
-105.6367890400543
 70
   192
  0
VERTEX
  5
108A
  8
0
 10
-105.6885619920626
 20
-54.0936154128438
 30
-110.2666039112375
 70
   192
  0
VERTEX
  5
108B
  8
0
 10
-102.0823952010312
 20
-54.21565458493411
 30
-113.5682215527674
 70
   192
  0
VERTEX
  5
108C
  8
0
 10
-97.33804863671803
 20
-54.26964878414795
 30
-114.7652316125784
 70
   192
  0
VERTEX
  5
108D
  8
0
 10
-97.3360968932896
 20
-54.26964878414795
 30
-114.7652316125784
 70
   192
  0
VERTEX
  5
108E
  8
0
 10
-97.60786401052468
 20
-78.5158942306578
 30
-111.4761949916953
 70
   192
  0
VERTEX
  5
108F
  8
0
 10
-98.15196626621844
 20
-102.1997766253623
 30
-104.8912473251452
 70
   192
  0
VERTEX
  5
1090
  8
0
 10
0.0
 20
0.0
 30
0.0
 70
   128
 71
     8
 72
     7
 73
     6
  0
VERTEX
  5
1091
  8
0
 10
0.0
 20
0.0
 30
0.0
 70
   128
 71
     6
 72
    12
 73
     9
  0
VERTEX
  5
1092
  8
0
 10
0.0
 20
0.0
 30
0.0
 70
   128
 71
     6
 72
     9
 73
     8
  0
VERTEX
  5
1093
  8
0
 10
0.0
 20
0.0
 30
0.0
 70
   128
 71
    12
 72
    10
 73
     9
  0
VERTEX
  5
1094
  8
0
 10
0.0
 20
0.0
 30
0.0
 70
   128
 71
    12
 72
    11
 73
    10
  0
VERTEX
  5
1095
  8
0
 10
0.0
 20
0.0
 30
0.0
 70
   128
 71
     6
 72
     5
 73
    13
  0
VERTEX
  5
1096
  8
0
 10
0.0
 20
0.0
 30
0.0
 70
   128
 71
     6
 72
    13
 73
    12
  0
VERTEX
  5
1097
  8
0
 10
0.0
 20
0.0
 30
0.0
 70
   128
 71
     2
 72
     1
 73
    13
  0
VERTEX
  5
1098
  8
0
 10
0.0
 20
0.0
 30
0.0
 70
   128
 71
    13
 72
     5
 73
     3
  0
VERTEX
  5
1099
  8
0
 10
0.0
 20
0.0
 30
0.0
 70
   128
 71
    13
 72
     3
 73
     2
  0
VERTEX
  5
109A
  8
0
 10
0.0
 20
0.0
 30
0.0
 70
   128
 71
     5
 72
     4
 73
     3
  0
SEQEND
  5
12D3
  8
0
  0
POLYLINE
  5
109B
  8
0
 66
     1
 10
0.0
 20
0.0
 30
0.0
 70
    64
 71
     8
 72
     6
  0
VERTEX
  5
109C
  8
0
 10
-105.6885619920626
 20
54.09361541284156
 30
-110.2666039112375
 70
   192
  0
VERTEX
  5
109D
  8
0
 10
-107.2999956176355
 20
53.93070208530369
 30
-105.6367890400543
 70
   192
  0
VERTEX
  5
109E
  8
0
 10
-107.2999956176355
 20
-53.93070208530564
 30
-105.6367890400543
 70
   192
  0
VERTEX
  5
109F
  8
0
 10
-105.6885619920626
 20
-54.0936154128438
 30
-110.2666039112375
 70
   192
  0
VERTEX
  5
10A0
  8
0
 10
-102.0823952010312
 20
54.21565458493137
 30
-113.5682215527673
 70
   192
  0
VERTEX
  5
10A1
  8
0
 10
-102.0823952010312
 20
-54.21565458493411
 30
-113.5682215527674
 70
   192
  0
VERTEX
  5
10A2
  8
0
 10
-97.33804863671803
 20
54.26964878414606
 30
-114.7652316125777
 70
   192
  0
VERTEX
  5
10A3
  8
0
 10
-97.33804863671803
 20
-54.26964878414795
 30
-114.7652316125784
 70
   192
  0
VERTEX
  5
10A4
  8
0
 10
0.0
 20
0.0
 30
0.0
 70
   128
 71
     1
 72
     2
 73
    -3
  0
VERTEX
  5
10A5
  8
0
 10
0.0
 20
0.0
 30
0.0
 70
   128
 71
     4
 72
    -1
 73
     3
  0
VERTEX
  5
10A6
  8
0
 10
0.0
 20
0.0
 30
0.0
 70
   128
 71
     5
 72
     1
 73
    -4
  0
VERTEX
  5
10A7
  8
0
 10
0.0
 20
0.0
 30
0.0
 70
   128
 71
     6
 72
    -5
 73
     4
  0
VERTEX
  5
10A8
  8
0
 10
0.0
 20
0.0
 30
0.0
 70
   128
 71
     7
 72
     5
 73
    -6
  0
VERTEX
  5
10A9
  8
0
 10
0.0
 20
0.0
 30
0.0
 70
   128
 71
     8
 72
    -7
 73
     6
  0
SEQEND
  5
12D4
  8
0
  0
POLYLINE
  5
10AA
  8
0
 66
     1
 10
0.0
 20
0.0
 30
0.0
 70
    64
 71
    13
 72
    11
  0
VERTEX
  5
10AB
  8
0
 10
-97.33804863671803
 20
54.26964878414606
 30
-114.7652316125784
 70
   192
  0
VERTEX
  5
10AC
  8
0
 10
-102.0823952010312
 20
54.21565458493137
 30
-113.5682215527673
 70
   192
  0
VERTEX
  5
10AD
  8
0
 10
-105.6885619920626
 20
54.09361541284156
 30
-110.2666039112375
 70
   192
  0
VERTEX
  5
10AE
  8
0
 10
-107.2999956176355
 20
53.93070208530369
 30
-105.6367890400543
 70
   192
  0
VERTEX
  5
10AF
  8
0
 10
-107.5737027118534
 20
76.7168596451596
 30
-102.5083026375061
 70
   192
  0
VERTEX
  5
10B0
  8
0
 10
-108.1171004933605
 20
98.97244264293423
 30
-96.29723757367606
 70
   192
  0
VERTEX
  5
10B1
  8
0
 10
-108.9152518615888
 20
120.0856821448087
 30
-87.17432568930536
 70
   192
  0
VERTEX
  5
10B2
  8
0
 10
-107.3368353645791
 20
122.2782030318764
 30
-91.29368689321934
 70
   192
  0
VERTEX
  5
10B3
  8
0
 10
-103.7239302482083
 20
123.9386498958326
 30
-94.20186777456969
 70
   192
  0
VERTEX
  5
10B4
  8
0
 10
-98.95330488067121
 20
124.6640707519189
 30
-95.19312020999617
 70
   192
  0
VERTEX
  5
10B5
  8
0
 10
-98.15196626621841
 20
102.1997766253636
 30
-104.8912473251451
 70
   192
  0
VERTEX
  5
10B6
  8
0
 10
-97.60786401052461
 20
78.51589423065741
 30
-111.4761949916955
 70
   192
  0
VERTEX
  5
10B7
  8
0
 10
-97.3360968932896
 20
54.26964878414606
 30
-114.7652316125784
 70
   192
  0
VERTEX
  5
10B8
  8
0
 10
0.0
 20
0.0
 30
0.0
 70
   128
 71
     1
 72
    13
 73
    12
  0
VERTEX
  5
10B9
  8
0
 10
0.0
 20
0.0
 30
0.0
 70
   128
 71
     8
 72
     7
 73
     6
  0
VERTEX
  5
10BA
  8
0
 10
0.0
 20
0.0
 30
0.0
 70
   128
 71
     6
 72
    11
 73
     9
  0
VERTEX
  5
10BB
  8
0
 10
0.0
 20
0.0
 30
0.0
 70
   128
 71
     6
 72
     9
 73
     8
  0
VERTEX
  5
10BC
  8
0
 10
0.0
 20
0.0
 30
0.0
 70
   128
 71
    11
 72
    10
 73
     9
  0
VERTEX
  5
10BD
  8
0
 10
0.0
 20
0.0
 30
0.0
 70
   128
 71
     6
 72
     5
 73
    12
  0
VERTEX
  5
10BE
  8
0
 10
0.0
 20
0.0
 30
0.0
 70
   128
 71
     6
 72
    12
 73
    11
  0
VERTEX
  5
10BF
  8
0
 10
0.0
 20
0.0
 30
0.0
 70
   128
 71
     2
 72
     1
 73
    12
  0
VERTEX
  5
10C0
  8
0
 10
0.0
 20
0.0
 30
0.0
 70
   128
 71
    12
 72
     5
 73
     3
  0
VERTEX
  5
10C1
  8
0
 10
0.0
 20
0.0
 30
0.0
 70
   128
 71
    12
 72
     3
 73
     2
  0
VERTEX
  5
10C2
  8
0
 10
0.0
 20
0.0
 30
0.0
 70
   128
 71
     5
 72
     4
 73
     3
  0
SEQEND
  5
12D5
  8
0
  0
POLYLINE
  5
10C3
  8
0
 66
     1
 10
0.0
 20
0.0
 30
0.0
 70
    64
 71
    12
 72
    10
  0
VERTEX
  5
10C4
  8
0
 10
-108.9152518615888
 20
120.0856821448087
 30
-87.17432568930536
 70
   192
  0
VERTEX
  5
10C5
  8
0
 10
-110.5252047919936
 20
152.3196490450674
 30
-68.77247948979301
 70
   192
  0
VERTEX
  5
10C6
  8
0
 10
-112.3760274812717
 20
182.9019393578629
 30
-47.61747934820637
 70
   192
  0
VERTEX
  5
10C7
  8
0
 10
-114.4470250324433
 20
211.4905984750674
 30
-23.9458690194235
 70
   192
  0
VERTEX
  5
10C8
  8
0
 10
-112.9071527931614
 20
214.7233962074344
 30
-27.38913208275619
 70
   192
  0
VERTEX
  5
10C9
  8
0
 10
-109.2888600442842
 20
217.1583960911184
 30
-29.76757303533445
 70
   192
  0
VERTEX
  5
10CA
  8
0
 10
-104.4850780515257
 20
218.1946828107883
 30
-30.49423431523336
 70
   192
  0
VERTEX
  5
10CB
  8
0
 10
-102.4140805003541
 20
188.9411711559744
 30
-54.71634720980191
 70
   192
  0
VERTEX
  5
10CC
  8
0
 10
-100.5632578110761
 20
157.6476647893932
 30
-76.36332409886717
 70
   192
  0
VERTEX
  5
10CD
  8
0
 10
-98.95330488067121
 20
124.664070751919
 30
-95.1931202099962
 70
   192
  0
VERTEX
  5
10CE
  8
0
 10
-103.7239302482083
 20
123.9386498958326
 30
-94.20186777456969
 70
   192
  0
VERTEX
  5
10CF
  8
0
 10
-107.3368353645791
 20
122.2782030318764
 30
-91.29368689321934
 70
   192
  0
VERTEX
  5
10D0
  8
0
 10
0.0
 20
0.0
 30
0.0
 70
   128
 71
     8
 72
     7
 73
     6
  0
VERTEX
  5
10D1
  8
0
 10
0.0
 20
0.0
 30
0.0
 70
   128
 71
     6
 72
    11
 73
     9
  0
VERTEX
  5
10D2
  8
0
 10
0.0
 20
0.0
 30
0.0
 70
   128
 71
     6
 72
     9
 73
     8
  0
VERTEX
  5
10D3
  8
0
 10
0.0
 20
0.0
 30
0.0
 70
   128
 71
    11
 72
    10
 73
     9
  0
VERTEX
  5
10D4
  8
0
 10
0.0
 20
0.0
 30
0.0
 70
   128
 71
     6
 72
     5
 73
    12
  0
VERTEX
  5
10D5
  8
0
 10
0.0
 20
0.0
 30
0.0
 70
   128
 71
     6
 72
    12
 73
    11
  0
VERTEX
  5
10D6
  8
0
 10
0.0
 20
0.0
 30
0.0
 70
   128
 71
     2
 72
     1
 73
    12
  0
VERTEX
  5
10D7
  8
0
 10
0.0
 20
0.0
 30
0.0
 70
   128
 71
    12
 72
     5
 73
     3
  0
VERTEX
  5
10D8
  8
0
 10
0.0
 20
0.0
 30
0.0
 70
   128
 71
    12
 72
     3
 73
     2
  0
VERTEX
  5
10D9
  8
0
 10
0.0
 20
0.0
 30
0.0
 70
   128
 71
     5
 72
     4
 73
     3
  0
SEQEND
  5
12D6
  8
0
  0
POLYLINE
  5
10DA
  8
0
 66
     1
 10
0.0
 20
0.0
 30
0.0
 70
    64
 71
    15
 72
    13
  0
VERTEX
  5
10DB
  8
0
 10
-114.4470250324433
 20
211.4905984750674
 30
-23.9458690194235
 70
   192
  0
VERTEX
  5
10DC
  8
0
 10
-115.1332323278594
 20
221.51379899594
 30
-16.10248374228037
 70
   192
  0
VERTEX
  5
10DD
  8
0
 10
-115.6913361047948
 20
232.6010769858225
 30
-9.723328381539813
 70
   192
  0
VERTEX
  5
10DE
  8
0
 10
-116.1045737922898
 20
244.4194275597167
 30
-5.0
 70
   192
  0
VERTEX
  5
10DF
  8
0
 10
-116.0764604014349
 20
246.9737113853184
 30
-5.0
 70
   192
  0
VERTEX
  5
10E0
  8
0
 10
-116.00074471003
 20
249.5263989723899
 30
-5.0
 70
   192
  0
VERTEX
  5
10E1
  8
0
 10
-115.8903634398148
 20
252.0779241254629
 30
-4.999999999999991
 70
   192
  0
VERTEX
  5
10E2
  8
0
 10
-113.8435564670353
 20
252.948560971835
 30
-8.59855554928243
 70
   192
  0
VERTEX
  5
10E3
  8
0
 10
-110.4494478184589
 20
253.5804881135229
 30
-11.04349397644326
 70
   192
  0
VERTEX
  5
10E4
  8
0
 10
-106.3154821148665
 20
253.8606093645504
 30
-11.89724393374669
 70
   192
  0
VERTEX
  5
10E5
  8
0
 10
-105.9087156209749
 20
241.0040668773968
 30
-16.03001042280626
 70
   192
  0
VERTEX
  5
10E6
  8
0
 10
-105.2897460547742
 20
228.9432746571078
 30
-22.3187699921315
 70
   192
  0
VERTEX
  5
10E7
  8
0
 10
-104.4850780515257
 20
218.1946828107883
 30
-30.49423431523336
 70
   192
  0
VERTEX
  5
10E8
  8
0
 10
-109.2888600442842
 20
217.1583960911184
 30
-29.76757303533445
 70
   192
  0
VERTEX
  5
10E9
  8
0
 10
-112.9071527931614
 20
214.7233962074344
 30
-27.38913208275619
 70
   192
  0
VERTEX
  5
10EA
  8
0
 10
0.0
 20
0.0
 30
0.0
 70
   128
 71
    11
 72
    10
 73
     9
  0
VERTEX
  5
10EB
  8
0
 10
0.0
 20
0.0
 30
0.0
 70
   128
 71
     9
 72
    14
 73
    12
  0
VERTEX
  5
10EC
  8
0
 10
0.0
 20
0.0
 30
0.0
 70
   128
 71
     9
 72
    12
 73
    11
  0
VERTEX
  5
10ED
  8
0
 10
0.0
 20
0.0
 30
0.0
 70
   128
 71
    14
 72
    13
 73
    12
  0
VERTEX
  5
10EE
  8
0
 10
0.0
 20
0.0
 30
0.0
 70
   128
 71
     9
 72
     8
 73
    15
  0
VERTEX
  5
10EF
  8
0
 10
0.0
 20
0.0
 30
0.0
 70
   128
 71
     9
 72
    15
 73
    14
  0
VERTEX
  5
10F0
  8
0
 10
0.0
 20
0.0
 30
0.0
 70
   128
 71
     2
 72
     1
 73
     5
  0
VERTEX
  5
10F1
  8
0
 10
0.0
 20
0.0
 30
0.0
 70
   128
 71
     5
 72
     3
 73
     2
  0
VERTEX
  5
10F2
  8
0
 10
0.0
 20
0.0
 30
0.0
 70
   128
 71
     5
 72
     4
 73
     3
  0
VERTEX
  5
10F3
  8
0
 10
0.0
 20
0.0
 30
0.0
 70
   128
 71
     1
 72
    15
 73
     8
  0
VERTEX
  5
10F4
  8
0
 10
0.0
 20
0.0
 30
0.0
 70
   128
 71
     1
 72
     8
 73
     6
  0
VERTEX
  5
10F5
  8
0
 10
0.0
 20
0.0
 30
0.0
 70
   128
 71
     1
 72
     6
 73
     5
  0
VERTEX
  5
10F6
  8
0
 10
0.0
 20
0.0
 30
0.0
 70
   128
 71
     8
 72
     7
 73
     6
  0
SEQEND
  5
12D7
  8
0
  0
POLYLINE
  5
10F7
  8
0
 66
     1
 10
0.0
 20
0.0
 30
0.0
 70
    64
 71
     9
 72
     7
  0
VERTEX
  5
10F8
  8
0
 10
-106.3154821148665
 20
253.8606093645504
 30
-11.89724393374666
 70
   192
  0
VERTEX
  5
10F9
  8
0
 10
-110.4494478184589
 20
253.5804881135229
 30
-11.04349397644326
 70
   192
  0
VERTEX
  5
10FA
  8
0
 10
-113.8435564670353
 20
252.948560971835
 30
-8.59855554928243
 70
   192
  0
VERTEX
  5
10FB
  8
0
 10
-115.8903634398148
 20
252.0779241254629
 30
-5.0
 70
   192
  0
VERTEX
  5
10FC
  8
0
 10
-113.9599752956608
 20
273.019041590714
 30
-5.0
 70
   192
  0
VERTEX
  5
10FD
  8
0
 10
-110.7687551518164
 20
293.8107339095945
 30
-5.000000000000001
 70
   192
  0
VERTEX
  5
10FE
  8
0
 10
-106.9412620521157
 20
314.4983843100664
 30
-4.999999999997032
 70
   192
  0
VERTEX
  5
10FF
  8
0
 10
-106.8715323932098
 20
294.1409354219998
 30
-5.768548875189317
 70
   192
  0
VERTEX
  5
1100
  8
0
 10
-106.6623434164923
 20
273.8706241892049
 30
-8.07419550076607
 70
   192
  0
VERTEX
  5
1101
  8
0
 10
0.0
 20
0.0
 30
0.0
 70
   128
 71
     8
 72
     7
 73
     6
  0
VERTEX
  5
1102
  8
0
 10
0.0
 20
0.0
 30
0.0
 70
   128
 71
     6
 72
     9
 73
     8
  0
VERTEX
  5
1103
  8
0
 10
0.0
 20
0.0
 30
0.0
 70
   128
 71
     5
 72
     4
 73
     3
  0
VERTEX
  5
1104
  8
0
 10
0.0
 20
0.0
 30
0.0
 70
   128
 71
     2
 72
     1
 73
     9
  0
VERTEX
  5
1105
  8
0
 10
0.0
 20
0.0
 30
0.0
 70
   128
 71
     2
 72
     9
 73
     6
  0
VERTEX
  5
1106
  8
0
 10
0.0
 20
0.0
 30
0.0
 70
   128
 71
     6
 72
     5
 73
     3
  0
VERTEX
  5
1107
  8
0
 10
0.0
 20
0.0
 30
0.0
 70
   128
 71
     6
 72
     3
 73
     2
  0
SEQEND
  5
12D8
  8
0
  0
POLYLINE
  5
1108
  8
0
 66
     1
 10
0.0
 20
0.0
 30
0.0
 70
    64
 71
    17
 72
    15
  0
VERTEX
  5
1109
  8
0
 10
213.0000000000034
 20
317.9999999999976
 30
0.0
 70
   192
  0
VERTEX
  5
110A
  8
0
 10
213.0000000000034
 20
317.9999999999976
 30
-2.5
 70
   192
  0
VERTEX
  5
110B
  8
0
 10
214.7336838536276
 20
317.8485704696486
 30
-2.5
 70
   192
  0
VERTEX
  5
110C
  8
0
 10
216.4148615209063
 20
317.3988680591341
 30
-2.5
 70
   192
  0
VERTEX
  5
110D
  8
0
 10
217.9926170129216
 20
316.6645124134182
 30
-2.5
 70
   192
  0
VERTEX
  5
110E
  8
0
 10
218.7742699234626
 20
316.1648777335243
 30
-2.50025172444834
 70
   192
  0
VERTEX
  5
110F
  8
0
 10
218.0000000000034
 20
316.6602540378419
 30
0.000000000003389
 70
   192
  0
VERTEX
  5
1110
  8
0
 10
219.5029832923306
 20
315.5972777936465
 30
-2.501161537324237
 70
   192
  0
VERTEX
  5
1111
  8
0
 10
221.2252803351783
 20
313.6876565735452
 30
-2.500255065148075
 70
   192
  0
VERTEX
  5
1112
  8
0
 10
221.666666666662
 20
312.9888765157099
 30
-2.5
 70
   192
  0
VERTEX
  5
1113
  8
0
 10
221.6602540378478
 20
312.9999999999974
 30
0.0000000000034146
 70
   192
  0
VERTEX
  5
1114
  8
0
 10
222.8488198156157
 20
309.7322667922672
 30
-2.5
 70
   192
  0
VERTEX
  5
1115
  8
0
 10
223.0000000000032
 20
307.9999999999975
 30
-2.5
 70
   192
  0
VERTEX
  5
1116
  8
0
 10
223.0000000000032
 20
307.9999999999975
 30
0.0
 70
   192
  0
VERTEX
  5
1117
  8
0
 10
220.1787570483912
 20
314.9617129530156
 30
-2.502961397923992
 70
   192
  0
VERTEX
  5
1118
  8
0
 10
220.7293103472174
 20
314.3452687467552
 30
-2.501168218723678
 70
   192
  0
VERTEX
  5
1119
  8
0
 10
222.3998503520832
 20
311.4121567019242
 30
-2.5
 70
   192
  0
VERTEX
  5
111A
  8
0
 10
0.0
 20
0.0
 30
0.0
 70
   128
 71
     1
 72
     2
 73
     3
  0
VERTEX
  5
111B
  8
0
 10
0.0
 20
0.0
 30
0.0
 70
   128
 71
     1
 72
     3
 73
     4
  0
VERTEX
  5
111C
  8
0
 10
0.0
 20
0.0
 30
0.0
 70
   128
 71
     5
 72
     6
 73
     7
  0
VERTEX
  5
111D
  8
0
 10
0.0
 20
0.0
 30
0.0
 70
   128
 71
     7
 72
     6
 73
     8
  0
VERTEX
  5
111E
  8
0
 10
0.0
 20
0.0
 30
0.0
 70
   128
 71
     9
 72
    10
 73
    11
  0
VERTEX
  5
111F
  8
0
 10
0.0
 20
0.0
 30
0.0
 70
   128
 71
    12
 72
    13
 73
    14
  0
VERTEX
  5
1120
  8
0
 10
0.0
 20
0.0
 30
0.0
 70
   128
 71
    15
 72
    11
 73
     7
  0
VERTEX
  5
1121
  8
0
 10
0.0
 20
0.0
 30
0.0
 70
   128
 71
    15
 72
    16
 73
    11
  0
VERTEX
  5
1122
  8
0
 10
0.0
 20
0.0
 30
0.0
 70
   128
 71
    16
 72
     9
 73
    11
  0
VERTEX
  5
1123
  8
0
 10
0.0
 20
0.0
 30
0.0
 70
   128
 71
    12
 72
    14
 73
    11
  0
VERTEX
  5
1124
  8
0
 10
0.0
 20
0.0
 30
0.0
 70
   128
 71
    17
 72
    12
 73
    11
  0
VERTEX
  5
1125
  8
0
 10
0.0
 20
0.0
 30
0.0
 70
   128
 71
     7
 72
     1
 73
     4
  0
VERTEX
  5
1126
  8
0
 10
0.0
 20
0.0
 30
0.0
 70
   128
 71
     5
 72
     7
 73
     4
  0
VERTEX
  5
1127
  8
0
 10
0.0
 20
0.0
 30
0.0
 70
   128
 71
    15
 72
     7
 73
     8
  0
VERTEX
  5
1128
  8
0
 10
0.0
 20
0.0
 30
0.0
 70
   128
 71
    17
 72
    11
 73
    10
  0
SEQEND
  5
12D9
  8
0
  0
POLYLINE
  5
1129
  8
0
 66
     1
 10
0.0
 20
0.0
 30
0.0
 70
    64
 71
    17
 72
    15
  0
VERTEX
  5
112A
  8
0
 10
214.7336838536211
 20
-317.8485704696533
 30
-2.5
 70
   192
  0
VERTEX
  5
112B
  8
0
 10
212.9999999999966
 20
-318.0000000000023
 30
-2.5
 70
   192
  0
VERTEX
  5
112C
  8
0
 10
212.9999999999966
 20
-318.0000000000023
 30
0.0
 70
   192
  0
VERTEX
  5
112D
  8
0
 10
217.9999999999966
 20
-316.6602540378467
 30
0.0000000000011775
 70
   192
  0
VERTEX
  5
112E
  8
0
 10
218.76777339832
 20
-316.1694528924
 30
-2.500248337578
 70
   192
  0
VERTEX
  5
112F
  8
0
 10
217.9926170129154
 20
-316.6645124134226
 30
-2.5
 70
   192
  0
VERTEX
  5
1130
  8
0
 10
221.6666666666642
 20
-312.9888765156995
 30
-2.5
 70
   192
  0
VERTEX
  5
1131
  8
0
 10
221.2207698690485
 20
-313.6941899192781
 30
-2.500256741902962
 70
   192
  0
VERTEX
  5
1132
  8
0
 10
221.6602540378411
 20
-313.0000000000024
 30
0.0000000000012286
 70
   192
  0
VERTEX
  5
1133
  8
0
 10
220.719285640136
 20
-314.3574747604397
 30
-2.501165289873684
 70
   192
  0
VERTEX
  5
1134
  8
0
 10
222.9999999999967
 20
-308.0000000000024
 30
0.0
 70
   192
  0
VERTEX
  5
1135
  8
0
 10
222.9999999999967
 20
-308.0000000000024
 30
-2.5
 70
   192
  0
VERTEX
  5
1136
  8
0
 10
222.8488198156101
 20
-309.7322667922663
 30
-2.5
 70
   192
  0
VERTEX
  5
1137
  8
0
 10
222.3998503520806
 20
-311.4121567019181
 30
-2.5
 70
   192
  0
VERTEX
  5
1138
  8
0
 10
220.1622143514162
 20
-314.9787309436854
 30
-2.502933127304921
 70
   192
  0
VERTEX
  5
1139
  8
0
 10
219.4909725300189
 20
-315.6075256251428
 30
-2.501148481225742
 70
   192
  0
VERTEX
  5
113A
  8
0
 10
216.4148615208999
 20
-317.3988680591387
 30
-2.5
 70
   192
  0
VERTEX
  5
113B
  8
0
 10
0.0
 20
0.0
 30
0.0
 70
   128
 71
     1
 72
     2
 73
     3
  0
VERTEX
  5
113C
  8
0
 10
0.0
 20
0.0
 30
0.0
 70
   128
 71
     4
 72
     5
 73
     6
  0
VERTEX
  5
113D
  8
0
 10
0.0
 20
0.0
 30
0.0
 70
   128
 71
     7
 72
     8
 73
     9
  0
VERTEX
  5
113E
  8
0
 10
0.0
 20
0.0
 30
0.0
 70
   128
 71
     9
 72
     8
 73
    10
  0
VERTEX
  5
113F
  8
0
 10
0.0
 20
0.0
 30
0.0
 70
   128
 71
    11
 72
    12
 73
    13
  0
VERTEX
  5
1140
  8
0
 10
0.0
 20
0.0
 30
0.0
 70
   128
 71
    11
 72
    13
 73
    14
  0
VERTEX
  5
1141
  8
0
 10
0.0
 20
0.0
 30
0.0
 70
   128
 71
     9
 72
    10
 73
    15
  0
VERTEX
  5
1142
  8
0
 10
0.0
 20
0.0
 30
0.0
 70
   128
 71
    16
 72
     5
 73
     4
  0
VERTEX
  5
1143
  8
0
 10
0.0
 20
0.0
 30
0.0
 70
   128
 71
     1
 72
     3
 73
     4
  0
VERTEX
  5
1144
  8
0
 10
0.0
 20
0.0
 30
0.0
 70
   128
 71
    17
 72
     1
 73
     4
  0
VERTEX
  5
1145
  8
0
 10
0.0
 20
0.0
 30
0.0
 70
   128
 71
     4
 72
     6
 73
    17
  0
VERTEX
  5
1146
  8
0
 10
0.0
 20
0.0
 30
0.0
 70
   128
 71
    15
 72
    16
 73
     4
  0
VERTEX
  5
1147
  8
0
 10
0.0
 20
0.0
 30
0.0
 70
   128
 71
     9
 72
    15
 73
     4
  0
VERTEX
  5
1148
  8
0
 10
0.0
 20
0.0
 30
0.0
 70
   128
 71
    14
 72
     7
 73
     9
  0
VERTEX
  5
1149
  8
0
 10
0.0
 20
0.0
 30
0.0
 70
   128
 71
    11
 72
    14
 73
     9
  0
SEQEND
  5
12DA
  8
0
  0
POLYLINE
  5
114A
  8
0
 66
     1
 10
0.0
 20
0.0
 30
0.0
 70
    64
 71
    12
 72
    10
  0
VERTEX
  5
114B
  8
0
 10
221.3763883748619
 20
312.8217808365194
 30
-3.750000000000002
 70
   192
  0
VERTEX
  5
114C
  8
0
 10
220.5833333333296
 20
312.3652669512458
 30
-4.665063509461099
 70
   192
  0
VERTEX
  5
114D
  8
0
 10
222.6650635094643
 20
307.9999999999975
 30
-3.75
 70
   192
  0
VERTEX
  5
114E
  8
0
 10
221.7500000000032
 20
307.9999999999975
 30
-4.665063509461096
 70
   192
  0
VERTEX
  5
114F
  8
0
 10
219.4999999999973
 20
311.7416573867818
 30
-5.000000000000002
 70
   192
  0
VERTEX
  5
1150
  8
0
 10
220.0498877640632
 20
310.5591175264425
 30
-5.0
 70
   192
  0
VERTEX
  5
1151
  8
0
 10
220.3866148617126
 20
309.2992000941998
 30
-5.0
 70
   192
  0
VERTEX
  5
1152
  8
0
 10
220.5000000000032
 20
307.9999999999975
 30
-5.0
 70
   192
  0
VERTEX
  5
1153
  8
0
 10
221.666666666662
 20
312.9888765157099
 30
-2.5
 70
   192
  0
VERTEX
  5
1154
  8
0
 10
222.3998503520832
 20
311.4121567019242
 30
-2.5
 70
   192
  0
VERTEX
  5
1155
  8
0
 10
223.0000000000032
 20
307.9999999999975
 30
-2.5
 70
   192
  0
VERTEX
  5
1156
  8
0
 10
222.8488198156157
 20
309.7322667922672
 30
-2.5
 70
   192
  0
VERTEX
  5
1157
  8
0
 10
0.0
 20
0.0
 30
0.0
 70
   128
 71
     1
 72
    -2
 73
     3
  0
VERTEX
  5
1158
  8
0
 10
0.0
 20
0.0
 30
0.0
 70
   128
 71
    -3
 72
     2
 73
     4
  0
VERTEX
  5
1159
  8
0
 10
0.0
 20
0.0
 30
0.0
 70
   128
 71
     2
 72
     5
 73
     6
  0
VERTEX
  5
115A
  8
0
 10
0.0
 20
0.0
 30
0.0
 70
   128
 71
     6
 72
     7
 73
     2
  0
VERTEX
  5
115B
  8
0
 10
0.0
 20
0.0
 30
0.0
 70
   128
 71
     2
 72
     7
 73
     8
  0
VERTEX
  5
115C
  8
0
 10
0.0
 20
0.0
 30
0.0
 70
   128
 71
     4
 72
     2
 73
     8
  0
VERTEX
  5
115D
  8
0
 10
0.0
 20
0.0
 30
0.0
 70
   128
 71
     9
 72
     1
 73
    10
  0
VERTEX
  5
115E
  8
0
 10
0.0
 20
0.0
 30
0.0
 70
   128
 71
     3
 72
    11
 73
    12
  0
VERTEX
  5
115F
  8
0
 10
0.0
 20
0.0
 30
0.0
 70
   128
 71
    10
 72
     1
 73
    -3
  0
VERTEX
  5
1160
  8
0
 10
0.0
 20
0.0
 30
0.0
 70
   128
 71
    12
 72
   -10
 73
     3
  0
SEQEND
  5
12DB
  8
0
  0
POLYLINE
  5
1161
  8
0
 66
     1
 10
0.0
 20
0.0
 30
0.0
 70
    64
 71
    12
 72
    10
  0
VERTEX
  5
1162
  8
0
 10
219.4999999999973
 20
311.7416573867818
 30
-5.0
 70
   192
  0
VERTEX
  5
1163
  8
0
 10
219.1698292940593
 20
312.2701355768941
 30
-5.000255368627177
 70
   192
  0
VERTEX
  5
1164
  8
0
 10
218.7980679806537
 20
312.7674930276685
 30
-5.001169138833441
 70
   192
  0
VERTEX
  5
1165
  8
0
 10
218.3845015518214
 20
313.2335247084768
 30
-5.002962807105979
 70
   192
  0
VERTEX
  5
1166
  8
0
 10
219.2796791450642
 20
314.0999514695929
 30
-4.665218549362093
 70
   192
  0
VERTEX
  5
1167
  8
0
 10
219.9362943346754
 20
314.732427733515
 30
-3.750564426570531
 70
   192
  0
VERTEX
  5
1168
  8
0
 10
220.1787570483912
 20
314.9617129530156
 30
-2.502961397923992
 70
   192
  0
VERTEX
  5
1169
  8
0
 10
220.7293103472174
 20
314.3452687467552
 30
-2.501168218723678
 70
   192
  0
VERTEX
  5
116A
  8
0
 10
221.2252803351783
 20
313.6876565735452
 30
-2.500255065148075
 70
   192
  0
VERTEX
  5
116B
  8
0
 10
221.666666666662
 20
312.9888765157099
 30
-2.5
 70
   192
  0
VERTEX
  5
116C
  8
0
 10
221.3763883748619
 20
312.8217808365194
 30
-3.750000000000002
 70
   192
  0
VERTEX
  5
116D
  8
0
 10
220.5833333333296
 20
312.3652669512458
 30
-4.665063509461099
 70
   192
  0
VERTEX
  5
116E
  8
0
 10
0.0
 20
0.0
 30
0.0
 70
   128
 71
     8
 72
     7
 73
     6
  0
VERTEX
  5
116F
  8
0
 10
0.0
 20
0.0
 30
0.0
 70
   128
 71
     8
 72
     6
 73
    11
  0
VERTEX
  5
1170
  8
0
 10
0.0
 20
0.0
 30
0.0
 70
   128
 71
    11
 72
     9
 73
     8
  0
VERTEX
  5
1171
  8
0
 10
0.0
 20
0.0
 30
0.0
 70
   128
 71
    11
 72
    10
 73
     9
  0
VERTEX
  5
1172
  8
0
 10
0.0
 20
0.0
 30
0.0
 70
   128
 71
     6
 72
     5
 73
    12
  0
VERTEX
  5
1173
  8
0
 10
0.0
 20
0.0
 30
0.0
 70
   128
 71
     6
 72
    12
 73
    11
  0
VERTEX
  5
1174
  8
0
 10
0.0
 20
0.0
 30
0.0
 70
   128
 71
     2
 72
     1
 73
    12
  0
VERTEX
  5
1175
  8
0
 10
0.0
 20
0.0
 30
0.0
 70
   128
 71
     2
 72
    12
 73
     5
  0
VERTEX
  5
1176
  8
0
 10
0.0
 20
0.0
 30
0.0
 70
   128
 71
     5
 72
     3
 73
     2
  0
VERTEX
  5
1177
  8
0
 10
0.0
 20
0.0
 30
0.0
 70
   128
 71
     5
 72
     4
 73
     3
  0
SEQEND
  5
12DC
  8
0
  0
POLYLINE
  5
1178
  8
0
 66
     1
 10
0.0
 20
0.0
 30
0.0
 70
    64
 71
     8
 72
     6
  0
VERTEX
  5
1179
  8
0
 10
221.7499999999967
 20
-308.0000000000024
 30
-4.665063509461096
 70
   192
  0
VERTEX
  5
117A
  8
0
 10
222.6650635094578
 20
-308.0000000000024
 30
-3.75
 70
   192
  0
VERTEX
  5
117B
  8
0
 10
222.6650635094643
 20
307.9999999999975
 30
-3.75
 70
   192
  0
VERTEX
  5
117C
  8
0
 10
221.7500000000032
 20
307.9999999999975
 30
-4.665063509461096
 70
   192
  0
VERTEX
  5
117D
  8
0
 10
222.9999999999967
 20
-308.0000000000024
 30
-2.5
 70
   192
  0
VERTEX
  5
117E
  8
0
 10
223.0000000000032
 20
307.9999999999975
 30
-2.5
 70
   192
  0
VERTEX
  5
117F
  8
0
 10
220.4999999999967
 20
-308.0000000000024
 30
-5.0
 70
   192
  0
VERTEX
  5
1180
  8
0
 10
220.5000000000032
 20
307.9999999999975
 30
-5.0
 70
   192
  0
VERTEX
  5
1181
  8
0
 10
0.0
 20
0.0
 30
0.0
 70
   128
 71
     1
 72
     2
 73
    -3
  0
VERTEX
  5
1182
  8
0
 10
0.0
 20
0.0
 30
0.0
 70
   128
 71
     4
 72
    -1
 73
     3
  0
VERTEX
  5
1183
  8
0
 10
0.0
 20
0.0
 30
0.0
 70
   128
 71
     2
 72
     5
 73
    -6
  0
VERTEX
  5
1184
  8
0
 10
0.0
 20
0.0
 30
0.0
 70
   128
 71
     3
 72
    -2
 73
     6
  0
VERTEX
  5
1185
  8
0
 10
0.0
 20
0.0
 30
0.0
 70
   128
 71
     7
 72
     1
 73
    -4
  0
VERTEX
  5
1186
  8
0
 10
0.0
 20
0.0
 30
0.0
 70
   128
 71
     8
 72
    -7
 73
     4
  0
SEQEND
  5
12DD
  8
0
  0
POLYLINE
  5
1187
  8
0
 66
     1
 10
0.0
 20
0.0
 30
0.0
 70
    64
 71
    12
 72
    10
  0
VERTEX
  5
1188
  8
0
 10
218.3845015518214
 20
313.2335247084768
 30
-5.002962807105979
 70
   192
  0
VERTEX
  5
1189
  8
0
 10
217.8769282733592
 20
313.7058284483312
 30
-5.001158055470263
 70
   192
  0
VERTEX
  5
118A
  8
0
 10
217.3302481378748
 20
314.1274449558651
 30
-5.000249826943826
 70
   192
  0
VERTEX
  5
118B
  8
0
 10
216.744462759692
 20
314.498384310063
 30
-4.999999999999998
 70
   192
  0
VERTEX
  5
118C
  8
0
 10
217.3685398863068
 20
315.5814483617406
 30
-4.665063509461092
 70
   192
  0
VERTEX
  5
118D
  8
0
 10
217.8253960508304
 20
316.3743062754199
 30
-3.749999999999999
 70
   192
  0
VERTEX
  5
118E
  8
0
 10
217.9926170129216
 20
316.6645124134182
 30
-2.5
 70
   192
  0
VERTEX
  5
118F
  8
0
 10
218.7742699234626
 20
316.1648777335243
 30
-2.50025172444834
 70
   192
  0
VERTEX
  5
1190
  8
0
 10
219.5029832923306
 20
315.5972777936465
 30
-2.501161537324237
 70
   192
  0
VERTEX
  5
1191
  8
0
 10
220.1787570483912
 20
314.9617129530156
 30
-2.502961397923992
 70
   192
  0
VERTEX
  5
1192
  8
0
 10
219.9362943346754
 20
314.732427733515
 30
-3.750564426570531
 70
   192
  0
VERTEX
  5
1193
  8
0
 10
219.2796791450642
 20
314.0999514695929
 30
-4.665218549362093
 70
   192
  0
VERTEX
  5
1194
  8
0
 10
0.0
 20
0.0
 30
0.0
 70
   128
 71
     8
 72
     7
 73
     6
  0
VERTEX
  5
1195
  8
0
 10
0.0
 20
0.0
 30
0.0
 70
   128
 71
     8
 72
     6
 73
    11
  0
VERTEX
  5
1196
  8
0
 10
0.0
 20
0.0
 30
0.0
 70
   128
 71
    11
 72
     9
 73
     8
  0
VERTEX
  5
1197
  8
0
 10
0.0
 20
0.0
 30
0.0
 70
   128
 71
    11
 72
    10
 73
     9
  0
VERTEX
  5
1198
  8
0
 10
0.0
 20
0.0
 30
0.0
 70
   128
 71
     6
 72
     5
 73
    12
  0
VERTEX
  5
1199
  8
0
 10
0.0
 20
0.0
 30
0.0
 70
   128
 71
     6
 72
    12
 73
    11
  0
VERTEX
  5
119A
  8
0
 10
0.0
 20
0.0
 30
0.0
 70
   128
 71
     3
 72
     2
 73
     1
  0
VERTEX
  5
119B
  8
0
 10
0.0
 20
0.0
 30
0.0
 70
   128
 71
     3
 72
     1
 73
    12
  0
VERTEX
  5
119C
  8
0
 10
0.0
 20
0.0
 30
0.0
 70
   128
 71
     3
 72
    12
 73
     5
  0
VERTEX
  5
119D
  8
0
 10
0.0
 20
0.0
 30
0.0
 70
   128
 71
     5
 72
     4
 73
     3
  0
SEQEND
  5
12DE
  8
0
  0
POLYLINE
  5
119E
  8
0
 66
     1
 10
0.0
 20
0.0
 30
0.0
 70
    64
 71
    12
 72
    10
  0
VERTEX
  5
119F
  8
0
 10
222.6650635094578
 20
-308.0000000000024
 30
-3.75
 70
   192
  0
VERTEX
  5
11A0
  8
0
 10
221.7499999999967
 20
-308.0000000000024
 30
-4.665063509461096
 70
   192
  0
VERTEX
  5
11A1
  8
0
 10
221.3763883748638
 20
-312.8217808365095
 30
-3.749999999999997
 70
   192
  0
VERTEX
  5
11A2
  8
0
 10
220.5833333333307
 20
-312.3652669512373
 30
-4.665063509461093
 70
   192
  0
VERTEX
  5
11A3
  8
0
 10
220.4999999999967
 20
-308.0000000000024
 30
-5.0
 70
   192
  0
VERTEX
  5
11A4
  8
0
 10
220.3866148617068
 20
-309.2992000942003
 30
-5.0
 70
   192
  0
VERTEX
  5
11A5
  8
0
 10
220.0498877640596
 20
-310.5591175264391
 30
-5.0
 70
   192
  0
VERTEX
  5
11A6
  8
0
 10
219.4999999999973
 20
-311.7416573867752
 30
-5.0
 70
   192
  0
VERTEX
  5
11A7
  8
0
 10
222.9999999999967
 20
-308.0000000000024
 30
-2.5
 70
   192
  0
VERTEX
  5
11A8
  8
0
 10
222.8488198156101
 20
-309.7322667922663
 30
-2.5
 70
   192
  0
VERTEX
  5
11A9
  8
0
 10
221.6666666666642
 20
-312.9888765156994
 30
-2.5
 70
   192
  0
VERTEX
  5
11AA
  8
0
 10
222.3998503520806
 20
-311.4121567019181
 30
-2.5
 70
   192
  0
VERTEX
  5
11AB
  8
0
 10
0.0
 20
0.0
 30
0.0
 70
   128
 71
     1
 72
    -2
 73
     3
  0
VERTEX
  5
11AC
  8
0
 10
0.0
 20
0.0
 30
0.0
 70
   128
 71
     2
 72
     4
 73
    -3
  0
VERTEX
  5
11AD
  8
0
 10
0.0
 20
0.0
 30
0.0
 70
   128
 71
     2
 72
     5
 73
     6
  0
VERTEX
  5
11AE
  8
0
 10
0.0
 20
0.0
 30
0.0
 70
   128
 71
     6
 72
     7
 73
     2
  0
VERTEX
  5
11AF
  8
0
 10
0.0
 20
0.0
 30
0.0
 70
   128
 71
     2
 72
     7
 73
     8
  0
VERTEX
  5
11B0
  8
0
 10
0.0
 20
0.0
 30
0.0
 70
   128
 71
     4
 72
     2
 73
     8
  0
VERTEX
  5
11B1
  8
0
 10
0.0
 20
0.0
 30
0.0
 70
   128
 71
     9
 72
     1
 73
    10
  0
VERTEX
  5
11B2
  8
0
 10
0.0
 20
0.0
 30
0.0
 70
   128
 71
     3
 72
    11
 73
    12
  0
VERTEX
  5
11B3
  8
0
 10
0.0
 20
0.0
 30
0.0
 70
   128
 71
    10
 72
     1
 73
    -3
  0
VERTEX
  5
11B4
  8
0
 10
0.0
 20
0.0
 30
0.0
 70
   128
 71
    12
 72
   -10
 73
     3
  0
SEQEND
  5
12DF
  8
0
  0
POLYLINE
  5
11B5
  8
0
 66
     1
 10
0.0
 20
0.0
 30
0.0
 70
    64
 71
    12
 72
    10
  0
VERTEX
  5
11B6
  8
0
 10
213.0000000000033
 20
316.7499999999977
 30
-4.66506350946108
 70
   192
  0
VERTEX
  5
11B7
  8
0
 10
217.3685398863068
 20
315.5814483617406
 30
-4.665063509461092
 70
   192
  0
VERTEX
  5
11B8
  8
0
 10
217.8253960508304
 20
316.3743062754199
 30
-3.749999999999999
 70
   192
  0
VERTEX
  5
11B9
  8
0
 10
213.0000000000034
 20
317.6650635094587
 30
-3.749999999999985
 70
   192
  0
VERTEX
  5
11BA
  8
0
 10
213.0000000000033
 20
315.4999999999977
 30
-5.000000000000002
 70
   192
  0
VERTEX
  5
11BB
  8
0
 10
214.3002628902215
 20
315.3864278522359
 30
-5.0
 70
   192
  0
VERTEX
  5
11BC
  8
0
 10
215.5611461406805
 20
315.04915104435
 30
-5.0
 70
   192
  0
VERTEX
  5
11BD
  8
0
 10
216.744462759692
 20
314.498384310063
 30
-4.999999999999998
 70
   192
  0
VERTEX
  5
11BE
  8
0
 10
213.0000000000034
 20
317.9999999999976
 30
-2.5
 70
   192
  0
VERTEX
  5
11BF
  8
0
 10
214.7336838536276
 20
317.8485704696486
 30
-2.5
 70
   192
  0
VERTEX
  5
11C0
  8
0
 10
217.9926170129216
 20
316.6645124134182
 30
-2.500000000000001
 70
   192
  0
VERTEX
  5
11C1
  8
0
 10
216.4148615209063
 20
317.3988680591341
 30
-2.5
 70
   192
  0
VERTEX
  5
11C2
  8
0
 10
0.0
 20
0.0
 30
0.0
 70
   128
 71
     1
 72
     2
 73
    -3
  0
VERTEX
  5
11C3
  8
0
 10
0.0
 20
0.0
 30
0.0
 70
   128
 71
     4
 72
    -1
 73
     3
  0
VERTEX
  5
11C4
  8
0
 10
0.0
 20
0.0
 30
0.0
 70
   128
 71
     1
 72
     5
 73
     6
  0
VERTEX
  5
11C5
  8
0
 10
0.0
 20
0.0
 30
0.0
 70
   128
 71
     6
 72
     7
 73
     1
  0
VERTEX
  5
11C6
  8
0
 10
0.0
 20
0.0
 30
0.0
 70
   128
 71
     1
 72
     7
 73
     8
  0
VERTEX
  5
11C7
  8
0
 10
0.0
 20
0.0
 30
0.0
 70
   128
 71
     2
 72
     1
 73
     8
  0
VERTEX
  5
11C8
  8
0
 10
0.0
 20
0.0
 30
0.0
 70
   128
 71
     9
 72
     4
 73
    10
  0
VERTEX
  5
11C9
  8
0
 10
0.0
 20
0.0
 30
0.0
 70
   128
 71
     3
 72
    11
 73
    12
  0
VERTEX
  5
11CA
  8
0
 10
0.0
 20
0.0
 30
0.0
 70
   128
 71
    10
 72
     4
 73
    -3
  0
VERTEX
  5
11CB
  8
0
 10
0.0
 20
0.0
 30
0.0
 70
   128
 71
    12
 72
   -10
 73
     3
  0
SEQEND
  5
12E0
  8
0
  0
POLYLINE
  5
11CC
  8
0
 66
     1
 10
0.0
 20
0.0
 30
0.0
 70
    64
 71
    12
 72
    10
  0
VERTEX
  5
11CD
  8
0
 10
221.6666666666642
 20
-312.9888765156995
 30
-2.5
 70
   192
  0
VERTEX
  5
11CE
  8
0
 10
221.2207698690485
 20
-313.6941899192781
 30
-2.500256741902962
 70
   192
  0
VERTEX
  5
11CF
  8
0
 10
220.719285640136
 20
-314.3574747604397
 30
-2.501165289873684
 70
   192
  0
VERTEX
  5
11D0
  8
0
 10
220.1622143514162
 20
-314.9787309436854
 30
-2.502933127304921
 70
   192
  0
VERTEX
  5
11D1
  8
0
 10
219.9073147218388
 20
-314.7327802847857
 30
-3.785491941870902
 70
   192
  0
VERTEX
  5
11D2
  8
0
 10
219.2463410244912
 20
-314.0836729195781
 30
-4.685263342665588
 70
   192
  0
VERTEX
  5
11D3
  8
0
 10
218.3845014991421
 20
-313.2335247627161
 30
-5.002962807118442
 70
   192
  0
VERTEX
  5
11D4
  8
0
 10
218.7980679489394
 20
-312.7674930665157
 30
-5.001169138859888
 70
   192
  0
VERTEX
  5
11D5
  8
0
 10
219.1698292798606
 20
-312.2701355976619
 30
-5.000255368639014
 70
   192
  0
VERTEX
  5
11D6
  8
0
 10
219.4999999999973
 20
-311.7416573867752
 30
-4.999999999999996
 70
   192
  0
VERTEX
  5
11D7
  8
0
 10
220.5833333333307
 20
-312.3652669512373
 30
-4.665063509461093
 70
   192
  0
VERTEX
  5
11D8
  8
0
 10
221.3763883748638
 20
-312.8217808365095
 30
-3.749999999999997
 70
   192
  0
VERTEX
  5
11D9
  8
0
 10
0.0
 20
0.0
 30
0.0
 70
   128
 71
     8
 72
     7
 73
     6
  0
VERTEX
  5
11DA
  8
0
 10
0.0
 20
0.0
 30
0.0
 70
   128
 71
     6
 72
     9
 73
     8
  0
VERTEX
  5
11DB
  8
0
 10
0.0
 20
0.0
 30
0.0
 70
   128
 71
     6
 72
    11
 73
    10
  0
VERTEX
  5
11DC
  8
0
 10
0.0
 20
0.0
 30
0.0
 70
   128
 71
     6
 72
    10
 73
     9
  0
VERTEX
  5
11DD
  8
0
 10
0.0
 20
0.0
 30
0.0
 70
   128
 71
     6
 72
     5
 73
    12
  0
VERTEX
  5
11DE
  8
0
 10
0.0
 20
0.0
 30
0.0
 70
   128
 71
     6
 72
    12
 73
    11
  0
VERTEX
  5
11DF
  8
0
 10
0.0
 20
0.0
 30
0.0
 70
   128
 71
     2
 72
     1
 73
    12
  0
VERTEX
  5
11E0
  8
0
 10
0.0
 20
0.0
 30
0.0
 70
   128
 71
     2
 72
    12
 73
     5
  0
VERTEX
  5
11E1
  8
0
 10
0.0
 20
0.0
 30
0.0
 70
   128
 71
     5
 72
     3
 73
     2
  0
VERTEX
  5
11E2
  8
0
 10
0.0
 20
0.0
 30
0.0
 70
   128
 71
     5
 72
     4
 73
     3
  0
SEQEND
  5
12E1
  8
0
  0
POLYLINE
  5
11E3
  8
0
 66
     1
 10
0.0
 20
0.0
 30
0.0
 70
    64
 71
     8
 72
     6
  0
VERTEX
  5
11E4
  8
0
 10
213.0000000000033
 20
316.7499999999977
 30
-4.66506350946108
 70
   192
  0
VERTEX
  5
11E5
  8
0
 10
213.0000000000034
 20
317.6650635094587
 30
-3.749999999999985
 70
   192
  0
VERTEX
  5
11E6
  8
0
 10
-212.9999999999966
 20
317.6650635094633
 30
-3.750000000000019
 70
   192
  0
VERTEX
  5
11E7
  8
0
 10
-212.9999999999967
 20
316.7500000000021
 30
-4.665063509461119
 70
   192
  0
VERTEX
  5
11E8
  8
0
 10
213.0000000000034
 20
317.9999999999976
 30
-2.5
 70
   192
  0
VERTEX
  5
11E9
  8
0
 10
-212.9999999999967
 20
318.0000000000021
 30
-2.5
 70
   192
  0
VERTEX
  5
11EA
  8
0
 10
213.0000000000033
 20
315.4999999999977
 30
-5.000000000000002
 70
   192
  0
VERTEX
  5
11EB
  8
0
 10
-212.9999999999967
 20
315.5000000000021
 30
-5.000000000000002
 70
   192
  0
VERTEX
  5
11EC
  8
0
 10
0.0
 20
0.0
 30
0.0
 70
   128
 71
     1
 72
     2
 73
    -3
  0
VERTEX
  5
11ED
  8
0
 10
0.0
 20
0.0
 30
0.0
 70
   128
 71
     4
 72
    -1
 73
     3
  0
VERTEX
  5
11EE
  8
0
 10
0.0
 20
0.0
 30
0.0
 70
   128
 71
     2
 72
     5
 73
    -6
  0
VERTEX
  5
11EF
  8
0
 10
0.0
 20
0.0
 30
0.0
 70
   128
 71
     3
 72
    -2
 73
     6
  0
VERTEX
  5
11F0
  8
0
 10
0.0
 20
0.0
 30
0.0
 70
   128
 71
     7
 72
     1
 73
    -4
  0
VERTEX
  5
11F1
  8
0
 10
0.0
 20
0.0
 30
0.0
 70
   128
 71
     8
 72
    -7
 73
     4
  0
SEQEND
  5
12E2
  8
0
  0
POLYLINE
  5
11F2
  8
0
 66
     1
 10
0.0
 20
0.0
 30
0.0
 70
    64
 71
    12
 72
    10
  0
VERTEX
  5
11F3
  8
0
 10
220.1622143514162
 20
-314.9787309436854
 30
-2.502933127304921
 70
   192
  0
VERTEX
  5
11F4
  8
0
 10
219.4909725300189
 20
-315.6075256251428
 30
-2.501148481225742
 70
   192
  0
VERTEX
  5
11F5
  8
0
 10
218.76777339832
 20
-316.1694528924
 30
-2.500248337578
 70
   192
  0
VERTEX
  5
11F6
  8
0
 10
217.9926170129154
 20
-316.6645124134226
 30
-2.5
 70
   192
  0
VERTEX
  5
11F7
  8
0
 10
217.8253960508237
 20
-316.3743062754236
 30
-3.749999999998736
 70
   192
  0
VERTEX
  5
11F8
  8
0
 10
217.3685398863001
 20
-315.5814483617443
 30
-4.665063509458603
 70
   192
  0
VERTEX
  5
11F9
  8
0
 10
216.7444627596857
 20
-314.4983843100675
 30
-4.999999999999974
 70
   192
  0
VERTEX
  5
11FA
  8
0
 10
217.3302481170137
 20
-314.1274449704403
 30
-5.000249826935881
 70
   192
  0
VERTEX
  5
11FB
  8
0
 10
217.8769282348984
 20
-313.705828480988
 30
-5.001158055455633
 70
   192
  0
VERTEX
  5
11FC
  8
0
 10
218.3845014991421
 20
-313.2335247627161
 30
-5.002962807118442
 70
   192
  0
VERTEX
  5
11FD
  8
0
 10
219.2463410244912
 20
-314.0836729195781
 30
-4.685263342665588
 70
   192
  0
VERTEX
  5
11FE
  8
0
 10
219.9073147218388
 20
-314.7327802847857
 30
-3.785491941870902
 70
   192
  0
VERTEX
  5
11FF
  8
0
 10
0.0
 20
0.0
 30
0.0
 70
   128
 71
     8
 72
     7
 73
     6
  0
VERTEX
  5
1200
  8
0
 10
0.0
 20
0.0
 30
0.0
 70
   128
 71
     6
 72
    11
 73
    10
  0
VERTEX
  5
1201
  8
0
 10
0.0
 20
0.0
 30
0.0
 70
   128
 71
     6
 72
    10
 73
     9
  0
VERTEX
  5
1202
  8
0
 10
0.0
 20
0.0
 30
0.0
 70
   128
 71
     6
 72
     9
 73
     8
  0
VERTEX
  5
1203
  8
0
 10
0.0
 20
0.0
 30
0.0
 70
   128
 71
     6
 72
     5
 73
    12
  0
VERTEX
  5
1204
  8
0
 10
0.0
 20
0.0
 30
0.0
 70
   128
 71
     6
 72
    12
 73
    11
  0
VERTEX
  5
1205
  8
0
 10
0.0
 20
0.0
 30
0.0
 70
   128
 71
     2
 72
     1
 73
    12
  0
VERTEX
  5
1206
  8
0
 10
0.0
 20
0.0
 30
0.0
 70
   128
 71
     2
 72
    12
 73
     5
  0
VERTEX
  5
1207
  8
0
 10
0.0
 20
0.0
 30
0.0
 70
   128
 71
     5
 72
     3
 73
     2
  0
VERTEX
  5
1208
  8
0
 10
0.0
 20
0.0
 30
0.0
 70
   128
 71
     5
 72
     4
 73
     3
  0
SEQEND
  5
12E3
  8
0
  0
POLYLINE
  5
1209
  8
0
 66
     1
 10
0.0
 20
0.0
 30
0.0
 70
    64
 71
    12
 72
    10
  0
VERTEX
  5
120A
  8
0
 10
-222.6650635094578
 20
308.0000000000023
 30
-3.750000000000009
 70
   192
  0
VERTEX
  5
120B
  8
0
 10
-221.7499999999967
 20
308.0000000000023
 30
-4.665063509461106
 70
   192
  0
VERTEX
  5
120C
  8
0
 10
-212.9999999999966
 20
317.6650635094633
 30
-3.750000000000019
 70
   192
  0
VERTEX
  5
120D
  8
0
 10
-212.9999999999967
 20
316.7500000000021
 30
-4.665063509461119
 70
   192
  0
VERTEX
  5
120E
  8
0
 10
-220.4999999999967
 20
308.0000000000023
 30
-5.0
 70
   192
  0
VERTEX
  5
120F
  8
0
 10
-219.49519052838
 20
311.7500000000022
 30
-5.0
 70
   192
  0
VERTEX
  5
1210
  8
0
 10
-216.7499999999967
 20
314.4951905283855
 30
-5.0
 70
   192
  0
VERTEX
  5
1211
  8
0
 10
-212.9999999999967
 20
315.5000000000021
 30
-5.000000000000002
 70
   192
  0
VERTEX
  5
1212
  8
0
 10
-222.9999999999967
 20
308.0000000000023
 30
-2.5
 70
   192
  0
VERTEX
  5
1213
  8
0
 10
-221.660254037841
 20
313.0000000000022
 30
-2.5
 70
   192
  0
VERTEX
  5
1214
  8
0
 10
-212.9999999999966
 20
318.0000000000022
 30
-2.5
 70
   192
  0
VERTEX
  5
1215
  8
0
 10
-217.9999999999966
 20
316.6602540378466
 30
-2.5
 70
   192
  0
VERTEX
  5
1216
  8
0
 10
0.0
 20
0.0
 30
0.0
 70
   128
 71
     1
 72
    -2
 73
     3
  0
VERTEX
  5
1217
  8
0
 10
0.0
 20
0.0
 30
0.0
 70
   128
 71
     2
 72
     4
 73
    -3
  0
VERTEX
  5
1218
  8
0
 10
0.0
 20
0.0
 30
0.0
 70
   128
 71
     2
 72
     5
 73
     6
  0
VERTEX
  5
1219
  8
0
 10
0.0
 20
0.0
 30
0.0
 70
   128
 71
     6
 72
     7
 73
     2
  0
VERTEX
  5
121A
  8
0
 10
0.0
 20
0.0
 30
0.0
 70
   128
 71
     2
 72
     7
 73
     8
  0
VERTEX
  5
121B
  8
0
 10
0.0
 20
0.0
 30
0.0
 70
   128
 71
     4
 72
     2
 73
     8
  0
VERTEX
  5
121C
  8
0
 10
0.0
 20
0.0
 30
0.0
 70
   128
 71
     9
 72
     1
 73
    10
  0
VERTEX
  5
121D
  8
0
 10
0.0
 20
0.0
 30
0.0
 70
   128
 71
     3
 72
    11
 73
    12
  0
VERTEX
  5
121E
  8
0
 10
0.0
 20
0.0
 30
0.0
 70
   128
 71
    10
 72
     1
 73
    -3
  0
VERTEX
  5
121F
  8
0
 10
0.0
 20
0.0
 30
0.0
 70
   128
 71
    12
 72
   -10
 73
     3
  0
SEQEND
  5
12E4
  8
0
  0
POLYLINE
  5
1220
  8
0
 66
     1
 10
0.0
 20
0.0
 30
0.0
 70
    64
 71
    12
 72
    10
  0
VERTEX
  5
1221
  8
0
 10
217.8253960508237
 20
-316.3743062754236
 30
-3.749999999998736
 70
   192
  0
VERTEX
  5
1222
  8
0
 10
217.3685398863001
 20
-315.5814483617443
 30
-4.665063509458603
 70
   192
  0
VERTEX
  5
1223
  8
0
 10
212.9999999999966
 20
-317.6650635094634
 30
-3.75
 70
   192
  0
VERTEX
  5
1224
  8
0
 10
212.9999999999966
 20
-316.7500000000023
 30
-4.665063509461098
 70
   192
  0
VERTEX
  5
1225
  8
0
 10
216.7444627596857
 20
-314.4983843100675
 30
-4.999999999997009
 70
   192
  0
VERTEX
  5
1226
  8
0
 10
215.5611461406741
 20
-315.0491510443546
 30
-5.0
 70
   192
  0
VERTEX
  5
1227
  8
0
 10
214.300262890215
 20
-315.3864278522406
 30
-5.0
 70
   192
  0
VERTEX
  5
1228
  8
0
 10
212.9999999999966
 20
-315.5000000000023
 30
-5.0
 70
   192
  0
VERTEX
  5
1229
  8
0
 10
212.9999999999966
 20
-318.0000000000023
 30
-2.5
 70
   192
  0
VERTEX
  5
122A
  8
0
 10
214.7336838536211
 20
-317.8485704696533
 30
-2.5
 70
   192
  0
VERTEX
  5
122B
  8
0
 10
216.4148615208999
 20
-317.3988680591387
 30
-2.5
 70
   192
  0
VERTEX
  5
122C
  8
0
 10
217.9926170129154
 20
-316.6645124134226
 30
-2.5
 70
   192
  0
VERTEX
  5
122D
  8
0
 10
0.0
 20
0.0
 30
0.0
 70
   128
 71
     1
 72
    -2
 73
     3
  0
VERTEX
  5
122E
  8
0
 10
0.0
 20
0.0
 30
0.0
 70
   128
 71
     2
 72
     4
 73
    -3
  0
VERTEX
  5
122F
  8
0
 10
0.0
 20
0.0
 30
0.0
 70
   128
 71
     2
 72
     5
 73
     6
  0
VERTEX
  5
1230
  8
0
 10
0.0
 20
0.0
 30
0.0
 70
   128
 71
     6
 72
     7
 73
     2
  0
VERTEX
  5
1231
  8
0
 10
0.0
 20
0.0
 30
0.0
 70
   128
 71
     2
 72
     7
 73
     8
  0
VERTEX
  5
1232
  8
0
 10
0.0
 20
0.0
 30
0.0
 70
   128
 71
     4
 72
     2
 73
     8
  0
VERTEX
  5
1233
  8
0
 10
0.0
 20
0.0
 30
0.0
 70
   128
 71
     3
 72
     9
 73
    10
  0
VERTEX
  5
1234
  8
0
 10
0.0
 20
0.0
 30
0.0
 70
   128
 71
    11
 72
     1
 73
    -3
  0
VERTEX
  5
1235
  8
0
 10
0.0
 20
0.0
 30
0.0
 70
   128
 71
    10
 72
   -11
 73
     3
  0
VERTEX
  5
1236
  8
0
 10
0.0
 20
0.0
 30
0.0
 70
   128
 71
    11
 72
    12
 73
     1
  0
SEQEND
  5
12E5
  8
0
  0
POLYLINE
  5
1237
  8
0
 66
     1
 10
0.0
 20
0.0
 30
0.0
 70
    64
 71
     8
 72
     6
  0
VERTEX
  5
1238
  8
0
 10
-221.7499999999967
 20
308.0000000000023
 30
-4.665063509461106
 70
   192
  0
VERTEX
  5
1239
  8
0
 10
-222.6650635094578
 20
308.0000000000023
 30
-3.750000000000009
 70
   192
  0
VERTEX
  5
123A
  8
0
 10
-222.6650635094643
 20
-307.9999999999977
 30
-3.749999999999984
 70
   192
  0
VERTEX
  5
123B
  8
0
 10
-221.7500000000032
 20
-307.9999999999977
 30
-4.665063509461078
 70
   192
  0
VERTEX
  5
123C
  8
0
 10
-222.9999999999967
 20
308.0000000000023
 30
-2.500000000000001
 70
   192
  0
VERTEX
  5
123D
  8
0
 10
-223.0000000000032
 20
-307.9999999999977
 30
-2.5
 70
   192
  0
VERTEX
  5
123E
  8
0
 10
-220.4999999999967
 20
308.0000000000023
 30
-5.0
 70
   192
  0
VERTEX
  5
123F
  8
0
 10
-220.5000000000032
 20
-307.9999999999977
 30
-5.0
 70
   192
  0
VERTEX
  5
1240
  8
0
 10
0.0
 20
0.0
 30
0.0
 70
   128
 71
     1
 72
     2
 73
    -3
  0
VERTEX
  5
1241
  8
0
 10
0.0
 20
0.0
 30
0.0
 70
   128
 71
     4
 72
    -1
 73
     3
  0
VERTEX
  5
1242
  8
0
 10
0.0
 20
0.0
 30
0.0
 70
   128
 71
     2
 72
     5
 73
    -6
  0
VERTEX
  5
1243
  8
0
 10
0.0
 20
0.0
 30
0.0
 70
   128
 71
     3
 72
    -2
 73
     6
  0
VERTEX
  5
1244
  8
0
 10
0.0
 20
0.0
 30
0.0
 70
   128
 71
     7
 72
     1
 73
    -4
  0
VERTEX
  5
1245
  8
0
 10
0.0
 20
0.0
 30
0.0
 70
   128
 71
     8
 72
    -7
 73
     4
  0
SEQEND
  5
12E6
  8
0
  0
POLYLINE
  5
1246
  8
0
 66
     1
 10
0.0
 20
0.0
 30
0.0
 70
    64
 71
     8
 72
     6
  0
VERTEX
  5
1247
  8
0
 10
-213.0000000000033
 20
-316.7499999999978
 30
-4.665063509461098
 70
   192
  0
VERTEX
  5
1248
  8
0
 10
-213.0000000000033
 20
-317.6650635094589
 30
-3.75
 70
   192
  0
VERTEX
  5
1249
  8
0
 10
212.9999999999966
 20
-317.6650635094634
 30
-3.75
 70
   192
  0
VERTEX
  5
124A
  8
0
 10
212.9999999999966
 20
-316.7500000000023
 30
-4.665063509461098
 70
   192
  0
VERTEX
  5
124B
  8
0
 10
-213.0000000000033
 20
-317.9999999999978
 30
-2.5
 70
   192
  0
VERTEX
  5
124C
  8
0
 10
212.9999999999966
 20
-318.0000000000023
 30
-2.5
 70
   192
  0
VERTEX
  5
124D
  8
0
 10
-213.0000000000033
 20
-315.4999999999978
 30
-5.0
 70
   192
  0
VERTEX
  5
124E
  8
0
 10
212.9999999999966
 20
-315.5000000000023
 30
-5.000000000000002
 70
   192
  0
VERTEX
  5
124F
  8
0
 10
0.0
 20
0.0
 30
0.0
 70
   128
 71
     1
 72
     2
 73
    -3
  0
VERTEX
  5
1250
  8
0
 10
0.0
 20
0.0
 30
0.0
 70
   128
 71
     4
 72
    -1
 73
     3
  0
VERTEX
  5
1251
  8
0
 10
0.0
 20
0.0
 30
0.0
 70
   128
 71
     2
 72
     5
 73
    -6
  0
VERTEX
  5
1252
  8
0
 10
0.0
 20
0.0
 30
0.0
 70
   128
 71
     3
 72
    -2
 73
     6
  0
VERTEX
  5
1253
  8
0
 10
0.0
 20
0.0
 30
0.0
 70
   128
 71
     7
 72
     1
 73
    -4
  0
VERTEX
  5
1254
  8
0
 10
0.0
 20
0.0
 30
0.0
 70
   128
 71
     8
 72
    -7
 73
     4
  0
SEQEND
  5
12E7
  8
0
  0
POLYLINE
  5
1255
  8
0
 66
     1
 10
0.0
 20
0.0
 30
0.0
 70
    64
 71
    12
 72
    10
  0
VERTEX
  5
1256
  8
0
 10
-213.0000000000033
 20
-317.6650635094589
 30
-3.75
 70
   192
  0
VERTEX
  5
1257
  8
0
 10
-213.0000000000033
 20
-316.7499999999978
 30
-4.665063509461098
 70
   192
  0
VERTEX
  5
1258
  8
0
 10
-221.7500000000032
 20
-307.9999999999977
 30
-4.665063509461078
 70
   192
  0
VERTEX
  5
1259
  8
0
 10
-222.6650635094643
 20
-307.9999999999977
 30
-3.749999999999984
 70
   192
  0
VERTEX
  5
125A
  8
0
 10
-213.0000000000033
 20
-315.4999999999978
 30
-5.000000000000002
 70
   192
  0
VERTEX
  5
125B
  8
0
 10
-216.7500000000033
 20
-314.495190528381
 30
-5.0
 70
   192
  0
VERTEX
  5
125C
  8
0
 10
-219.4951905283866
 20
-311.7499999999977
 30
-5.0
 70
   192
  0
VERTEX
  5
125D
  8
0
 10
-220.5000000000032
 20
-307.9999999999977
 30
-5.0
 70
   192
  0
VERTEX
  5
125E
  8
0
 10
-213.0000000000033
 20
-317.9999999999978
 30
-2.5
 70
   192
  0
VERTEX
  5
125F
  8
0
 10
-218.0000000000033
 20
-316.6602540378421
 30
-2.5
 70
   192
  0
VERTEX
  5
1260
  8
0
 10
-223.0000000000032
 20
-307.9999999999977
 30
-2.5
 70
   192
  0
VERTEX
  5
1261
  8
0
 10
-221.6602540378476
 20
-312.9999999999977
 30
-2.5
 70
   192
  0
VERTEX
  5
1262
  8
0
 10
0.0
 20
0.0
 30
0.0
 70
   128
 71
     1
 72
     2
 73
    -3
  0
VERTEX
  5
1263
  8
0
 10
0.0
 20
0.0
 30
0.0
 70
   128
 71
     4
 72
    -1
 73
     3
  0
VERTEX
  5
1264
  8
0
 10
0.0
 20
0.0
 30
0.0
 70
   128
 71
     2
 72
     5
 73
     6
  0
VERTEX
  5
1265
  8
0
 10
0.0
 20
0.0
 30
0.0
 70
   128
 71
     6
 72
     7
 73
     2
  0
VERTEX
  5
1266
  8
0
 10
0.0
 20
0.0
 30
0.0
 70
   128
 71
     2
 72
     7
 73
     8
  0
VERTEX
  5
1267
  8
0
 10
0.0
 20
0.0
 30
0.0
 70
   128
 71
     3
 72
     2
 73
     8
  0
VERTEX
  5
1268
  8
0
 10
0.0
 20
0.0
 30
0.0
 70
   128
 71
     9
 72
     1
 73
    10
  0
VERTEX
  5
1269
  8
0
 10
0.0
 20
0.0
 30
0.0
 70
   128
 71
     4
 72
    11
 73
    12
  0
VERTEX
  5
126A
  8
0
 10
0.0
 20
0.0
 30
0.0
 70
   128
 71
    10
 72
     1
 73
    -4
  0
VERTEX
  5
126B
  8
0
 10
0.0
 20
0.0
 30
0.0
 70
   128
 71
    12
 72
   -10
 73
     4
  0
SEQEND
  5
12E8
  8
0
  0
POLYLINE
  5
126C
  8
0
 66
     1
 10
0.0
 20
0.0
 30
0.0
 70
    64
 71
     8
 72
     6
  0
VERTEX
  5
126D
  8
0
 10
-75.10958323589114
 20
30.62352451793845
 30
-156.2773958089714
 70
   192
  0
VERTEX
  5
126E
  8
0
 10
-75.1095832358924
 20
-30.62352451793747
 30
-156.2773958089717
 70
   192
  0
VERTEX
  5
126F
  8
0
 10
-80.00000000000044
 20
31.10030309581751
 30
-154.9999999999982
 70
   192
  0
VERTEX
  5
1270
  8
0
 10
-80.00000000000088
 20
-31.10030309581647
 30
-154.9999999999989
 70
   192
  0
VERTEX
  5
1271
  8
0
 10
-71.27739580897396
 20
-30.24991528181236
 30
-160.1095832358906
 70
   192
  0
VERTEX
  5
1272
  8
0
 10
-71.27739580897246
 20
30.24991528181334
 30
-160.1095832358909
 70
   192
  0
VERTEX
  5
1273
  8
0
 10
-70.00000000000087
 20
-30.12537886977062
 30
-165.0000000000008
 70
   192
  0
VERTEX
  5
1274
  8
0
 10
-70.00000000000045
 20
30.12537886977173
 30
-165.0000000000006
 70
   192
  0
VERTEX
  5
1275
  8
0
 10
0.0
 20
0.0
 30
0.0
 70
   128
 71
     1
 72
    -2
 73
     3
  0
VERTEX
  5
1276
  8
0
 10
0.0
 20
0.0
 30
0.0
 70
   128
 71
     2
 72
     4
 73
    -3
  0
VERTEX
  5
1277
  8
0
 10
0.0
 20
0.0
 30
0.0
 70
   128
 71
     5
 72
     2
 73
    -1
  0
VERTEX
  5
1278
  8
0
 10
0.0
 20
0.0
 30
0.0
 70
   128
 71
     6
 72
    -5
 73
     1
  0
VERTEX
  5
1279
  8
0
 10
0.0
 20
0.0
 30
0.0
 70
   128
 71
     7
 72
     5
 73
    -6
  0
VERTEX
  5
127A
  8
0
 10
0.0
 20
0.0
 30
0.0
 70
   128
 71
     8
 72
    -7
 73
     6
  0
SEQEND
  5
12E9
  8
0
  0
ENDBLK
  5
127C
  8
0
  0
ENDSEC
  0
SECTION
  2
ENTITIES
  0
INSERT
  5
BE
  8
0
  2
*X1
 10
0.0
 20
0.0
 30
0.0
  0
ENDSEC
  0
EOF
