  0
SECTION
  2
HEADER
  9
$ACADVER
  1
AC1009
  9
$DWGCODEPAGE
  3
ansi_1250
  9
$INSBASE
 10
0.0
 20
0.0
 30
0.0
  9
$EXTMIN
 10
-344.8669003679577
 20
0.0
 30
-48.0000000000001
  9
$EXTMAX
 10
319.6807484416252
 20
2000.0
 30
47.99999999999999
  9
$LIMMIN
 10
0.0
 20
0.0
  9
$LIMMAX
 10
420.0
 20
297.0
  9
$ORTHOMODE
 70
     0
  9
$REGENMODE
 70
     1
  9
$FILLMODE
 70
     1
  9
$QTEXTMODE
 70
     0
  9
$MIRRTEXT
 70
     0
  9
$DRAGMODE
 70
     2
  9
$LTSCALE
 40
1.0
  9
$OSMODE
 70
   511
  9
$ATTMODE
 70
     1
  9
$TEXTSIZE
 40
2.5
  9
$TRACEWID
 40
1.0
  9
$TEXTSTYLE
  7
STANDARD
  9
$CLAYER
  8
0
  9
$CELTYPE
  6
BYLAYER
  9
$CECOLOR
 62
   256
  9
$DIMSCALE
 40
1.0
  9
$DIMASZ
 40
2.5
  9
$DIMEXO
 40
0.625
  9
$DIMDLI
 40
3.75
  9
$DIMRND
 40
0.0
  9
$DIMDLE
 40
0.0
  9
$DIMEXE
 40
1.25
  9
$DIMTP
 40
0.0
  9
$DIMTM
 40
0.0
  9
$DIMTXT
 40
2.5
  9
$DIMCEN
 40
-2.5
  9
$DIMTSZ
 40
0.0
  9
$DIMTOL
 70
     0
  9
$DIMLIM
 70
     0
  9
$DIMTIH
 70
     0
  9
$DIMTOH
 70
     0
  9
$DIMSE1
 70
     0
  9
$DIMSE2
 70
     0
  9
$DIMTAD
 70
     1
  9
$DIMZIN
 70
     8
  9
$DIMBLK
  1

  9
$DIMASO
 70
     1
  9
$DIMSHO
 70
     1
  9
$DIMPOST
  1

  9
$DIMAPOST
  1

  9
$DIMALT
 70
     0
  9
$DIMALTD
 70
     3
  9
$DIMALTF
 40
0.03937007874016
  9
$DIMLFAC
 40
1.0
  9
$DIMTOFL
 70
     1
  9
$DIMTVP
 40
0.0
  9
$DIMTIX
 70
     0
  9
$DIMSOXD
 70
     0
  9
$DIMSAH
 70
     0
  9
$DIMBLK1
  1

  9
$DIMBLK2
  1

  9
$DIMSTYLE
  2
ISO-25
  9
$DIMCLRD
 70
     0
  9
$DIMCLRE
 70
     0
  9
$DIMCLRT
 70
     0
  9
$DIMTFAC
 40
1.0
  9
$DIMGAP
 40
0.625
  9
$LUNITS
 70
     2
  9
$LUPREC
 70
     3
  9
$SKETCHINC
 40
1.0
  9
$FILLETRAD
 40
10.0
  9
$AUNITS
 70
     0
  9
$AUPREC
 70
     0
  9
$MENU
  1
.
  9
$ELEVATION
 40
0.0
  9
$PELEVATION
 40
0.0
  9
$THICKNESS
 40
0.0
  9
$LIMCHECK
 70
     0
  9
$CHAMFERA
 40
10.0
  9
$CHAMFERB
 40
10.0
  9
$SKPOLY
 70
     0
  9
$TDCREATE
 40
2455022.720692848
  9
$TDUPDATE
 40
2460458.637612697
  9
$TDINDWG
 40
0.0030252083
  9
$TDUSRTIMER
 40
0.0030252083
  9
$USRTIMER
 70
     1
  9
$ANGBASE
 50
0.0
  9
$ANGDIR
 70
     0
  9
$PDMODE
 70
     0
  9
$PDSIZE
 40
0.0
  9
$PLINEWID
 40
0.0
  9
$COORDS
 70
     1
  9
$SPLFRAME
 70
     0
  9
$SPLINETYPE
 70
     6
  9
$SPLINESEGS
 70
     8
  9
$ATTDIA
 70
     0
  9
$ATTREQ
 70
     1
  9
$HANDLING
 70
     1
  9
$HANDSEED
  5
2206
  9
$SURFTAB1
 70
     6
  9
$SURFTAB2
 70
     6
  9
$SURFTYPE
 70
     6
  9
$SURFU
 70
     6
  9
$SURFV
 70
     6
  9
$UCSNAME
  2

  9
$UCSORG
 10
0.0
 20
0.0
 30
0.0
  9
$UCSXDIR
 10
1.0
 20
0.0
 30
0.0
  9
$UCSYDIR
 10
0.0
 20
1.0
 30
0.0
  9
$PUCSNAME
  2

  9
$PUCSORG
 10
0.0
 20
0.0
 30
0.0
  9
$PUCSXDIR
 10
1.0
 20
0.0
 30
0.0
  9
$PUCSYDIR
 10
0.0
 20
1.0
 30
0.0
  9
$USERI1
 70
     0
  9
$USERI2
 70
     0
  9
$USERI3
 70
     0
  9
$USERI4
 70
     0
  9
$USERI5
 70
     0
  9
$USERR1
 40
0.0
  9
$USERR2
 40
0.0
  9
$USERR3
 40
0.0
  9
$USERR4
 40
0.0
  9
$USERR5
 40
0.0
  9
$WORLDVIEW
 70
     1
  9
$SHADEDGE
 70
     3
  9
$SHADEDIF
 70
    70
  9
$TILEMODE
 70
     1
  9
$MAXACTVP
 70
    64
  9
$PLIMCHECK
 70
     0
  9
$PEXTMIN
 10
1.000000000000000E+20
 20
1.000000000000000E+20
 30
1.000000000000000E+20
  9
$PEXTMAX
 10
-1.000000000000000E+20
 20
-1.000000000000000E+20
 30
-1.000000000000000E+20
  9
$PLIMMIN
 10
0.0
 20
0.0
  9
$PLIMMAX
 10
0.0
 20
0.0
  9
$UNITMODE
 70
     0
  9
$VISRETAIN
 70
     1
  9
$PLINEGEN
 70
     0
  9
$PSLTSCALE
 70
     1
  0
ENDSEC
  0
SECTION
  2
TABLES
  0
TABLE
  2
VPORT
 70
     1
  0
VPORT
  2
*ACTIVE
 70
     0
 10
0.0
 20
0.0
 11
1.0
 21
1.0
 12
621.1269524252931
 22
-457.888767744054
 13
0.0
 23
0.0
 14
10.0
 24
10.0
 15
10.0
 25
10.0
 16
0.577350269189651
 26
0.577350269189651
 36
0.577350269189651
 17
-134.1869158878279
 27
0.0000000000209468
 37
0.0000000000242721
 40
1189.504308140182
 41
1.89041095890411
 42
50.0
 43
0.0
 44
0.0
 50
0.0
 51
0.0
 71
    16
 72
  1000
 73
     1
 74
     3
 75
     0
 76
     0
 77
     0
 78
     0
  0
ENDTAB
  0
TABLE
  2
LTYPE
 70
     1
  0
LTYPE
  2
CONTINUOUS
 70
     0
  3
Solid line
 72
    65
 73
     0
 40
0.0
  0
ENDTAB
  0
TABLE
  2
LAYER
 70
     5
  0
LAYER
  2
0
 70
     0
 62
     7
  6
CONTINUOUS
  0
LAYER
  2
MADLA
 70
     0
 62
     7
  6
CONTINUOUS
  0
LAYER
  2
RÁM
 70
     0
 62
     7
  6
CONTINUOUS
  0
LAYER
  2
SKLO
 70
     0
 62
     7
  6
CONTINUOUS
  0
LAYER
  2
GUMA
 70
     0
 62
     7
  6
CONTINUOUS
  0
ENDTAB
  0
TABLE
  2
STYLE
 70
     2
  0
STYLE
  2
STANDARD
 70
     0
 40
0.0
 41
1.0
 50
0.0
 71
     0
 42
2.5
  3
arial.ttf
  4

  0
STYLE
  2
ANNOTATIVE
 70
     0
 40
0.0
 41
1.0
 50
0.0
 71
     0
 42
2.5
  3
arial.ttf
  4

  0
ENDTAB
  0
TABLE
  2
VIEW
 70
     0
  0
ENDTAB
  0
TABLE
  2
UCS
 70
     0
  0
ENDTAB
  0
TABLE
  2
APPID
 70
     3
  0
APPID
  2
ACAD
 70
     0
  0
APPID
  2
ACADANNOTATIVE
 70
     0
  0
APPID
  2
ACAECLAYERSTANDARD
 70
     0
  0
ENDTAB
  0
TABLE
  2
DIMSTYLE
 70
     2
  0
DIMSTYLE
  2
ISO-25
 70
     0
  3

  4

  5

  6

  7

 40
1.0
 41
2.5
 42
0.625
 43
3.75
 44
1.25
 45
0.0
 46
0.0
 47
0.0
 48
0.0
140
2.5
141
-2.5
142
0.0
143
0.03937007874016
144
1.0
145
0.0
146
1.0
147
0.625
 71
     0
 72
     0
 73
     0
 74
     0
 75
     0
 76
     0
 77
     1
 78
     8
170
     0
171
     3
172
     1
173
     0
174
     0
175
     0
176
     0
177
     0
178
     0
  0
DIMSTYLE
  2
ANNOTATIVE
 70
     0
  3

  4

  5

  6

  7

 40
0.0
 41
2.5
 42
0.625
 43
3.75
 44
1.25
 45
0.0
 46
0.0
 47
0.0
 48
0.0
140
2.5
141
-2.5
142
0.0
143
0.03937007874016
144
1.0
145
0.0
146
1.0
147
0.625
 71
     0
 72
     0
 73
     0
 74
     0
 75
     0
 76
     0
 77
     1
 78
     8
170
     0
171
     3
172
     1
173
     0
174
     0
175
     0
176
     0
177
     0
178
     0
  0
ENDTAB
  0
ENDSEC
  0
SECTION
  2
BLOCKS
  0
BLOCK
  8
0
  2
$MODEL_SPACE
 70
     0
 10
0.0
 20
0.0
 30
0.0
  3
$MODEL_SPACE
  1

  0
ENDBLK
  5
21
  8
0
  0
BLOCK
 67
     1
  8
0
  2
$PAPER_SPACE
 70
     0
 10
0.0
 20
0.0
 30
0.0
  3
$PAPER_SPACE
  1

  0
ENDBLK
  5
1D
 67
     1
  8
0
  0
BLOCK
  8
0
  2
*X1
 70
     1
 10
0.0
 20
0.0
 30
0.0
  3
*X1
  1

  0
POLYLINE
  5
16FC
  8
RÁM
 66
     1
 10
0.0
 20
0.0
 30
0.0
 70
    64
 71
     8
 72
     6
  0
VERTEX
  5
16FD
  8
RÁM
 10
-306.6936952872346
 20
0.0
 30
11.84999969676737
 70
   192
  0
VERTEX
  5
16FE
  8
RÁM
 10
-306.6936952872346
 20
2000.0
 30
11.84999969676737
 70
   192
  0
VERTEX
  5
16FF
  8
RÁM
 10
-306.7669003679775
 20
2000.0
 30
11.92320477751027
 70
   192
  0
VERTEX
  5
1700
  8
RÁM
 10
-306.7669003679775
 20
0.0
 30
11.92320477751027
 70
   192
  0
VERTEX
  5
1701
  8
RÁM
 10
-306.6669003679966
 20
0.0
 30
11.74999969678648
 70
   192
  0
VERTEX
  5
1702
  8
RÁM
 10
-306.6669003679966
 20
2000.0
 30
11.74999969678648
 70
   192
  0
VERTEX
  5
1703
  8
RÁM
 10
-306.8669003679584
 20
2000.0
 30
11.94999969674826
 70
   192
  0
VERTEX
  5
1704
  8
RÁM
 10
-306.8669003679584
 20
0.0
 30
11.94999969674826
 70
   192
  0
VERTEX
  5
1705
  8
RÁM
 10
0.0
 20
0.0
 30
0.0
 70
   128
 71
     1
 72
     2
 73
    -3
  0
VERTEX
  5
1706
  8
RÁM
 10
0.0
 20
0.0
 30
0.0
 70
   128
 71
    -1
 72
     3
 73
     4
  0
VERTEX
  5
1707
  8
RÁM
 10
0.0
 20
0.0
 30
0.0
 70
   128
 71
     5
 72
     6
 73
    -2
  0
VERTEX
  5
1708
  8
RÁM
 10
0.0
 20
0.0
 30
0.0
 70
   128
 71
    -5
 72
     2
 73
     1
  0
VERTEX
  5
1709
  8
RÁM
 10
0.0
 20
0.0
 30
0.0
 70
   128
 71
     4
 72
     3
 73
    -7
  0
VERTEX
  5
170A
  8
RÁM
 10
0.0
 20
0.0
 30
0.0
 70
   128
 71
    -4
 72
     7
 73
     8
  0
SEQEND
  5
2136
  8
RÁM
  0
POLYLINE
  5
170B
  8
RÁM
 66
     1
 10
0.0
 20
0.0
 30
0.0
 70
    64
 71
     4
 72
     2
  0
VERTEX
  5
170C
  8
RÁM
 10
-306.6669003679966
 20
2000.0
 30
11.74999969678648
 70
   192
  0
VERTEX
  5
170D
  8
RÁM
 10
-306.6669003679966
 20
0.0
 30
11.74999969678648
 70
   192
  0
VERTEX
  5
170E
  8
RÁM
 10
-306.6669003679966
 20
0.0
 30
9.749998971876789
 70
   192
  0
VERTEX
  5
170F
  8
RÁM
 10
-306.6669003679966
 20
2000.0
 30
9.749998971876789
 70
   192
  0
VERTEX
  5
1710
  8
RÁM
 10
0.0
 20
0.0
 30
0.0
 70
   128
 71
     3
 72
     4
 73
    -1
  0
VERTEX
  5
1711
  8
RÁM
 10
0.0
 20
0.0
 30
0.0
 70
   128
 71
     2
 72
    -3
 73
     1
  0
SEQEND
  5
2137
  8
RÁM
  0
POLYLINE
  5
1712
  8
RÁM
 66
     1
 10
0.0
 20
0.0
 30
0.0
 70
    64
 71
     4
 72
     2
  0
VERTEX
  5
1713
  8
RÁM
 10
-306.6669003679966
 20
2000.0
 30
9.749998971876789
 70
   192
  0
VERTEX
  5
1714
  8
RÁM
 10
-306.6669003679966
 20
0.0
 30
9.749998971876789
 70
   192
  0
VERTEX
  5
1715
  8
RÁM
 10
-271.7101733694994
 20
0.0
 30
9.749998971876785
 70
   192
  0
VERTEX
  5
1716
  8
RÁM
 10
-271.7101733694994
 20
2000.0
 30
9.749998971876787
 70
   192
  0
VERTEX
  5
1717
  8
RÁM
 10
0.0
 20
0.0
 30
0.0
 70
   128
 71
     3
 72
     4
 73
    -1
  0
VERTEX
  5
1718
  8
RÁM
 10
0.0
 20
0.0
 30
0.0
 70
   128
 71
     2
 72
    -3
 73
     1
  0
SEQEND
  5
2138
  8
RÁM
  0
POLYLINE
  5
1719
  8
RÁM
 66
     1
 10
0.0
 20
0.0
 30
0.0
 70
    64
 71
     8
 72
     6
  0
VERTEX
  5
171A
  8
RÁM
 10
-271.2771606685747
 20
0.0
 30
9.499998972435368
 70
   192
  0
VERTEX
  5
171B
  8
RÁM
 10
-271.2771606685747
 20
2000.0
 30
9.499998972435368
 70
   192
  0
VERTEX
  5
171C
  8
RÁM
 10
-271.460173370058
 20
2000.0
 30
9.683011673918678
 70
   192
  0
VERTEX
  5
171D
  8
RÁM
 10
-271.460173370058
 20
0.0
 30
9.683011673918678
 70
   192
  0
VERTEX
  5
171E
  8
RÁM
 10
-271.2101733706166
 20
0.0
 30
9.249998972993946
 70
   192
  0
VERTEX
  5
171F
  8
RÁM
 10
-271.2101733706166
 20
2000.0
 30
9.249998972993946
 70
   192
  0
VERTEX
  5
1720
  8
RÁM
 10
-271.7101733694994
 20
2000.0
 30
9.749998971876787
 70
   192
  0
VERTEX
  5
1721
  8
RÁM
 10
-271.7101733694994
 20
0.0
 30
9.749998971876787
 70
   192
  0
VERTEX
  5
1722
  8
RÁM
 10
0.0
 20
0.0
 30
0.0
 70
   128
 71
     1
 72
     2
 73
    -3
  0
VERTEX
  5
1723
  8
RÁM
 10
0.0
 20
0.0
 30
0.0
 70
   128
 71
    -1
 72
     3
 73
     4
  0
VERTEX
  5
1724
  8
RÁM
 10
0.0
 20
0.0
 30
0.0
 70
   128
 71
     5
 72
     6
 73
    -2
  0
VERTEX
  5
1725
  8
RÁM
 10
0.0
 20
0.0
 30
0.0
 70
   128
 71
    -5
 72
     2
 73
     1
  0
VERTEX
  5
1726
  8
RÁM
 10
0.0
 20
0.0
 30
0.0
 70
   128
 71
     4
 72
     3
 73
    -7
  0
VERTEX
  5
1727
  8
RÁM
 10
0.0
 20
0.0
 30
0.0
 70
   128
 71
    -4
 72
     7
 73
     8
  0
SEQEND
  5
2139
  8
RÁM
  0
POLYLINE
  5
1728
  8
RÁM
 66
     1
 10
0.0
 20
0.0
 30
0.0
 70
    64
 71
     4
 72
     2
  0
VERTEX
  5
1729
  8
RÁM
 10
-271.2101733706166
 20
18.00000000000001
 30
2.399998906309487
 70
   192
  0
VERTEX
  5
172A
  8
RÁM
 10
-280.2125013678679
 20
18.00000000000001
 30
2.399998906309486
 70
   192
  0
VERTEX
  5
172B
  8
RÁM
 10
-280.2125013678679
 20
2000.0
 30
2.399998906309486
 70
   192
  0
VERTEX
  5
172C
  8
RÁM
 10
-271.2101733706166
 20
2000.0
 30
2.399998906309487
 70
   192
  0
VERTEX
  5
172D
  8
RÁM
 10
0.0
 20
0.0
 30
0.0
 70
   128
 71
     3
 72
     4
 73
    -1
  0
VERTEX
  5
172E
  8
RÁM
 10
0.0
 20
0.0
 30
0.0
 70
   128
 71
     2
 72
    -3
 73
     1
  0
SEQEND
  5
213A
  8
RÁM
  0
POLYLINE
  5
172F
  8
RÁM
 66
     1
 10
0.0
 20
0.0
 30
0.0
 70
    64
 71
     4
 72
     2
  0
VERTEX
  5
1730
  8
RÁM
 10
-280.2125013678679
 20
18.00000000000001
 30
2.399998906309486
 70
   192
  0
VERTEX
  5
1731
  8
RÁM
 10
-280.2125013678679
 20
18.00000000000001
 30
-2.399998906309486
 70
   192
  0
VERTEX
  5
1732
  8
RÁM
 10
-280.2125013678679
 20
2000.0
 30
-2.399998906309486
 70
   192
  0
VERTEX
  5
1733
  8
RÁM
 10
-280.2125013678679
 20
2000.0
 30
2.399998906309486
 70
   192
  0
VERTEX
  5
1734
  8
RÁM
 10
0.0
 20
0.0
 30
0.0
 70
   128
 71
     3
 72
     4
 73
    -1
  0
VERTEX
  5
1735
  8
RÁM
 10
0.0
 20
0.0
 30
0.0
 70
   128
 71
     2
 72
    -3
 73
     1
  0
SEQEND
  5
213B
  8
RÁM
  0
POLYLINE
  5
1736
  8
RÁM
 66
     1
 10
0.0
 20
0.0
 30
0.0
 70
    64
 71
     4
 72
     2
  0
VERTEX
  5
1737
  8
RÁM
 10
-280.2125013678679
 20
18.00000000000001
 30
-2.399998906309486
 70
   192
  0
VERTEX
  5
1738
  8
RÁM
 10
-271.2101733706166
 20
18.00000000000001
 30
-2.399998906309487
 70
   192
  0
VERTEX
  5
1739
  8
RÁM
 10
-271.2101733706166
 20
2000.0
 30
-2.399998906309487
 70
   192
  0
VERTEX
  5
173A
  8
RÁM
 10
-280.2125013678679
 20
2000.0
 30
-2.399998906309486
 70
   192
  0
VERTEX
  5
173B
  8
RÁM
 10
0.0
 20
0.0
 30
0.0
 70
   128
 71
     3
 72
     4
 73
    -1
  0
VERTEX
  5
173C
  8
RÁM
 10
0.0
 20
0.0
 30
0.0
 70
   128
 71
     2
 72
    -3
 73
     1
  0
SEQEND
  5
213C
  8
RÁM
  0
POLYLINE
  5
173D
  8
RÁM
 66
     1
 10
0.0
 20
0.0
 30
0.0
 70
    64
 71
     8
 72
     6
  0
VERTEX
  5
173E
  8
RÁM
 10
-271.2101733706166
 20
2000.0
 30
-2.399998906309487
 70
   192
  0
VERTEX
  5
173F
  8
RÁM
 10
-271.2101733706166
 20
18.0
 30
-2.399998906309487
 70
   192
  0
VERTEX
  5
1740
  8
RÁM
 10
-271.2101733706166
 20
18.0
 30
2.399998906309486
 70
   192
  0
VERTEX
  5
1741
  8
RÁM
 10
-271.2101733706166
 20
2000.0
 30
2.399998906309487
 70
   192
  0
VERTEX
  5
1742
  8
RÁM
 10
-271.2101733706166
 20
2000.0
 30
9.249998972993946
 70
   192
  0
VERTEX
  5
1743
  8
RÁM
 10
-271.2101733706166
 20
0.0
 30
9.249998972993946
 70
   192
  0
VERTEX
  5
1744
  8
RÁM
 10
-271.2101733706166
 20
0.0
 30
-9.8499997584866
 70
   192
  0
VERTEX
  5
1745
  8
RÁM
 10
-271.2101733706166
 20
2000.0
 30
-9.8499997584866
 70
   192
  0
VERTEX
  5
1746
  8
RÁM
 10
0.0
 20
0.0
 30
0.0
 70
   128
 71
     8
 72
     1
 73
    -2
  0
VERTEX
  5
1747
  8
RÁM
 10
0.0
 20
0.0
 30
0.0
 70
   128
 71
     7
 72
    -8
 73
    -2
  0
VERTEX
  5
1748
  8
RÁM
 10
0.0
 20
0.0
 30
0.0
 70
   128
 71
    -3
 72
     6
 73
    -7
  0
VERTEX
  5
1749
  8
RÁM
 10
0.0
 20
0.0
 30
0.0
 70
   128
 71
     2
 72
    -3
 73
    -7
  0
VERTEX
  5
174A
  8
RÁM
 10
0.0
 20
0.0
 30
0.0
 70
   128
 71
     4
 72
     5
 73
    -6
  0
VERTEX
  5
174B
  8
RÁM
 10
0.0
 20
0.0
 30
0.0
 70
   128
 71
     3
 72
    -4
 73
    -6
  0
SEQEND
  5
213D
  8
RÁM
  0
POLYLINE
  5
174C
  8
RÁM
 66
     1
 10
0.0
 20
0.0
 30
0.0
 70
    64
 71
     8
 72
     6
  0
VERTEX
  5
174D
  8
RÁM
 10
-271.4101733706166
 20
0.0
 30
-10.19640992000038
 70
   192
  0
VERTEX
  5
174E
  8
RÁM
 10
-271.4101733706166
 20
2000.0
 30
-10.19640992000038
 70
   192
  0
VERTEX
  5
174F
  8
RÁM
 10
-271.2637632091028
 20
2000.0
 30
-10.0499997584866
 70
   192
  0
VERTEX
  5
1750
  8
RÁM
 10
-271.2637632091028
 20
0.0
 30
-10.0499997584866
 70
   192
  0
VERTEX
  5
1751
  8
RÁM
 10
-271.6101733706166
 20
0.0
 30
-10.24999975848661
 70
   192
  0
VERTEX
  5
1752
  8
RÁM
 10
-271.6101733706166
 20
2000.0
 30
-10.24999975848661
 70
   192
  0
VERTEX
  5
1753
  8
RÁM
 10
-271.2101733706166
 20
2000.0
 30
-9.8499997584866
 70
   192
  0
VERTEX
  5
1754
  8
RÁM
 10
-271.2101733706166
 20
0.0
 30
-9.8499997584866
 70
   192
  0
VERTEX
  5
1755
  8
RÁM
 10
0.0
 20
0.0
 30
0.0
 70
   128
 71
     1
 72
     2
 73
    -3
  0
VERTEX
  5
1756
  8
RÁM
 10
0.0
 20
0.0
 30
0.0
 70
   128
 71
    -1
 72
     3
 73
     4
  0
VERTEX
  5
1757
  8
RÁM
 10
0.0
 20
0.0
 30
0.0
 70
   128
 71
     5
 72
     6
 73
    -2
  0
VERTEX
  5
1758
  8
RÁM
 10
0.0
 20
0.0
 30
0.0
 70
   128
 71
    -5
 72
     2
 73
     1
  0
VERTEX
  5
1759
  8
RÁM
 10
0.0
 20
0.0
 30
0.0
 70
   128
 71
     4
 72
     3
 73
    -7
  0
VERTEX
  5
175A
  8
RÁM
 10
0.0
 20
0.0
 30
0.0
 70
   128
 71
    -4
 72
     7
 73
     8
  0
SEQEND
  5
213E
  8
RÁM
  0
POLYLINE
  5
175B
  8
RÁM
 66
     1
 10
0.0
 20
0.0
 30
0.0
 70
    64
 71
     4
 72
     2
  0
VERTEX
  5
175C
  8
RÁM
 10
-271.6101733706166
 20
2000.0
 30
-10.24999975848661
 70
   192
  0
VERTEX
  5
175D
  8
RÁM
 10
-271.6101733706166
 20
0.0
 30
-10.24999975848661
 70
   192
  0
VERTEX
  5
175E
  8
RÁM
 10
-306.6669003679966
 20
0.0
 30
-10.24999975848661
 70
   192
  0
VERTEX
  5
175F
  8
RÁM
 10
-306.6669003679966
 20
2000.0
 30
-10.24999975848661
 70
   192
  0
VERTEX
  5
1760
  8
RÁM
 10
0.0
 20
0.0
 30
0.0
 70
   128
 71
     3
 72
     4
 73
    -1
  0
VERTEX
  5
1761
  8
RÁM
 10
0.0
 20
0.0
 30
0.0
 70
   128
 71
     2
 72
    -3
 73
     1
  0
SEQEND
  5
213F
  8
RÁM
  0
POLYLINE
  5
1762
  8
RÁM
 66
     1
 10
0.0
 20
0.0
 30
0.0
 70
    64
 71
     4
 72
     2
  0
VERTEX
  5
1763
  8
RÁM
 10
-306.6669003679966
 20
2000.0
 30
-10.24999975848661
 70
   192
  0
VERTEX
  5
1764
  8
RÁM
 10
-306.6669003679966
 20
0.0
 30
-10.24999975848661
 70
   192
  0
VERTEX
  5
1765
  8
RÁM
 10
-306.6669003679966
 20
0.0
 30
-12.05000030328993
 70
   192
  0
VERTEX
  5
1766
  8
RÁM
 10
-306.6669003679966
 20
2000.0
 30
-12.05000030328993
 70
   192
  0
VERTEX
  5
1767
  8
RÁM
 10
0.0
 20
0.0
 30
0.0
 70
   128
 71
     3
 72
     4
 73
    -1
  0
VERTEX
  5
1768
  8
RÁM
 10
0.0
 20
0.0
 30
0.0
 70
   128
 71
     2
 72
    -3
 73
     1
  0
SEQEND
  5
2140
  8
RÁM
  0
POLYLINE
  5
1769
  8
RÁM
 66
     1
 10
0.0
 20
0.0
 30
0.0
 70
    64
 71
     4
 72
     2
  0
VERTEX
  5
176A
  8
RÁM
 10
-306.6669003679966
 20
2000.0
 30
-12.05000030328993
 70
   192
  0
VERTEX
  5
176B
  8
RÁM
 10
-306.6669003679966
 20
0.0
 30
-12.05000030328993
 70
   192
  0
VERTEX
  5
176C
  8
RÁM
 10
-315.6125958434279
 20
0.0
 30
-18.01379728444235
 70
   192
  0
VERTEX
  5
176D
  8
RÁM
 10
-315.6125958434279
 20
2000.0
 30
-18.01379728444236
 70
   192
  0
VERTEX
  5
176E
  8
RÁM
 10
0.0
 20
0.0
 30
0.0
 70
   128
 71
     3
 72
     4
 73
    -1
  0
VERTEX
  5
176F
  8
RÁM
 10
0.0
 20
0.0
 30
0.0
 70
   128
 71
     2
 72
    -3
 73
     1
  0
SEQEND
  5
2141
  8
RÁM
  0
POLYLINE
  5
1770
  8
RÁM
 66
     1
 10
0.0
 20
0.0
 30
0.0
 70
    64
 71
     8
 72
     6
  0
VERTEX
  5
1771
  8
RÁM
 10
-315.6901865916867
 20
0.0
 30
-18.0458730519751
 70
   192
  0
VERTEX
  5
1772
  8
RÁM
 10
-315.6901865916867
 20
2000.0
 30
-18.0458730519751
 70
   192
  0
VERTEX
  5
1773
  8
RÁM
 10
-315.6498144469415
 20
2000.0
 30
-18.03364935010747
 70
   192
  0
VERTEX
  5
1774
  8
RÁM
 10
-315.6498144469415
 20
0.0
 30
-18.03364935010747
 70
   192
  0
VERTEX
  5
1775
  8
RÁM
 10
-315.7321662864157
 20
0.0
 30
-18.05000030155945
 70
   192
  0
VERTEX
  5
1776
  8
RÁM
 10
-315.7321662864157
 20
2000.0
 30
-18.05000030155944
 70
   192
  0
VERTEX
  5
1777
  8
RÁM
 10
-315.6125958434279
 20
2000.0
 30
-18.01379728444236
 70
   192
  0
VERTEX
  5
1778
  8
RÁM
 10
-315.6125958434279
 20
0.0
 30
-18.01379728444236
 70
   192
  0
VERTEX
  5
1779
  8
RÁM
 10
0.0
 20
0.0
 30
0.0
 70
   128
 71
     1
 72
     2
 73
    -3
  0
VERTEX
  5
177A
  8
RÁM
 10
0.0
 20
0.0
 30
0.0
 70
   128
 71
    -1
 72
     3
 73
     4
  0
VERTEX
  5
177B
  8
RÁM
 10
0.0
 20
0.0
 30
0.0
 70
   128
 71
     5
 72
     6
 73
    -2
  0
VERTEX
  5
177C
  8
RÁM
 10
0.0
 20
0.0
 30
0.0
 70
   128
 71
    -5
 72
     2
 73
     1
  0
VERTEX
  5
177D
  8
RÁM
 10
0.0
 20
0.0
 30
0.0
 70
   128
 71
     4
 72
     3
 73
    -7
  0
VERTEX
  5
177E
  8
RÁM
 10
0.0
 20
0.0
 30
0.0
 70
   128
 71
    -4
 72
     7
 73
     8
  0
SEQEND
  5
2142
  8
RÁM
  0
POLYLINE
  5
177F
  8
RÁM
 66
     1
 10
0.0
 20
0.0
 30
0.0
 70
    64
 71
     4
 72
     2
  0
VERTEX
  5
1780
  8
RÁM
 10
-315.7321662864157
 20
2000.0
 30
-18.05000030155944
 70
   192
  0
VERTEX
  5
1781
  8
RÁM
 10
-315.7321662864157
 20
0.0
 30
-18.05000030155944
 70
   192
  0
VERTEX
  5
1782
  8
RÁM
 10
-344.8669003679577
 20
0.0
 30
-18.05000030155944
 70
   192
  0
VERTEX
  5
1783
  8
RÁM
 10
-344.8669003679577
 20
2000.0
 30
-18.05000030155944
 70
   192
  0
VERTEX
  5
1784
  8
RÁM
 10
0.0
 20
0.0
 30
0.0
 70
   128
 71
     3
 72
     4
 73
    -1
  0
VERTEX
  5
1785
  8
RÁM
 10
0.0
 20
0.0
 30
0.0
 70
   128
 71
     2
 72
    -3
 73
     1
  0
SEQEND
  5
2143
  8
RÁM
  0
POLYLINE
  5
1786
  8
RÁM
 66
     1
 10
0.0
 20
0.0
 30
0.0
 70
    64
 71
     4
 72
     2
  0
VERTEX
  5
1787
  8
RÁM
 10
-344.8669003679577
 20
2000.0
 30
-18.05000030155944
 70
   192
  0
VERTEX
  5
1788
  8
RÁM
 10
-344.8669003679577
 20
0.0
 30
-18.05000030155944
 70
   192
  0
VERTEX
  5
1789
  8
RÁM
 10
-344.8669003679577
 20
0.0
 30
11.94999969674827
 70
   192
  0
VERTEX
  5
178A
  8
RÁM
 10
-344.8669003679577
 20
2000.0
 30
11.94999969674827
 70
   192
  0
VERTEX
  5
178B
  8
RÁM
 10
0.0
 20
0.0
 30
0.0
 70
   128
 71
     3
 72
     4
 73
    -1
  0
VERTEX
  5
178C
  8
RÁM
 10
0.0
 20
0.0
 30
0.0
 70
   128
 71
     2
 72
    -3
 73
     1
  0
SEQEND
  5
2144
  8
RÁM
  0
POLYLINE
  5
178D
  8
RÁM
 66
     1
 10
0.0
 20
0.0
 30
0.0
 70
    64
 71
     4
 72
     2
  0
VERTEX
  5
178E
  8
RÁM
 10
-344.8669003679577
 20
2000.0
 30
11.94999969674827
 70
   192
  0
VERTEX
  5
178F
  8
RÁM
 10
-344.8669003679577
 20
0.0
 30
11.94999969674827
 70
   192
  0
VERTEX
  5
1790
  8
RÁM
 10
-306.8669003679585
 20
0.0
 30
11.94999969674826
 70
   192
  0
VERTEX
  5
1791
  8
RÁM
 10
-306.8669003679584
 20
2000.0
 30
11.94999969674826
 70
   192
  0
VERTEX
  5
1792
  8
RÁM
 10
0.0
 20
0.0
 30
0.0
 70
   128
 71
     3
 72
     4
 73
    -1
  0
VERTEX
  5
1793
  8
RÁM
 10
0.0
 20
0.0
 30
0.0
 70
   128
 71
     2
 72
    -3
 73
     1
  0
SEQEND
  5
2145
  8
RÁM
  0
POLYLINE
  5
1794
  8
RÁM
 66
     1
 10
0.0
 20
0.0
 30
0.0
 70
    64
 71
    25
 72
    23
  0
VERTEX
  5
1795
  8
RÁM
 10
-306.8669003679584
 20
2000.0
 30
11.94999969674826
 70
   192
  0
VERTEX
  5
1796
  8
RÁM
 10
-306.7669003679775
 20
2000.0
 30
11.92320477751027
 70
   192
  0
VERTEX
  5
1797
  8
RÁM
 10
-306.6936952872346
 20
2000.0
 30
11.84999969676737
 70
   192
  0
VERTEX
  5
1798
  8
RÁM
 10
-306.6669003679966
 20
2000.0
 30
11.74999969678648
 70
   192
  0
VERTEX
  5
1799
  8
RÁM
 10
-306.6669003679966
 20
2000.0
 30
9.749998971876789
 70
   192
  0
VERTEX
  5
179A
  8
RÁM
 10
-271.7101733694994
 20
2000.0
 30
9.749998971876785
 70
   192
  0
VERTEX
  5
179B
  8
RÁM
 10
-271.460173370058
 20
2000.0
 30
9.683011673918678
 70
   192
  0
VERTEX
  5
179C
  8
RÁM
 10
-271.2771606685747
 20
2000.0
 30
9.499998972435368
 70
   192
  0
VERTEX
  5
179D
  8
RÁM
 10
-271.2101733706166
 20
2000.0
 30
9.249998972993946
 70
   192
  0
VERTEX
  5
179E
  8
RÁM
 10
-271.2101733706166
 20
2000.0
 30
2.399998906309487
 70
   192
  0
VERTEX
  5
179F
  8
RÁM
 10
-280.2125013678679
 20
2000.0
 30
2.399998906309486
 70
   192
  0
VERTEX
  5
17A0
  8
RÁM
 10
-280.2125013678679
 20
2000.0
 30
-2.399998906309486
 70
   192
  0
VERTEX
  5
17A1
  8
RÁM
 10
-271.2101733706166
 20
2000.0
 30
-2.399998906309487
 70
   192
  0
VERTEX
  5
17A2
  8
RÁM
 10
-271.2101733706166
 20
2000.0
 30
-9.8499997584866
 70
   192
  0
VERTEX
  5
17A3
  8
RÁM
 10
-271.2637632091028
 20
2000.0
 30
-10.0499997584866
 70
   192
  0
VERTEX
  5
17A4
  8
RÁM
 10
-271.4101733706166
 20
2000.0
 30
-10.19640992000038
 70
   192
  0
VERTEX
  5
17A5
  8
RÁM
 10
-271.6101733706166
 20
2000.0
 30
-10.24999975848661
 70
   192
  0
VERTEX
  5
17A6
  8
RÁM
 10
-306.6669003679966
 20
2000.0
 30
-10.24999975848661
 70
   192
  0
VERTEX
  5
17A7
  8
RÁM
 10
-306.6669003679966
 20
2000.0
 30
-12.05000030328993
 70
   192
  0
VERTEX
  5
17A8
  8
RÁM
 10
-315.6125958434279
 20
2000.0
 30
-18.01379728444235
 70
   192
  0
VERTEX
  5
17A9
  8
RÁM
 10
-315.6498144469415
 20
2000.0
 30
-18.03364935010747
 70
   192
  0
VERTEX
  5
17AA
  8
RÁM
 10
-315.6901865916867
 20
2000.0
 30
-18.0458730519751
 70
   192
  0
VERTEX
  5
17AB
  8
RÁM
 10
-315.7321662864157
 20
2000.0
 30
-18.05000030155945
 70
   192
  0
VERTEX
  5
17AC
  8
RÁM
 10
-344.8669003679577
 20
2000.0
 30
-18.05000030155944
 70
   192
  0
VERTEX
  5
17AD
  8
RÁM
 10
-344.8669003679577
 20
2000.0
 30
11.94999969674827
 70
   192
  0
VERTEX
  5
17AE
  8
RÁM
 10
0.0
 20
0.0
 30
0.0
 70
   128
 71
     9
 72
    10
 73
   -11
  0
VERTEX
  5
17AF
  8
RÁM
 10
0.0
 20
0.0
 30
0.0
 70
   128
 71
     8
 72
    -9
 73
   -11
  0
VERTEX
  5
17B0
  8
RÁM
 10
0.0
 20
0.0
 30
0.0
 70
   128
 71
     7
 72
    -8
 73
   -11
  0
VERTEX
  5
17B1
  8
RÁM
 10
0.0
 20
0.0
 30
0.0
 70
   128
 71
     6
 72
    -7
 73
   -11
  0
VERTEX
  5
17B2
  8
RÁM
 10
0.0
 20
0.0
 30
0.0
 70
   128
 71
     3
 72
     4
 73
    -5
  0
VERTEX
  5
17B3
  8
RÁM
 10
0.0
 20
0.0
 30
0.0
 70
   128
 71
     2
 72
    -3
 73
    -5
  0
VERTEX
  5
17B4
  8
RÁM
 10
0.0
 20
0.0
 30
0.0
 70
   128
 71
     1
 72
    -2
 73
    -5
  0
VERTEX
  5
17B5
  8
RÁM
 10
0.0
 20
0.0
 30
0.0
 70
   128
 71
   -18
 72
    -1
 73
    -5
  0
VERTEX
  5
17B6
  8
RÁM
 10
0.0
 20
0.0
 30
0.0
 70
   128
 71
    -6
 72
   -11
 73
   -18
  0
VERTEX
  5
17B7
  8
RÁM
 10
0.0
 20
0.0
 30
0.0
 70
   128
 71
     5
 72
    -6
 73
   -18
  0
VERTEX
  5
17B8
  8
RÁM
 10
0.0
 20
0.0
 30
0.0
 70
   128
 71
    11
 72
   -12
 73
   -18
  0
VERTEX
  5
17B9
  8
RÁM
 10
0.0
 20
0.0
 30
0.0
 70
   128
 71
   -12
 72
    17
 73
   -18
  0
VERTEX
  5
17BA
  8
RÁM
 10
0.0
 20
0.0
 30
0.0
 70
   128
 71
    15
 72
    16
 73
   -17
  0
VERTEX
  5
17BB
  8
RÁM
 10
0.0
 20
0.0
 30
0.0
 70
   128
 71
    14
 72
   -15
 73
   -17
  0
VERTEX
  5
17BC
  8
RÁM
 10
0.0
 20
0.0
 30
0.0
 70
   128
 71
    13
 72
   -14
 73
   -17
  0
VERTEX
  5
17BD
  8
RÁM
 10
0.0
 20
0.0
 30
0.0
 70
   128
 71
    12
 72
   -13
 73
   -17
  0
VERTEX
  5
17BE
  8
RÁM
 10
0.0
 20
0.0
 30
0.0
 70
   128
 71
   -18
 72
   -23
 73
    -1
  0
VERTEX
  5
17BF
  8
RÁM
 10
0.0
 20
0.0
 30
0.0
 70
   128
 71
    19
 72
   -20
 73
   -23
  0
VERTEX
  5
17C0
  8
RÁM
 10
0.0
 20
0.0
 30
0.0
 70
   128
 71
    18
 72
   -19
 73
   -23
  0
VERTEX
  5
17C1
  8
RÁM
 10
0.0
 20
0.0
 30
0.0
 70
   128
 71
    21
 72
    22
 73
   -23
  0
VERTEX
  5
17C2
  8
RÁM
 10
0.0
 20
0.0
 30
0.0
 70
   128
 71
    20
 72
   -21
 73
   -23
  0
VERTEX
  5
17C3
  8
RÁM
 10
0.0
 20
0.0
 30
0.0
 70
   128
 71
    24
 72
    25
 73
    -1
  0
VERTEX
  5
17C4
  8
RÁM
 10
0.0
 20
0.0
 30
0.0
 70
   128
 71
    23
 72
   -24
 73
    -1
  0
SEQEND
  5
2146
  8
RÁM
  0
POLYLINE
  5
17C5
  8
RÁM
 66
     1
 10
0.0
 20
0.0
 30
0.0
 70
    64
 71
    21
 72
    19
  0
VERTEX
  5
17C6
  8
RÁM
 10
-271.2101733706166
 20
0.0
 30
-9.8499997584866
 70
   192
  0
VERTEX
  5
17C7
  8
RÁM
 10
-271.2637632091028
 20
0.0
 30
-10.0499997584866
 70
   192
  0
VERTEX
  5
17C8
  8
RÁM
 10
-271.4101733706166
 20
0.0
 30
-10.19640992000038
 70
   192
  0
VERTEX
  5
17C9
  8
RÁM
 10
-271.6101733706166
 20
0.0
 30
-10.24999975848661
 70
   192
  0
VERTEX
  5
17CA
  8
RÁM
 10
-306.6669003679966
 20
0.0
 30
-10.24999975848661
 70
   192
  0
VERTEX
  5
17CB
  8
RÁM
 10
-306.6669003679966
 20
0.0
 30
-12.05000030328995
 70
   192
  0
VERTEX
  5
17CC
  8
RÁM
 10
-315.6125958434279
 20
0.0
 30
-18.01379728444236
 70
   192
  0
VERTEX
  5
17CD
  8
RÁM
 10
-315.6498144469415
 20
0.0
 30
-18.03364935010747
 70
   192
  0
VERTEX
  5
17CE
  8
RÁM
 10
-315.6901865916867
 20
0.0
 30
-18.0458730519751
 70
   192
  0
VERTEX
  5
17CF
  8
RÁM
 10
-315.7321662864157
 20
0.0
 30
-18.05000030155944
 70
   192
  0
VERTEX
  5
17D0
  8
RÁM
 10
-344.8669003679577
 20
0.0
 30
-18.05000030155944
 70
   192
  0
VERTEX
  5
17D1
  8
RÁM
 10
-344.8669003679577
 20
0.0
 30
11.94999969674827
 70
   192
  0
VERTEX
  5
17D2
  8
RÁM
 10
-306.8669003679584
 20
0.0
 30
11.94999969674826
 70
   192
  0
VERTEX
  5
17D3
  8
RÁM
 10
-306.7669003679775
 20
0.0
 30
11.92320477751027
 70
   192
  0
VERTEX
  5
17D4
  8
RÁM
 10
-306.6936952872346
 20
0.0
 30
11.84999969676737
 70
   192
  0
VERTEX
  5
17D5
  8
RÁM
 10
-306.6669003679966
 20
0.0
 30
11.74999969678648
 70
   192
  0
VERTEX
  5
17D6
  8
RÁM
 10
-306.6669003679966
 20
0.0
 30
9.749998971876789
 70
   192
  0
VERTEX
  5
17D7
  8
RÁM
 10
-271.7101733694994
 20
0.0
 30
9.749998971876787
 70
   192
  0
VERTEX
  5
17D8
  8
RÁM
 10
-271.460173370058
 20
0.0
 30
9.683011673918678
 70
   192
  0
VERTEX
  5
17D9
  8
RÁM
 10
-271.2771606685747
 20
0.0
 30
9.499998972435368
 70
   192
  0
VERTEX
  5
17DA
  8
RÁM
 10
-271.2101733706166
 20
0.0
 30
9.249998972993946
 70
   192
  0
VERTEX
  5
17DB
  8
RÁM
 10
0.0
 20
0.0
 30
0.0
 70
   128
 71
    17
 72
    16
 73
   -15
  0
VERTEX
  5
17DC
  8
RÁM
 10
0.0
 20
0.0
 30
0.0
 70
   128
 71
   -17
 72
    15
 73
   -14
  0
VERTEX
  5
17DD
  8
RÁM
 10
0.0
 20
0.0
 30
0.0
 70
   128
 71
   -17
 72
    14
 73
   -13
  0
VERTEX
  5
17DE
  8
RÁM
 10
0.0
 20
0.0
 30
0.0
 70
   128
 71
   -17
 72
    13
 73
   -12
  0
VERTEX
  5
17DF
  8
RÁM
 10
0.0
 20
0.0
 30
0.0
 70
   128
 71
     5
 72
     4
 73
    -3
  0
VERTEX
  5
17E0
  8
RÁM
 10
0.0
 20
0.0
 30
0.0
 70
   128
 71
    -5
 72
     3
 73
    -2
  0
VERTEX
  5
17E1
  8
RÁM
 10
0.0
 20
0.0
 30
0.0
 70
   128
 71
    -5
 72
     2
 73
    -1
  0
VERTEX
  5
17E2
  8
RÁM
 10
0.0
 20
0.0
 30
0.0
 70
   128
 71
    -5
 72
     1
 73
   -21
  0
VERTEX
  5
17E3
  8
RÁM
 10
0.0
 20
0.0
 30
0.0
 70
   128
 71
    -5
 72
    21
 73
   -20
  0
VERTEX
  5
17E4
  8
RÁM
 10
0.0
 20
0.0
 30
0.0
 70
   128
 71
    -5
 72
    20
 73
   -19
  0
VERTEX
  5
17E5
  8
RÁM
 10
0.0
 20
0.0
 30
0.0
 70
   128
 71
    -5
 72
    19
 73
   -18
  0
VERTEX
  5
17E6
  8
RÁM
 10
0.0
 20
0.0
 30
0.0
 70
   128
 71
    -5
 72
    18
 73
   -17
  0
VERTEX
  5
17E7
  8
RÁM
 10
0.0
 20
0.0
 30
0.0
 70
   128
 71
   -17
 72
   -10
 73
    -5
  0
VERTEX
  5
17E8
  8
RÁM
 10
0.0
 20
0.0
 30
0.0
 70
   128
 71
   -10
 72
     7
 73
    -6
  0
VERTEX
  5
17E9
  8
RÁM
 10
0.0
 20
0.0
 30
0.0
 70
   128
 71
   -10
 72
     6
 73
    -5
  0
VERTEX
  5
17EA
  8
RÁM
 10
0.0
 20
0.0
 30
0.0
 70
   128
 71
    10
 72
     9
 73
    -8
  0
VERTEX
  5
17EB
  8
RÁM
 10
0.0
 20
0.0
 30
0.0
 70
   128
 71
   -10
 72
     8
 73
    -7
  0
VERTEX
  5
17EC
  8
RÁM
 10
0.0
 20
0.0
 30
0.0
 70
   128
 71
   -17
 72
    12
 73
   -11
  0
VERTEX
  5
17ED
  8
RÁM
 10
0.0
 20
0.0
 30
0.0
 70
   128
 71
   -17
 72
    11
 73
   -10
  0
SEQEND
  5
2147
  8
RÁM
  0
POLYLINE
  5
17EE
  8
RÁM
 66
     1
 10
0.0
 20
0.0
 30
0.0
 70
    64
 71
     4
 72
     2
  0
VERTEX
  5
17EF
  8
RÁM
 10
-280.2125013678679
 20
18.00000000000001
 30
-2.399998906309486
 70
   192
  0
VERTEX
  5
17F0
  8
RÁM
 10
-280.2125013678679
 20
18.00000000000001
 30
2.399998906309486
 70
   192
  0
VERTEX
  5
17F1
  8
RÁM
 10
-271.2101733706166
 20
18.00000000000001
 30
2.399998906309487
 70
   192
  0
VERTEX
  5
17F2
  8
RÁM
 10
-271.2101733706166
 20
18.0
 30
-2.399998906309487
 70
   192
  0
VERTEX
  5
17F3
  8
RÁM
 10
0.0
 20
0.0
 30
0.0
 70
   128
 71
     3
 72
     4
 73
    -1
  0
VERTEX
  5
17F4
  8
RÁM
 10
0.0
 20
0.0
 30
0.0
 70
   128
 71
     2
 72
    -3
 73
     1
  0
SEQEND
  5
2148
  8
RÁM
  0
ENDBLK
  5
2135
  8
0
  0
BLOCK
  8
0
  2
*X2
 70
     1
 10
0.0
 20
0.0
 30
0.0
  3
*X2
  1

  0
POLYLINE
  5
17F6
  8
RÁM
 66
     1
 10
0.0
 20
0.0
 30
0.0
 70
    64
 71
     8
 72
     6
  0
VERTEX
  5
17F7
  8
RÁM
 10
279.8205113340245
 20
2000.0
 30
-3.200213198482288
 70
   192
  0
VERTEX
  5
17F8
  8
RÁM
 10
279.6374986321328
 20
2000.0
 30
-3.383225900373989
 70
   192
  0
VERTEX
  5
17F9
  8
RÁM
 10
279.6374986321328
 20
18.00000000000001
 30
-3.383225900373989
 70
   192
  0
VERTEX
  5
17FA
  8
RÁM
 10
279.8205113340245
 20
18.00000000000001
 30
-3.200213198482288
 70
   192
  0
VERTEX
  5
17FB
  8
RÁM
 10
279.3874986321335
 20
2000.0
 30
-3.450213198481579
 70
   192
  0
VERTEX
  5
17FC
  8
RÁM
 10
279.3874986321335
 20
18.0
 30
-3.450213198481579
 70
   192
  0
VERTEX
  5
17FD
  8
RÁM
 10
279.8874986321321
 20
2000.0
 30
-2.950213198482995
 70
   192
  0
VERTEX
  5
17FE
  8
RÁM
 10
279.8874986321321
 20
18.00000000000001
 30
-2.950213198482995
 70
   192
  0
VERTEX
  5
17FF
  8
RÁM
 10
0.0
 20
0.0
 30
0.0
 70
   128
 71
     1
 72
     2
 73
    -3
  0
VERTEX
  5
1800
  8
RÁM
 10
0.0
 20
0.0
 30
0.0
 70
   128
 71
     4
 72
    -1
 73
     3
  0
VERTEX
  5
1801
  8
RÁM
 10
0.0
 20
0.0
 30
0.0
 70
   128
 71
     2
 72
     5
 73
    -6
  0
VERTEX
  5
1802
  8
RÁM
 10
0.0
 20
0.0
 30
0.0
 70
   128
 71
     3
 72
    -2
 73
     6
  0
VERTEX
  5
1803
  8
RÁM
 10
0.0
 20
0.0
 30
0.0
 70
   128
 71
     7
 72
     1
 73
    -4
  0
VERTEX
  5
1804
  8
RÁM
 10
0.0
 20
0.0
 30
0.0
 70
   128
 71
     8
 72
    -7
 73
     4
  0
SEQEND
  5
214B
  8
RÁM
  0
POLYLINE
  5
1805
  8
RÁM
 66
     1
 10
0.0
 20
0.0
 30
0.0
 70
    64
 71
     8
 72
     6
  0
VERTEX
  5
1806
  8
RÁM
 10
274.4476194595463
 20
0.0
 30
-4.400001838522874
 70
   192
  0
VERTEX
  5
1807
  8
RÁM
 10
274.4476194595463
 20
2000.0
 30
-4.400001838522874
 70
   192
  0
VERTEX
  5
1808
  8
RÁM
 10
274.6306476900796
 20
2000.0
 30
-4.583157727599051
 70
   192
  0
VERTEX
  5
1809
  8
RÁM
 10
274.6306476900796
 20
0.0
 30
-4.583157727599051
 70
   192
  0
VERTEX
  5
180A
  8
RÁM
 10
274.3807484423384
 20
0.0
 30
-4.149854522061156
 70
   192
  0
VERTEX
  5
180B
  8
RÁM
 10
274.3807484423384
 20
2000.0
 30
-4.149854522061156
 70
   192
  0
VERTEX
  5
180C
  8
RÁM
 10
274.8807483208021
 20
2000.0
 30
-4.650203140474679
 70
   192
  0
VERTEX
  5
180D
  8
RÁM
 10
274.8807483208021
 20
0.0
 30
-4.65020314047468
 70
   192
  0
VERTEX
  5
180E
  8
RÁM
 10
0.0
 20
0.0
 30
0.0
 70
   128
 71
     1
 72
     2
 73
    -3
  0
VERTEX
  5
180F
  8
RÁM
 10
0.0
 20
0.0
 30
0.0
 70
   128
 71
    -1
 72
     3
 73
     4
  0
VERTEX
  5
1810
  8
RÁM
 10
0.0
 20
0.0
 30
0.0
 70
   128
 71
     5
 72
     6
 73
    -2
  0
VERTEX
  5
1811
  8
RÁM
 10
0.0
 20
0.0
 30
0.0
 70
   128
 71
    -5
 72
     2
 73
     1
  0
VERTEX
  5
1812
  8
RÁM
 10
0.0
 20
0.0
 30
0.0
 70
   128
 71
     4
 72
     3
 73
    -7
  0
VERTEX
  5
1813
  8
RÁM
 10
0.0
 20
0.0
 30
0.0
 70
   128
 71
    -4
 72
     7
 73
     8
  0
SEQEND
  5
214C
  8
RÁM
  0
POLYLINE
  5
1814
  8
RÁM
 66
     1
 10
0.0
 20
0.0
 30
0.0
 70
    64
 71
     8
 72
     6
  0
VERTEX
  5
1815
  8
RÁM
 10
284.9710144995743
 20
0.0
 30
-4.650118439861775
 70
   192
  0
VERTEX
  5
1816
  8
RÁM
 10
284.9710144995743
 20
2000.0
 30
-4.650118439861775
 70
   192
  0
VERTEX
  5
1817
  8
RÁM
 10
284.9758812403508
 20
2000.0
 30
-4.650189508266382
 70
   192
  0
VERTEX
  5
1818
  8
RÁM
 10
284.9758812403508
 20
0.0
 30
-4.650189508266382
 70
   192
  0
VERTEX
  5
1819
  8
RÁM
 10
284.9661486811946
 20
0.0
 30
-4.650000000003569
 70
   192
  0
VERTEX
  5
181A
  8
RÁM
 10
284.9661486811946
 20
2000.0
 30
-4.650000000003569
 70
   192
  0
VERTEX
  5
181B
  8
RÁM
 10
284.9807484423476
 20
2000.0
 30
-4.650213198482886
 70
   192
  0
VERTEX
  5
181C
  8
RÁM
 10
284.9807484423476
 20
0.0
 30
-4.650213198482887
 70
   192
  0
VERTEX
  5
181D
  8
RÁM
 10
0.0
 20
0.0
 30
0.0
 70
   128
 71
     1
 72
     2
 73
    -3
  0
VERTEX
  5
181E
  8
RÁM
 10
0.0
 20
0.0
 30
0.0
 70
   128
 71
    -1
 72
     3
 73
     4
  0
VERTEX
  5
181F
  8
RÁM
 10
0.0
 20
0.0
 30
0.0
 70
   128
 71
     5
 72
     6
 73
    -2
  0
VERTEX
  5
1820
  8
RÁM
 10
0.0
 20
0.0
 30
0.0
 70
   128
 71
    -5
 72
     2
 73
     1
  0
VERTEX
  5
1821
  8
RÁM
 10
0.0
 20
0.0
 30
0.0
 70
   128
 71
     4
 72
     3
 73
    -7
  0
VERTEX
  5
1822
  8
RÁM
 10
0.0
 20
0.0
 30
0.0
 70
   128
 71
    -4
 72
     7
 73
     8
  0
SEQEND
  5
214D
  8
RÁM
  0
POLYLINE
  5
1823
  8
RÁM
 66
     1
 10
0.0
 20
0.0
 30
0.0
 70
    64
 71
     8
 72
     6
  0
VERTEX
  5
1824
  8
RÁM
 10
285.5477357404538
 20
0.0
 30
-4.400213198483636
 70
   192
  0
VERTEX
  5
1825
  8
RÁM
 10
285.5477357404538
 20
2000.0
 30
-4.400213198483636
 70
   192
  0
VERTEX
  5
1826
  8
RÁM
 10
285.7307484423454
 20
2000.0
 30
-4.583225900375306
 70
   192
  0
VERTEX
  5
1827
  8
RÁM
 10
285.7307484423454
 20
0.0
 30
-4.583225900375306
 70
   192
  0
VERTEX
  5
1828
  8
RÁM
 10
285.4807484423462
 20
0.0
 30
-4.150213198484384
 70
   192
  0
VERTEX
  5
1829
  8
RÁM
 10
285.4807484423462
 20
2000.0
 30
-4.150213198484384
 70
   192
  0
VERTEX
  5
182A
  8
RÁM
 10
285.9807484423447
 20
2000.0
 30
-4.650213198482886
 70
   192
  0
VERTEX
  5
182B
  8
RÁM
 10
285.9807484423447
 20
0.0
 30
-4.650213198482887
 70
   192
  0
VERTEX
  5
182C
  8
RÁM
 10
0.0
 20
0.0
 30
0.0
 70
   128
 71
     1
 72
     2
 73
    -3
  0
VERTEX
  5
182D
  8
RÁM
 10
0.0
 20
0.0
 30
0.0
 70
   128
 71
    -1
 72
     3
 73
     4
  0
VERTEX
  5
182E
  8
RÁM
 10
0.0
 20
0.0
 30
0.0
 70
   128
 71
     5
 72
     6
 73
    -2
  0
VERTEX
  5
182F
  8
RÁM
 10
0.0
 20
0.0
 30
0.0
 70
   128
 71
    -5
 72
     2
 73
     1
  0
VERTEX
  5
1830
  8
RÁM
 10
0.0
 20
0.0
 30
0.0
 70
   128
 71
     4
 72
     3
 73
    -7
  0
VERTEX
  5
1831
  8
RÁM
 10
0.0
 20
0.0
 30
0.0
 70
   128
 71
    -4
 72
     7
 73
     8
  0
SEQEND
  5
214E
  8
RÁM
  0
POLYLINE
  5
1832
  8
RÁM
 66
     1
 10
0.0
 20
0.0
 30
0.0
 70
    64
 71
    12
 72
    10
  0
VERTEX
  5
1833
  8
RÁM
 10
274.3807484423385
 20
2000.0
 30
-3.299854522061139
 70
   192
  0
VERTEX
  5
1834
  8
RÁM
 10
274.3809594078674
 20
0.0
 30
-3.291901839983626
 70
   192
  0
VERTEX
  5
1835
  8
RÁM
 10
274.3812229756731
 20
18.0
 30
-3.287932491256942
 70
   192
  0
VERTEX
  5
1836
  8
RÁM
 10
274.3812229756731
 20
0.0
 30
-3.287932491256971
 70
   192
  0
VERTEX
  5
1837
  8
RÁM
 10
274.3808011929962
 20
0.0
 30
-3.295876782166412
 70
   192
  0
VERTEX
  5
1838
  8
RÁM
 10
274.3807484423384
 20
0.0
 30
-3.299854522061139
 70
   192
  0
VERTEX
  5
1839
  8
RÁM
 10
274.4595946909382
 20
2000.0
 30
-3.167804744849176
 70
   192
  0
VERTEX
  5
183A
  8
RÁM
 10
274.4019597341571
 20
2000.0
 30
-3.222955441149886
 70
   192
  0
VERTEX
  5
183B
  8
RÁM
 10
274.406217893627
 20
18.00000000000001
 30
-3.216235490509477
 70
   192
  0
VERTEX
  5
183C
  8
RÁM
 10
274.5373531541853
 20
18.00000000000001
 30
-3.150000000002121
 70
   192
  0
VERTEX
  5
183D
  8
RÁM
 10
274.5373531541853
 20
2000.0
 30
-3.15000000000218
 70
   192
  0
VERTEX
  5
183E
  8
RÁM
 10
274.4631214447655
 20
18.00000000000001
 30
-3.165964308829099
 70
   192
  0
VERTEX
  5
183F
  8
RÁM
 10
0.0
 20
0.0
 30
0.0
 70
   128
 71
     1
 72
     2
 73
     3
  0
VERTEX
  5
1840
  8
RÁM
 10
0.0
 20
0.0
 30
0.0
 70
   128
 71
     2
 72
     4
 73
     3
  0
VERTEX
  5
1841
  8
RÁM
 10
0.0
 20
0.0
 30
0.0
 70
   128
 71
     1
 72
     5
 73
     2
  0
VERTEX
  5
1842
  8
RÁM
 10
0.0
 20
0.0
 30
0.0
 70
   128
 71
     1
 72
     6
 73
     5
  0
VERTEX
  5
1843
  8
RÁM
 10
0.0
 20
0.0
 30
0.0
 70
   128
 71
     7
 72
     8
 73
     9
  0
VERTEX
  5
1844
  8
RÁM
 10
0.0
 20
0.0
 30
0.0
 70
   128
 71
     8
 72
     1
 73
     3
  0
VERTEX
  5
1845
  8
RÁM
 10
0.0
 20
0.0
 30
0.0
 70
   128
 71
    10
 72
    11
 73
     7
  0
VERTEX
  5
1846
  8
RÁM
 10
0.0
 20
0.0
 30
0.0
 70
   128
 71
    10
 72
     7
 73
    12
  0
VERTEX
  5
1847
  8
RÁM
 10
0.0
 20
0.0
 30
0.0
 70
   128
 71
    12
 72
     7
 73
     9
  0
VERTEX
  5
1848
  8
RÁM
 10
0.0
 20
0.0
 30
0.0
 70
   128
 71
     9
 72
     8
 73
     3
  0
SEQEND
  5
214F
  8
RÁM
  0
POLYLINE
  5
1849
  8
RÁM
 66
     1
 10
0.0
 20
0.0
 30
0.0
 70
    64
 71
     4
 72
     2
  0
VERTEX
  5
184A
  8
RÁM
 10
319.6807484416252
 20
2000.0
 30
-12.50501298930229
 70
   192
  0
VERTEX
  5
184B
  8
RÁM
 10
319.6807484416252
 20
0.0
 30
-12.50501298930229
 70
   192
  0
VERTEX
  5
184C
  8
RÁM
 10
289.6807484416265
 20
0.0
 30
-12.50501298930229
 70
   192
  0
VERTEX
  5
184D
  8
RÁM
 10
289.6807484416264
 20
2000.0
 30
-12.50501298930229
 70
   192
  0
VERTEX
  5
184E
  8
RÁM
 10
0.0
 20
0.0
 30
0.0
 70
   128
 71
     3
 72
     4
 73
    -1
  0
VERTEX
  5
184F
  8
RÁM
 10
0.0
 20
0.0
 30
0.0
 70
   128
 71
     2
 72
    -3
 73
     1
  0
SEQEND
  5
2150
  8
RÁM
  0
POLYLINE
  5
1850
  8
RÁM
 66
     1
 10
0.0
 20
0.0
 30
0.0
 70
    64
 71
     4
 72
     2
  0
VERTEX
  5
1851
  8
RÁM
 10
289.6807484416264
 20
2000.0
 30
-12.50501298930229
 70
   192
  0
VERTEX
  5
1852
  8
RÁM
 10
289.6807484416264
 20
0.0
 30
-12.50501298930229
 70
   192
  0
VERTEX
  5
1853
  8
RÁM
 10
289.6807484416264
 20
0.0
 30
-1.401175522428813
 70
   192
  0
VERTEX
  5
1854
  8
RÁM
 10
289.6807484416264
 20
2000.0
 30
-1.401175522428813
 70
   192
  0
VERTEX
  5
1855
  8
RÁM
 10
0.0
 20
0.0
 30
0.0
 70
   128
 71
     3
 72
     4
 73
    -1
  0
VERTEX
  5
1856
  8
RÁM
 10
0.0
 20
0.0
 30
0.0
 70
   128
 71
     2
 72
    -3
 73
     1
  0
SEQEND
  5
2151
  8
RÁM
  0
POLYLINE
  5
1857
  8
RÁM
 66
     1
 10
0.0
 20
0.0
 30
0.0
 70
    64
 71
     8
 72
     6
  0
VERTEX
  5
1858
  8
RÁM
 10
287.66949452876
 20
0.0
 30
-4.166739904191163
 70
   192
  0
VERTEX
  5
1859
  8
RÁM
 10
287.66949452876
 20
2000.0
 30
-4.166739904191163
 70
   192
  0
VERTEX
  5
185A
  8
RÁM
 10
288.9855486055212
 20
2000.0
 30
-3.009715524097811
 70
   192
  0
VERTEX
  5
185B
  8
RÁM
 10
288.9855486055212
 20
0.0
 30
-3.009715524097811
 70
   192
  0
VERTEX
  5
185C
  8
RÁM
 10
285.9851619730626
 20
0.0
 30
-4.650193718850042
 70
   192
  0
VERTEX
  5
185D
  8
RÁM
 10
285.9851619730626
 20
2000.0
 30
-4.650193718850039
 70
   192
  0
VERTEX
  5
185E
  8
RÁM
 10
289.6807484416264
 20
2000.0
 30
-1.401175522428817
 70
   192
  0
VERTEX
  5
185F
  8
RÁM
 10
289.6807484416264
 20
0.0
 30
-1.401175522428813
 70
   192
  0
VERTEX
  5
1860
  8
RÁM
 10
0.0
 20
0.0
 30
0.0
 70
   128
 71
     1
 72
     2
 73
    -3
  0
VERTEX
  5
1861
  8
RÁM
 10
0.0
 20
0.0
 30
0.0
 70
   128
 71
    -1
 72
     3
 73
     4
  0
VERTEX
  5
1862
  8
RÁM
 10
0.0
 20
0.0
 30
0.0
 70
   128
 71
     5
 72
     6
 73
    -2
  0
VERTEX
  5
1863
  8
RÁM
 10
0.0
 20
0.0
 30
0.0
 70
   128
 71
    -5
 72
     2
 73
     1
  0
VERTEX
  5
1864
  8
RÁM
 10
0.0
 20
0.0
 30
0.0
 70
   128
 71
     4
 72
     3
 73
    -7
  0
VERTEX
  5
1865
  8
RÁM
 10
0.0
 20
0.0
 30
0.0
 70
   128
 71
    -4
 72
     7
 73
     8
  0
SEQEND
  5
2152
  8
RÁM
  0
POLYLINE
  5
1866
  8
RÁM
 66
     1
 10
0.0
 20
0.0
 30
0.0
 70
    64
 71
     8
 72
     6
  0
VERTEX
  5
1867
  8
RÁM
 10
285.9822196362334
 20
0.0
 30
-4.650211034066744
 70
   192
  0
VERTEX
  5
1868
  8
RÁM
 10
285.9822196362334
 20
2000.0
 30
-4.650211034066744
 70
   192
  0
VERTEX
  5
1869
  8
RÁM
 10
285.9836908173851
 20
2000.0
 30
-4.650204540837053
 70
   192
  0
VERTEX
  5
186A
  8
RÁM
 10
285.9836908173851
 20
0.0
 30
-4.650204540837053
 70
   192
  0
VERTEX
  5
186B
  8
RÁM
 10
285.9807484423447
 20
0.0
 30
-4.650213198482886
 70
   192
  0
VERTEX
  5
186C
  8
RÁM
 10
285.9807484423447
 20
2000.0
 30
-4.650213198482887
 70
   192
  0
VERTEX
  5
186D
  8
RÁM
 10
285.9851619730626
 20
2000.0
 30
-4.650193718850032
 70
   192
  0
VERTEX
  5
186E
  8
RÁM
 10
285.9851619730626
 20
0.0
 30
-4.650193718850039
 70
   192
  0
VERTEX
  5
186F
  8
RÁM
 10
0.0
 20
0.0
 30
0.0
 70
   128
 71
     1
 72
     2
 73
    -3
  0
VERTEX
  5
1870
  8
RÁM
 10
0.0
 20
0.0
 30
0.0
 70
   128
 71
    -1
 72
     3
 73
     4
  0
VERTEX
  5
1871
  8
RÁM
 10
0.0
 20
0.0
 30
0.0
 70
   128
 71
     5
 72
     6
 73
    -2
  0
VERTEX
  5
1872
  8
RÁM
 10
0.0
 20
0.0
 30
0.0
 70
   128
 71
    -5
 72
     2
 73
     1
  0
VERTEX
  5
1873
  8
RÁM
 10
0.0
 20
0.0
 30
0.0
 70
   128
 71
     4
 72
     3
 73
    -7
  0
VERTEX
  5
1874
  8
RÁM
 10
0.0
 20
0.0
 30
0.0
 70
   128
 71
    -4
 72
     7
 73
     8
  0
SEQEND
  5
2153
  8
RÁM
  0
POLYLINE
  5
1875
  8
RÁM
 66
     1
 10
0.0
 20
0.0
 30
0.0
 70
    64
 71
     8
 72
     6
  0
VERTEX
  5
1876
  8
RÁM
 10
285.2307484423469
 20
0.0
 30
-4.583225900375306
 70
   192
  0
VERTEX
  5
1877
  8
RÁM
 10
285.2307484423469
 20
2000.0
 30
-4.583225900375306
 70
   192
  0
VERTEX
  5
1878
  8
RÁM
 10
285.4137611442385
 20
2000.0
 30
-4.400213198483636
 70
   192
  0
VERTEX
  5
1879
  8
RÁM
 10
285.4137611442385
 20
0.0
 30
-4.400213198483636
 70
   192
  0
VERTEX
  5
187A
  8
RÁM
 10
284.9807484423476
 20
0.0
 30
-4.650213198482886
 70
   192
  0
VERTEX
  5
187B
  8
RÁM
 10
284.9807484423476
 20
2000.0
 30
-4.650213198482887
 70
   192
  0
VERTEX
  5
187C
  8
RÁM
 10
285.4807484423462
 20
2000.0
 30
-4.150213198484384
 70
   192
  0
VERTEX
  5
187D
  8
RÁM
 10
285.4807484423462
 20
0.0
 30
-4.150213198484384
 70
   192
  0
VERTEX
  5
187E
  8
RÁM
 10
0.0
 20
0.0
 30
0.0
 70
   128
 71
     1
 72
     2
 73
    -3
  0
VERTEX
  5
187F
  8
RÁM
 10
0.0
 20
0.0
 30
0.0
 70
   128
 71
    -1
 72
     3
 73
     4
  0
VERTEX
  5
1880
  8
RÁM
 10
0.0
 20
0.0
 30
0.0
 70
   128
 71
     5
 72
     6
 73
    -2
  0
VERTEX
  5
1881
  8
RÁM
 10
0.0
 20
0.0
 30
0.0
 70
   128
 71
    -5
 72
     2
 73
     1
  0
VERTEX
  5
1882
  8
RÁM
 10
0.0
 20
0.0
 30
0.0
 70
   128
 71
     4
 72
     3
 73
    -7
  0
VERTEX
  5
1883
  8
RÁM
 10
0.0
 20
0.0
 30
0.0
 70
   128
 71
    -4
 72
     7
 73
     8
  0
SEQEND
  5
2154
  8
RÁM
  0
POLYLINE
  5
1884
  8
RÁM
 66
     1
 10
0.0
 20
0.0
 30
0.0
 70
    64
 71
     4
 72
     2
  0
VERTEX
  5
1885
  8
RÁM
 10
284.9661486811946
 20
2000.0
 30
-4.650000000003569
 70
   192
  0
VERTEX
  5
1886
  8
RÁM
 10
284.9661486811946
 20
0.0
 30
-4.650000000003569
 70
   192
  0
VERTEX
  5
1887
  8
RÁM
 10
274.8949996086412
 20
0.0
 30
-4.650000000003569
 70
   192
  0
VERTEX
  5
1888
  8
RÁM
 10
274.8949996086411
 20
2000.0
 30
-4.650000000003569
 70
   192
  0
VERTEX
  5
1889
  8
RÁM
 10
0.0
 20
0.0
 30
0.0
 70
   128
 71
     3
 72
     4
 73
    -1
  0
VERTEX
  5
188A
  8
RÁM
 10
0.0
 20
0.0
 30
0.0
 70
   128
 71
     2
 72
    -3
 73
     1
  0
SEQEND
  5
2155
  8
RÁM
  0
POLYLINE
  5
188B
  8
RÁM
 66
     1
 10
0.0
 20
0.0
 30
0.0
 70
    64
 71
     8
 72
     6
  0
VERTEX
  5
188C
  8
RÁM
 10
274.8854993220266
 20
0.0
 30
-4.650180567952525
 70
   192
  0
VERTEX
  5
188D
  8
RÁM
 10
274.8854993220266
 20
2000.0
 30
-4.650180567952525
 70
   192
  0
VERTEX
  5
188E
  8
RÁM
 10
274.8902498942828
 20
2000.0
 30
-4.650112852424138
 70
   192
  0
VERTEX
  5
188F
  8
RÁM
 10
274.8902498942828
 20
0.0
 30
-4.650112852424138
 70
   192
  0
VERTEX
  5
1890
  8
RÁM
 10
274.8807483208021
 20
0.0
 30
-4.650203140474679
 70
   192
  0
VERTEX
  5
1891
  8
RÁM
 10
274.8807483208021
 20
2000.0
 30
-4.65020314047468
 70
   192
  0
VERTEX
  5
1892
  8
RÁM
 10
274.8949996086411
 20
2000.0
 30
-4.650000000003557
 70
   192
  0
VERTEX
  5
1893
  8
RÁM
 10
274.8949996086411
 20
0.0
 30
-4.650000000003569
 70
   192
  0
VERTEX
  5
1894
  8
RÁM
 10
0.0
 20
0.0
 30
0.0
 70
   128
 71
     1
 72
     2
 73
    -3
  0
VERTEX
  5
1895
  8
RÁM
 10
0.0
 20
0.0
 30
0.0
 70
   128
 71
    -1
 72
     3
 73
     4
  0
VERTEX
  5
1896
  8
RÁM
 10
0.0
 20
0.0
 30
0.0
 70
   128
 71
     5
 72
     6
 73
    -2
  0
VERTEX
  5
1897
  8
RÁM
 10
0.0
 20
0.0
 30
0.0
 70
   128
 71
    -5
 72
     2
 73
     1
  0
VERTEX
  5
1898
  8
RÁM
 10
0.0
 20
0.0
 30
0.0
 70
   128
 71
     4
 72
     3
 73
    -7
  0
VERTEX
  5
1899
  8
RÁM
 10
0.0
 20
0.0
 30
0.0
 70
   128
 71
    -4
 72
     7
 73
     8
  0
SEQEND
  5
2156
  8
RÁM
  0
POLYLINE
  5
189A
  8
RÁM
 66
     1
 10
0.0
 20
0.0
 30
0.0
 70
    64
 71
     4
 72
     2
  0
VERTEX
  5
189B
  8
RÁM
 10
274.3807484423384
 20
0.0
 30
-4.149854522061157
 70
   192
  0
VERTEX
  5
189C
  8
RÁM
 10
274.3807484423384
 20
0.0
 30
-3.299854522061139
 70
   192
  0
VERTEX
  5
189D
  8
RÁM
 10
274.3807484423384
 20
2000.0
 30
-3.299854522061139
 70
   192
  0
VERTEX
  5
189E
  8
RÁM
 10
274.3807484423384
 20
2000.0
 30
-4.149854522061157
 70
   192
  0
VERTEX
  5
189F
  8
RÁM
 10
0.0
 20
0.0
 30
0.0
 70
   128
 71
     3
 72
     4
 73
    -1
  0
VERTEX
  5
18A0
  8
RÁM
 10
0.0
 20
0.0
 30
0.0
 70
   128
 71
     2
 72
    -3
 73
     1
  0
SEQEND
  5
2157
  8
RÁM
  0
POLYLINE
  5
18A1
  8
RÁM
 66
     1
 10
0.0
 20
0.0
 30
0.0
 70
    64
 71
     4
 72
     2
  0
VERTEX
  5
18A2
  8
RÁM
 10
274.5373531541853
 20
18.00000000000001
 30
-3.15000000000218
 70
   192
  0
VERTEX
  5
18A3
  8
RÁM
 10
276.885321584299
 20
18.00000000000001
 30
-3.15000000000218
 70
   192
  0
VERTEX
  5
18A4
  8
RÁM
 10
276.8853215842991
 20
2000.0
 30
-3.15000000000218
 70
   192
  0
VERTEX
  5
18A5
  8
RÁM
 10
274.5373531541853
 20
2000.0
 30
-3.15000000000218
 70
   192
  0
VERTEX
  5
18A6
  8
RÁM
 10
0.0
 20
0.0
 30
0.0
 70
   128
 71
     3
 72
     4
 73
    -1
  0
VERTEX
  5
18A7
  8
RÁM
 10
0.0
 20
0.0
 30
0.0
 70
   128
 71
     2
 72
    -3
 73
     1
  0
SEQEND
  5
2158
  8
RÁM
  0
POLYLINE
  5
18A8
  8
RÁM
 66
     1
 10
0.0
 20
0.0
 30
0.0
 70
    64
 71
     4
 72
     2
  0
VERTEX
  5
18A9
  8
RÁM
 10
276.8853215842991
 20
18.00000000000001
 30
-3.15000000000218
 70
   192
  0
VERTEX
  5
18AA
  8
RÁM
 10
276.8853215842991
 20
18.00000000000001
 30
-3.45000000000218
 70
   192
  0
VERTEX
  5
18AB
  8
RÁM
 10
276.8853215842991
 20
2000.0
 30
-3.45000000000218
 70
   192
  0
VERTEX
  5
18AC
  8
RÁM
 10
276.8853215842991
 20
2000.0
 30
-3.15000000000218
 70
   192
  0
VERTEX
  5
18AD
  8
RÁM
 10
0.0
 20
0.0
 30
0.0
 70
   128
 71
     3
 72
     4
 73
    -1
  0
VERTEX
  5
18AE
  8
RÁM
 10
0.0
 20
0.0
 30
0.0
 70
   128
 71
     2
 72
    -3
 73
     1
  0
SEQEND
  5
2159
  8
RÁM
  0
POLYLINE
  5
18AF
  8
RÁM
 66
     1
 10
0.0
 20
0.0
 30
0.0
 70
    64
 71
     4
 72
     2
  0
VERTEX
  5
18B0
  8
RÁM
 10
276.885321584299
 20
18.00000000000001
 30
-3.45000000000218
 70
   192
  0
VERTEX
  5
18B1
  8
RÁM
 10
279.3728988709805
 20
18.00000000000001
 30
-3.45000000000218
 70
   192
  0
VERTEX
  5
18B2
  8
RÁM
 10
279.3728988709805
 20
2000.0
 30
-3.45000000000218
 70
   192
  0
VERTEX
  5
18B3
  8
RÁM
 10
276.885321584299
 20
2000.0
 30
-3.45000000000218
 70
   192
  0
VERTEX
  5
18B4
  8
RÁM
 10
0.0
 20
0.0
 30
0.0
 70
   128
 71
     3
 72
     4
 73
    -1
  0
VERTEX
  5
18B5
  8
RÁM
 10
0.0
 20
0.0
 30
0.0
 70
   128
 71
     2
 72
    -3
 73
     1
  0
SEQEND
  5
215A
  8
RÁM
  0
POLYLINE
  5
18B6
  8
RÁM
 66
     1
 10
0.0
 20
0.0
 30
0.0
 70
    64
 71
     8
 72
     6
  0
VERTEX
  5
18B7
  8
RÁM
 10
279.3826314301367
 20
2000.0
 30
-3.450189508265075
 70
   192
  0
VERTEX
  5
18B8
  8
RÁM
 10
279.3777646893602
 20
2000.0
 30
-3.450118439860468
 70
   192
  0
VERTEX
  5
18B9
  8
RÁM
 10
279.3777646893602
 20
18.00000000000001
 30
-3.450118439860468
 70
   192
  0
VERTEX
  5
18BA
  8
RÁM
 10
279.3826314301367
 20
18.00000000000001
 30
-3.450189508265075
 70
   192
  0
VERTEX
  5
18BB
  8
RÁM
 10
279.3728988709805
 20
2000.0
 30
-3.450000000002262
 70
   192
  0
VERTEX
  5
18BC
  8
RÁM
 10
279.3728988709805
 20
18.0
 30
-3.45000000000218
 70
   192
  0
VERTEX
  5
18BD
  8
RÁM
 10
279.3874986321335
 20
2000.0
 30
-3.450213198481579
 70
   192
  0
VERTEX
  5
18BE
  8
RÁM
 10
279.3874986321335
 20
18.0
 30
-3.450213198481579
 70
   192
  0
VERTEX
  5
18BF
  8
RÁM
 10
0.0
 20
0.0
 30
0.0
 70
   128
 71
     1
 72
     2
 73
    -3
  0
VERTEX
  5
18C0
  8
RÁM
 10
0.0
 20
0.0
 30
0.0
 70
   128
 71
     4
 72
    -1
 73
     3
  0
VERTEX
  5
18C1
  8
RÁM
 10
0.0
 20
0.0
 30
0.0
 70
   128
 71
     2
 72
     5
 73
    -6
  0
VERTEX
  5
18C2
  8
RÁM
 10
0.0
 20
0.0
 30
0.0
 70
   128
 71
     3
 72
    -2
 73
     6
  0
VERTEX
  5
18C3
  8
RÁM
 10
0.0
 20
0.0
 30
0.0
 70
   128
 71
     7
 72
     1
 73
    -4
  0
VERTEX
  5
18C4
  8
RÁM
 10
0.0
 20
0.0
 30
0.0
 70
   128
 71
     8
 72
    -7
 73
     4
  0
SEQEND
  5
215B
  8
RÁM
  0
POLYLINE
  5
18C5
  8
RÁM
 66
     1
 10
0.0
 20
0.0
 30
0.0
 70
    64
 71
     4
 72
     2
  0
VERTEX
  5
18C6
  8
RÁM
 10
279.8874986321322
 20
2000.0
 30
-2.950213198482996
 70
   192
  0
VERTEX
  5
18C7
  8
RÁM
 10
279.8874986321322
 20
2000.0
 30
2.950213198482795
 70
   192
  0
VERTEX
  5
18C8
  8
RÁM
 10
279.8874986321322
 20
18.00000000000001
 30
2.950213198482795
 70
   192
  0
VERTEX
  5
18C9
  8
RÁM
 10
279.8874986321322
 20
18.0
 30
-2.950213198482995
 70
   192
  0
VERTEX
  5
18CA
  8
RÁM
 10
0.0
 20
0.0
 30
0.0
 70
   128
 71
     1
 72
     4
 73
    -3
  0
VERTEX
  5
18CB
  8
RÁM
 10
0.0
 20
0.0
 30
0.0
 70
   128
 71
    -1
 72
     3
 73
     2
  0
SEQEND
  5
215C
  8
RÁM
  0
POLYLINE
  5
18CC
  8
RÁM
 66
     1
 10
0.0
 20
0.0
 30
0.0
 70
    64
 71
     8
 72
     6
  0
VERTEX
  5
18CD
  8
RÁM
 10
279.6290214111016
 20
2000.0
 30
3.388010808387356
 70
   192
  0
VERTEX
  5
18CE
  8
RÁM
 10
279.8180572166968
 20
2000.0
 30
3.204416473948443
 70
   192
  0
VERTEX
  5
18CF
  8
RÁM
 10
279.8180572166968
 20
18.00000000000001
 30
3.204416473948443
 70
   192
  0
VERTEX
  5
18D0
  8
RÁM
 10
279.6290214111016
 20
18.00000000000001
 30
3.388010808387356
 70
   192
  0
VERTEX
  5
18D1
  8
RÁM
 10
279.8874986321322
 20
2000.0
 30
2.950213198482795
 70
   192
  0
VERTEX
  5
18D2
  8
RÁM
 10
279.8874986321322
 20
18.00000000000001
 30
2.950213198482795
 70
   192
  0
VERTEX
  5
18D3
  8
RÁM
 10
279.3728988709805
 20
2000.0
 30
3.450000000001978
 70
   192
  0
VERTEX
  5
18D4
  8
RÁM
 10
279.3728988709805
 20
18.00000000000001
 30
3.450000000002003
 70
   192
  0
VERTEX
  5
18D5
  8
RÁM
 10
0.0
 20
0.0
 30
0.0
 70
   128
 71
     1
 72
     2
 73
    -3
  0
VERTEX
  5
18D6
  8
RÁM
 10
0.0
 20
0.0
 30
0.0
 70
   128
 71
     4
 72
    -1
 73
     3
  0
VERTEX
  5
18D7
  8
RÁM
 10
0.0
 20
0.0
 30
0.0
 70
   128
 71
     2
 72
     5
 73
    -6
  0
VERTEX
  5
18D8
  8
RÁM
 10
0.0
 20
0.0
 30
0.0
 70
   128
 71
     3
 72
    -2
 73
     6
  0
VERTEX
  5
18D9
  8
RÁM
 10
0.0
 20
0.0
 30
0.0
 70
   128
 71
     7
 72
     1
 73
    -4
  0
VERTEX
  5
18DA
  8
RÁM
 10
0.0
 20
0.0
 30
0.0
 70
   128
 71
     8
 72
    -7
 73
     4
  0
SEQEND
  5
215D
  8
RÁM
  0
POLYLINE
  5
18DB
  8
RÁM
 66
     1
 10
0.0
 20
0.0
 30
0.0
 70
    64
 71
     4
 72
     2
  0
VERTEX
  5
18DC
  8
RÁM
 10
279.3728988709805
 20
18.00000000000001
 30
3.450000000001978
 70
   192
  0
VERTEX
  5
18DD
  8
RÁM
 10
276.8874986321334
 20
18.00000000000001
 30
3.450000000001978
 70
   192
  0
VERTEX
  5
18DE
  8
RÁM
 10
276.8874986321334
 20
2000.0
 30
3.450000000001978
 70
   192
  0
VERTEX
  5
18DF
  8
RÁM
 10
279.3728988709805
 20
2000.0
 30
3.450000000001978
 70
   192
  0
VERTEX
  5
18E0
  8
RÁM
 10
0.0
 20
0.0
 30
0.0
 70
   128
 71
     3
 72
     4
 73
    -1
  0
VERTEX
  5
18E1
  8
RÁM
 10
0.0
 20
0.0
 30
0.0
 70
   128
 71
     2
 72
    -3
 73
     1
  0
SEQEND
  5
215E
  8
RÁM
  0
POLYLINE
  5
18E2
  8
RÁM
 66
     1
 10
0.0
 20
0.0
 30
0.0
 70
    64
 71
     4
 72
     2
  0
VERTEX
  5
18E3
  8
RÁM
 10
276.8874986321334
 20
18.00000000000001
 30
3.450000000001978
 70
   192
  0
VERTEX
  5
18E4
  8
RÁM
 10
276.8874986321334
 20
18.00000000000001
 30
3.150000000001979
 70
   192
  0
VERTEX
  5
18E5
  8
RÁM
 10
276.8874986321334
 20
2000.0
 30
3.150000000001979
 70
   192
  0
VERTEX
  5
18E6
  8
RÁM
 10
276.8874986321334
 20
2000.0
 30
3.450000000001978
 70
   192
  0
VERTEX
  5
18E7
  8
RÁM
 10
0.0
 20
0.0
 30
0.0
 70
   128
 71
     3
 72
     4
 73
    -1
  0
VERTEX
  5
18E8
  8
RÁM
 10
0.0
 20
0.0
 30
0.0
 70
   128
 71
     2
 72
    -3
 73
     1
  0
SEQEND
  5
215F
  8
RÁM
  0
POLYLINE
  5
18E9
  8
RÁM
 66
     1
 10
0.0
 20
0.0
 30
0.0
 70
    64
 71
     4
 72
     2
  0
VERTEX
  5
18EA
  8
RÁM
 10
276.8874986321334
 20
18.00000000000001
 30
3.150000000001979
 70
   192
  0
VERTEX
  5
18EB
  8
RÁM
 10
274.5351761063511
 20
18.00000000000001
 30
3.150000000001979
 70
   192
  0
VERTEX
  5
18EC
  8
RÁM
 10
274.5351761063511
 20
2000.0
 30
3.150000000001979
 70
   192
  0
VERTEX
  5
18ED
  8
RÁM
 10
276.8874986321334
 20
2000.0
 30
3.150000000001979
 70
   192
  0
VERTEX
  5
18EE
  8
RÁM
 10
0.0
 20
0.0
 30
0.0
 70
   128
 71
     3
 72
     4
 73
    -1
  0
VERTEX
  5
18EF
  8
RÁM
 10
0.0
 20
0.0
 30
0.0
 70
   128
 71
     2
 72
    -3
 73
     1
  0
SEQEND
  5
2160
  8
RÁM
  0
POLYLINE
  5
18F0
  8
RÁM
 66
     1
 10
0.0
 20
0.0
 30
0.0
 70
    64
 71
     8
 72
     6
  0
VERTEX
  5
18F1
  8
RÁM
 10
274.4031263291392
 20
18.00000000000001
 30
3.22884624860177
 70
   192
  0
VERTEX
  5
18F2
  8
RÁM
 10
274.4031263291392
 20
2000.0
 30
3.22884624860177
 70
   192
  0
VERTEX
  5
18F3
  8
RÁM
 10
274.4582770254398
 20
2000.0
 30
3.171211291820646
 70
   192
  0
VERTEX
  5
18F4
  8
RÁM
 10
274.4582770254398
 20
18.00000000000001
 30
3.171211291820646
 70
   192
  0
VERTEX
  5
18F5
  8
RÁM
 10
274.3853215842922
 20
18.00000000000001
 30
3.306604711848843
 70
   192
  0
VERTEX
  5
18F6
  8
RÁM
 10
274.3853215842922
 20
2000.0
 30
3.306604711848843
 70
   192
  0
VERTEX
  5
18F7
  8
RÁM
 10
274.5351761063511
 20
2000.0
 30
3.150000000001979
 70
   192
  0
VERTEX
  5
18F8
  8
RÁM
 10
274.5351761063511
 20
18.0
 30
3.150000000001979
 70
   192
  0
VERTEX
  5
18F9
  8
RÁM
 10
0.0
 20
0.0
 30
0.0
 70
   128
 71
     1
 72
     2
 73
    -3
  0
VERTEX
  5
18FA
  8
RÁM
 10
0.0
 20
0.0
 30
0.0
 70
   128
 71
    -1
 72
     3
 73
     4
  0
VERTEX
  5
18FB
  8
RÁM
 10
0.0
 20
0.0
 30
0.0
 70
   128
 71
     5
 72
     6
 73
    -2
  0
VERTEX
  5
18FC
  8
RÁM
 10
0.0
 20
0.0
 30
0.0
 70
   128
 71
    -5
 72
     2
 73
     1
  0
VERTEX
  5
18FD
  8
RÁM
 10
0.0
 20
0.0
 30
0.0
 70
   128
 71
     4
 72
     3
 73
    -7
  0
VERTEX
  5
18FE
  8
RÁM
 10
0.0
 20
0.0
 30
0.0
 70
   128
 71
    -4
 72
     7
 73
     8
  0
SEQEND
  5
2161
  8
RÁM
  0
POLYLINE
  5
18FF
  8
RÁM
 66
     1
 10
0.0
 20
0.0
 30
0.0
 70
    64
 71
     4
 72
     2
  0
VERTEX
  5
1900
  8
RÁM
 10
274.3853215842922
 20
18.00000000000001
 30
3.306604711848843
 70
   192
  0
VERTEX
  5
1901
  8
RÁM
 10
274.3853215842921
 20
18.00000000000001
 30
4.156604711854634
 70
   192
  0
VERTEX
  5
1902
  8
RÁM
 10
274.3853215842921
 20
2000.0
 30
4.156604711854633
 70
   192
  0
VERTEX
  5
1903
  8
RÁM
 10
274.3853215842922
 20
2000.0
 30
3.306604711848843
 70
   192
  0
VERTEX
  5
1904
  8
RÁM
 10
0.0
 20
0.0
 30
0.0
 70
   128
 71
     3
 72
     4
 73
    -1
  0
VERTEX
  5
1905
  8
RÁM
 10
0.0
 20
0.0
 30
0.0
 70
   128
 71
     2
 72
    -3
 73
     1
  0
SEQEND
  5
2162
  8
RÁM
  0
POLYLINE
  5
1906
  8
RÁM
 66
     1
 10
0.0
 20
0.0
 30
0.0
 70
    64
 71
     9
 72
     7
  0
VERTEX
  5
1907
  8
RÁM
 10
274.649184299715
 20
0.0
 30
4.591177707379385
 70
   192
  0
VERTEX
  5
1908
  8
RÁM
 10
274.649184299715
 20
2000.0
 30
4.591177707379385
 70
   192
  0
VERTEX
  5
1909
  8
RÁM
 10
274.4578961853608
 20
2000.0
 30
4.409931265367685
 70
   192
  0
VERTEX
  5
190A
  8
RÁM
 10
274.4578961853608
 20
0.0
 30
4.409931265367685
 70
   192
  0
VERTEX
  5
190B
  8
RÁM
 10
274.9060526576877
 20
0.0
 30
4.649999999985966
 70
   192
  0
VERTEX
  5
190C
  8
RÁM
 10
274.9060526576877
 20
2000.0
 30
4.649999999985978
 70
   192
  0
VERTEX
  5
190D
  8
RÁM
 10
274.3853215842921
 20
18.0
 30
4.156604711854633
 70
   192
  0
VERTEX
  5
190E
  8
RÁM
 10
274.3853215842921
 20
0.0
 30
4.156604711854634
 70
   192
  0
VERTEX
  5
190F
  8
RÁM
 10
274.3853215842921
 20
2000.0
 30
4.156604711854633
 70
   192
  0
VERTEX
  5
1910
  8
RÁM
 10
0.0
 20
0.0
 30
0.0
 70
   128
 71
     1
 72
     2
 73
    -3
  0
VERTEX
  5
1911
  8
RÁM
 10
0.0
 20
0.0
 30
0.0
 70
   128
 71
    -1
 72
     3
 73
     4
  0
VERTEX
  5
1912
  8
RÁM
 10
0.0
 20
0.0
 30
0.0
 70
   128
 71
     5
 72
     6
 73
    -2
  0
VERTEX
  5
1913
  8
RÁM
 10
0.0
 20
0.0
 30
0.0
 70
   128
 71
    -5
 72
     2
 73
     1
  0
VERTEX
  5
1914
  8
RÁM
 10
0.0
 20
0.0
 30
0.0
 70
   128
 71
     7
 72
     8
 73
    -4
  0
VERTEX
  5
1915
  8
RÁM
 10
0.0
 20
0.0
 30
0.0
 70
   128
 71
    -7
 72
     4
 73
    -3
  0
VERTEX
  5
1916
  8
RÁM
 10
0.0
 20
0.0
 30
0.0
 70
   128
 71
     3
 72
     9
 73
    -7
  0
SEQEND
  5
2163
  8
RÁM
  0
POLYLINE
  5
1917
  8
RÁM
 66
     1
 10
0.0
 20
0.0
 30
0.0
 70
    64
 71
     4
 72
     2
  0
VERTEX
  5
1918
  8
RÁM
 10
274.9060526576877
 20
2000.0
 30
4.649999999985978
 70
   192
  0
VERTEX
  5
1919
  8
RÁM
 10
274.9060526576877
 20
0.0
 30
4.649999999985978
 70
   192
  0
VERTEX
  5
191A
  8
RÁM
 10
284.9693221577555
 20
0.0
 30
4.649999999985978
 70
   192
  0
VERTEX
  5
191B
  8
RÁM
 10
284.9693221577554
 20
2000.0
 30
4.649999999985978
 70
   192
  0
VERTEX
  5
191C
  8
RÁM
 10
0.0
 20
0.0
 30
0.0
 70
   128
 71
     3
 72
     4
 73
    -1
  0
VERTEX
  5
191D
  8
RÁM
 10
0.0
 20
0.0
 30
0.0
 70
   128
 71
     2
 72
    -3
 73
     1
  0
SEQEND
  5
2164
  8
RÁM
  0
POLYLINE
  5
191E
  8
RÁM
 66
     1
 10
0.0
 20
0.0
 30
0.0
 70
    64
 71
     8
 72
     6
  0
VERTEX
  5
191F
  8
RÁM
 10
285.4129172800185
 20
0.0
 30
4.401603968346893
 70
   192
  0
VERTEX
  5
1920
  8
RÁM
 10
285.4129172800185
 20
2000.0
 30
4.401603968346893
 70
   192
  0
VERTEX
  5
1921
  8
RÁM
 10
285.2250472361346
 20
2000.0
 30
4.586391040530311
 70
   192
  0
VERTEX
  5
1922
  8
RÁM
 10
285.2250472361346
 20
0.0
 30
4.586391040530311
 70
   192
  0
VERTEX
  5
1923
  8
RÁM
 10
285.4807484423463
 20
0.0
 30
4.146966286822074
 70
   192
  0
VERTEX
  5
1924
  8
RÁM
 10
285.4807484423463
 20
2000.0
 30
4.146966286822074
 70
   192
  0
VERTEX
  5
1925
  8
RÁM
 10
284.9693221577554
 20
2000.0
 30
4.649999999985937
 70
   192
  0
VERTEX
  5
1926
  8
RÁM
 10
284.9693221577554
 20
0.0
 30
4.649999999985978
 70
   192
  0
VERTEX
  5
1927
  8
RÁM
 10
0.0
 20
0.0
 30
0.0
 70
   128
 71
     1
 72
     2
 73
    -3
  0
VERTEX
  5
1928
  8
RÁM
 10
0.0
 20
0.0
 30
0.0
 70
   128
 71
    -1
 72
     3
 73
     4
  0
VERTEX
  5
1929
  8
RÁM
 10
0.0
 20
0.0
 30
0.0
 70
   128
 71
     5
 72
     6
 73
    -2
  0
VERTEX
  5
192A
  8
RÁM
 10
0.0
 20
0.0
 30
0.0
 70
   128
 71
    -5
 72
     2
 73
     1
  0
VERTEX
  5
192B
  8
RÁM
 10
0.0
 20
0.0
 30
0.0
 70
   128
 71
     4
 72
     3
 73
    -7
  0
VERTEX
  5
192C
  8
RÁM
 10
0.0
 20
0.0
 30
0.0
 70
   128
 71
    -4
 72
     7
 73
     8
  0
SEQEND
  5
2165
  8
RÁM
  0
POLYLINE
  5
192D
  8
RÁM
 66
     1
 10
0.0
 20
0.0
 30
0.0
 70
    64
 71
     8
 72
     6
  0
VERTEX
  5
192E
  8
RÁM
 10
285.7360457022102
 20
0.0
 30
4.579835562077053
 70
   192
  0
VERTEX
  5
192F
  8
RÁM
 10
285.7360457022102
 20
2000.0
 30
4.579835562077053
 70
   192
  0
VERTEX
  5
1930
  8
RÁM
 10
285.5500621719348
 20
2000.0
 30
4.397805630589419
 70
   192
  0
VERTEX
  5
1931
  8
RÁM
 10
285.5500621719348
 20
0.0
 30
4.397805630589419
 70
   192
  0
VERTEX
  5
1932
  8
RÁM
 10
285.9883162663041
 20
0.0
 30
4.643744340682757
 70
   192
  0
VERTEX
  5
1933
  8
RÁM
 10
285.9883162663041
 20
2000.0
 30
4.643744340682741
 70
   192
  0
VERTEX
  5
1934
  8
RÁM
 10
285.4807484423463
 20
2000.0
 30
4.146966286822074
 70
   192
  0
VERTEX
  5
1935
  8
RÁM
 10
285.4807484423463
 20
0.0
 30
4.146966286822074
 70
   192
  0
VERTEX
  5
1936
  8
RÁM
 10
0.0
 20
0.0
 30
0.0
 70
   128
 71
     1
 72
     2
 73
    -3
  0
VERTEX
  5
1937
  8
RÁM
 10
0.0
 20
0.0
 30
0.0
 70
   128
 71
    -1
 72
     3
 73
     4
  0
VERTEX
  5
1938
  8
RÁM
 10
0.0
 20
0.0
 30
0.0
 70
   128
 71
     5
 72
     6
 73
    -2
  0
VERTEX
  5
1939
  8
RÁM
 10
0.0
 20
0.0
 30
0.0
 70
   128
 71
    -5
 72
     2
 73
     1
  0
VERTEX
  5
193A
  8
RÁM
 10
0.0
 20
0.0
 30
0.0
 70
   128
 71
     4
 72
     3
 73
    -7
  0
VERTEX
  5
193B
  8
RÁM
 10
0.0
 20
0.0
 30
0.0
 70
   128
 71
    -4
 72
     7
 73
     8
  0
SEQEND
  5
2166
  8
RÁM
  0
POLYLINE
  5
193C
  8
RÁM
 66
     1
 10
0.0
 20
0.0
 30
0.0
 70
    64
 71
     8
 72
     6
  0
VERTEX
  5
193D
  8
RÁM
 10
288.9804858622038
 20
0.0
 30
3.016210974752426
 70
   192
  0
VERTEX
  5
193E
  8
RÁM
 10
288.9804858622038
 20
2000.0
 30
3.016210974752426
 70
   192
  0
VERTEX
  5
193F
  8
RÁM
 10
287.6662952360402
 20
2000.0
 30
4.164384448928881
 70
   192
  0
VERTEX
  5
1940
  8
RÁM
 10
287.6662952360402
 20
0.0
 30
4.164384448928881
 70
   192
  0
VERTEX
  5
1941
  8
RÁM
 10
289.6807484416263
 20
0.0
 30
1.417764338621172
 70
   192
  0
VERTEX
  5
1942
  8
RÁM
 10
289.6807484416264
 20
2000.0
 30
1.417764338621177
 70
   192
  0
VERTEX
  5
1943
  8
RÁM
 10
285.9883162663041
 20
2000.0
 30
4.643744340682738
 70
   192
  0
VERTEX
  5
1944
  8
RÁM
 10
285.9883162663041
 20
0.0
 30
4.643744340682741
 70
   192
  0
VERTEX
  5
1945
  8
RÁM
 10
0.0
 20
0.0
 30
0.0
 70
   128
 71
     1
 72
     2
 73
    -3
  0
VERTEX
  5
1946
  8
RÁM
 10
0.0
 20
0.0
 30
0.0
 70
   128
 71
    -1
 72
     3
 73
     4
  0
VERTEX
  5
1947
  8
RÁM
 10
0.0
 20
0.0
 30
0.0
 70
   128
 71
     5
 72
     6
 73
    -2
  0
VERTEX
  5
1948
  8
RÁM
 10
0.0
 20
0.0
 30
0.0
 70
   128
 71
    -5
 72
     2
 73
     1
  0
VERTEX
  5
1949
  8
RÁM
 10
0.0
 20
0.0
 30
0.0
 70
   128
 71
     4
 72
     3
 73
    -7
  0
VERTEX
  5
194A
  8
RÁM
 10
0.0
 20
0.0
 30
0.0
 70
   128
 71
    -4
 72
     7
 73
     8
  0
SEQEND
  5
2167
  8
RÁM
  0
POLYLINE
  5
194B
  8
RÁM
 66
     1
 10
0.0
 20
0.0
 30
0.0
 70
    64
 71
     4
 72
     2
  0
VERTEX
  5
194C
  8
RÁM
 10
289.6807484416264
 20
2000.0
 30
1.417764338621177
 70
   192
  0
VERTEX
  5
194D
  8
RÁM
 10
289.6807484416264
 20
0.0
 30
1.417764338621177
 70
   192
  0
VERTEX
  5
194E
  8
RÁM
 10
289.6807484416264
 20
0.0
 30
10.49498701069762
 70
   192
  0
VERTEX
  5
194F
  8
RÁM
 10
289.6807484416264
 20
2000.0
 30
10.49498701069762
 70
   192
  0
VERTEX
  5
1950
  8
RÁM
 10
0.0
 20
0.0
 30
0.0
 70
   128
 71
     3
 72
     4
 73
    -1
  0
VERTEX
  5
1951
  8
RÁM
 10
0.0
 20
0.0
 30
0.0
 70
   128
 71
     2
 72
    -3
 73
     1
  0
SEQEND
  5
2168
  8
RÁM
  0
POLYLINE
  5
1952
  8
RÁM
 66
     1
 10
0.0
 20
0.0
 30
0.0
 70
    64
 71
     4
 72
     2
  0
VERTEX
  5
1953
  8
RÁM
 10
289.6807484416264
 20
2000.0
 30
10.49498701069762
 70
   192
  0
VERTEX
  5
1954
  8
RÁM
 10
289.6807484416264
 20
0.0
 30
10.49498701069762
 70
   192
  0
VERTEX
  5
1955
  8
RÁM
 10
319.6807484416252
 20
0.0
 30
10.49498701069762
 70
   192
  0
VERTEX
  5
1956
  8
RÁM
 10
319.6807484416252
 20
2000.0
 30
10.49498701069762
 70
   192
  0
VERTEX
  5
1957
  8
RÁM
 10
0.0
 20
0.0
 30
0.0
 70
   128
 71
     3
 72
     4
 73
    -1
  0
VERTEX
  5
1958
  8
RÁM
 10
0.0
 20
0.0
 30
0.0
 70
   128
 71
     2
 72
    -3
 73
     1
  0
SEQEND
  5
2169
  8
RÁM
  0
POLYLINE
  5
1959
  8
RÁM
 66
     1
 10
0.0
 20
0.0
 30
0.0
 70
    64
 71
     4
 72
     2
  0
VERTEX
  5
195A
  8
RÁM
 10
319.6807484416252
 20
2000.0
 30
10.49498701069762
 70
   192
  0
VERTEX
  5
195B
  8
RÁM
 10
319.6807484416252
 20
0.0
 30
10.49498701069762
 70
   192
  0
VERTEX
  5
195C
  8
RÁM
 10
319.6807484416252
 20
0.0
 30
-12.50501298930229
 70
   192
  0
VERTEX
  5
195D
  8
RÁM
 10
319.6807484416252
 20
2000.0
 30
-12.50501298930229
 70
   192
  0
VERTEX
  5
195E
  8
RÁM
 10
0.0
 20
0.0
 30
0.0
 70
   128
 71
     3
 72
     4
 73
    -1
  0
VERTEX
  5
195F
  8
RÁM
 10
0.0
 20
0.0
 30
0.0
 70
   128
 71
     2
 72
    -3
 73
     1
  0
SEQEND
  5
216A
  8
RÁM
  0
POLYLINE
  5
1960
  8
RÁM
 66
     1
 10
0.0
 20
0.0
 30
0.0
 70
    64
 71
    64
 72
    62
  0
VERTEX
  5
1961
  8
RÁM
 10
319.6807484416252
 20
2000.0
 30
-12.50501298930229
 70
   192
  0
VERTEX
  5
1962
  8
RÁM
 10
289.6807484416265
 20
2000.0
 30
-12.50501298930229
 70
   192
  0
VERTEX
  5
1963
  8
RÁM
 10
289.6807484416264
 20
2000.0
 30
-1.401175522428813
 70
   192
  0
VERTEX
  5
1964
  8
RÁM
 10
288.9855486055212
 20
2000.0
 30
-3.009715524097811
 70
   192
  0
VERTEX
  5
1965
  8
RÁM
 10
287.66949452876
 20
2000.0
 30
-4.166739904191163
 70
   192
  0
VERTEX
  5
1966
  8
RÁM
 10
285.9851619730626
 20
2000.0
 30
-4.650193718850042
 70
   192
  0
VERTEX
  5
1967
  8
RÁM
 10
285.9836908173851
 20
2000.0
 30
-4.650204540837053
 70
   192
  0
VERTEX
  5
1968
  8
RÁM
 10
285.9822196362334
 20
2000.0
 30
-4.650211034066744
 70
   192
  0
VERTEX
  5
1969
  8
RÁM
 10
285.9807484423447
 20
2000.0
 30
-4.650213198482886
 70
   192
  0
VERTEX
  5
196A
  8
RÁM
 10
285.7307484423454
 20
2000.0
 30
-4.583225900375306
 70
   192
  0
VERTEX
  5
196B
  8
RÁM
 10
285.5477357404538
 20
2000.0
 30
-4.400213198483636
 70
   192
  0
VERTEX
  5
196C
  8
RÁM
 10
285.4807484423462
 20
2000.0
 30
-4.150213198484384
 70
   192
  0
VERTEX
  5
196D
  8
RÁM
 10
285.4137611442385
 20
2000.0
 30
-4.400213198483636
 70
   192
  0
VERTEX
  5
196E
  8
RÁM
 10
285.2307484423469
 20
2000.0
 30
-4.583225900375306
 70
   192
  0
VERTEX
  5
196F
  8
RÁM
 10
284.9807484423476
 20
2000.0
 30
-4.650213198482886
 70
   192
  0
VERTEX
  5
1970
  8
RÁM
 10
284.9758812403508
 20
2000.0
 30
-4.650189508266382
 70
   192
  0
VERTEX
  5
1971
  8
RÁM
 10
284.9710144995743
 20
2000.0
 30
-4.650118439861775
 70
   192
  0
VERTEX
  5
1972
  8
RÁM
 10
284.9661486811946
 20
2000.0
 30
-4.650000000003569
 70
   192
  0
VERTEX
  5
1973
  8
RÁM
 10
274.8949996086412
 20
2000.0
 30
-4.650000000003569
 70
   192
  0
VERTEX
  5
1974
  8
RÁM
 10
274.8902498942828
 20
2000.0
 30
-4.650112852424138
 70
   192
  0
VERTEX
  5
1975
  8
RÁM
 10
274.8854993220266
 20
2000.0
 30
-4.650180567952525
 70
   192
  0
VERTEX
  5
1976
  8
RÁM
 10
274.8807483208021
 20
2000.0
 30
-4.650203140474679
 70
   192
  0
VERTEX
  5
1977
  8
RÁM
 10
274.6306476900796
 20
2000.0
 30
-4.583157727599051
 70
   192
  0
VERTEX
  5
1978
  8
RÁM
 10
274.4476194595463
 20
2000.0
 30
-4.400001838522874
 70
   192
  0
VERTEX
  5
1979
  8
RÁM
 10
274.3807484423384
 20
2000.0
 30
-4.149854522061156
 70
   192
  0
VERTEX
  5
197A
  8
RÁM
 10
274.3807484423384
 20
2000.0
 30
-3.299854522061139
 70
   192
  0
VERTEX
  5
197B
  8
RÁM
 10
274.4019597341571
 20
2000.0
 30
-3.222955441149886
 70
   192
  0
VERTEX
  5
197C
  8
RÁM
 10
274.4595946909382
 20
2000.0
 30
-3.167804744849176
 70
   192
  0
VERTEX
  5
197D
  8
RÁM
 10
274.5373531541853
 20
2000.0
 30
-3.150000000002121
 70
   192
  0
VERTEX
  5
197E
  8
RÁM
 10
276.885321584299
 20
2000.0
 30
-3.15000000000218
 70
   192
  0
VERTEX
  5
197F
  8
RÁM
 10
276.8853215842991
 20
2000.0
 30
-3.45000000000218
 70
   192
  0
VERTEX
  5
1980
  8
RÁM
 10
279.3728988709805
 20
2000.0
 30
-3.45000000000218
 70
   192
  0
VERTEX
  5
1981
  8
RÁM
 10
279.3777646893602
 20
2000.0
 30
-3.450118439860468
 70
   192
  0
VERTEX
  5
1982
  8
RÁM
 10
279.3826314301367
 20
2000.0
 30
-3.450189508265075
 70
   192
  0
VERTEX
  5
1983
  8
RÁM
 10
279.3874986321335
 20
2000.0
 30
-3.450213198481579
 70
   192
  0
VERTEX
  5
1984
  8
RÁM
 10
279.6374986321328
 20
2000.0
 30
-3.383225900373989
 70
   192
  0
VERTEX
  5
1985
  8
RÁM
 10
279.8205113340245
 20
2000.0
 30
-3.200213198482288
 70
   192
  0
VERTEX
  5
1986
  8
RÁM
 10
279.8874986321321
 20
2000.0
 30
-2.950213198482995
 70
   192
  0
VERTEX
  5
1987
  8
RÁM
 10
279.8874986321322
 20
2000.0
 30
2.950213198482795
 70
   192
  0
VERTEX
  5
1988
  8
RÁM
 10
279.8180572166968
 20
2000.0
 30
3.204416473948443
 70
   192
  0
VERTEX
  5
1989
  8
RÁM
 10
279.6290214111016
 20
2000.0
 30
3.388010808387356
 70
   192
  0
VERTEX
  5
198A
  8
RÁM
 10
279.3728988709805
 20
2000.0
 30
3.450000000002003
 70
   192
  0
VERTEX
  5
198B
  8
RÁM
 10
276.8874986321334
 20
2000.0
 30
3.450000000001978
 70
   192
  0
VERTEX
  5
198C
  8
RÁM
 10
276.8874986321334
 20
2000.0
 30
3.150000000001979
 70
   192
  0
VERTEX
  5
198D
  8
RÁM
 10
274.5351761063511
 20
2000.0
 30
3.150000000001979
 70
   192
  0
VERTEX
  5
198E
  8
RÁM
 10
274.4582770254398
 20
2000.0
 30
3.171211291820646
 70
   192
  0
VERTEX
  5
198F
  8
RÁM
 10
274.4031263291392
 20
2000.0
 30
3.22884624860177
 70
   192
  0
VERTEX
  5
1990
  8
RÁM
 10
274.3853215842922
 20
2000.0
 30
3.306604711848843
 70
   192
  0
VERTEX
  5
1991
  8
RÁM
 10
274.3853215842921
 20
2000.0
 30
4.156604711854633
 70
   192
  0
VERTEX
  5
1992
  8
RÁM
 10
274.4578961853608
 20
2000.0
 30
4.409931265367685
 70
   192
  0
VERTEX
  5
1993
  8
RÁM
 10
274.649184299715
 20
2000.0
 30
4.591177707379385
 70
   192
  0
VERTEX
  5
1994
  8
RÁM
 10
274.9060526576877
 20
2000.0
 30
4.649999999985966
 70
   192
  0
VERTEX
  5
1995
  8
RÁM
 10
284.9693221577555
 20
2000.0
 30
4.649999999985978
 70
   192
  0
VERTEX
  5
1996
  8
RÁM
 10
285.2250472361346
 20
2000.0
 30
4.586391040530311
 70
   192
  0
VERTEX
  5
1997
  8
RÁM
 10
285.4129172800185
 20
2000.0
 30
4.401603968346893
 70
   192
  0
VERTEX
  5
1998
  8
RÁM
 10
285.4807484423463
 20
2000.0
 30
4.146966286822074
 70
   192
  0
VERTEX
  5
1999
  8
RÁM
 10
285.5500621719348
 20
2000.0
 30
4.397805630589419
 70
   192
  0
VERTEX
  5
199A
  8
RÁM
 10
285.7360457022102
 20
2000.0
 30
4.579835562077053
 70
   192
  0
VERTEX
  5
199B
  8
RÁM
 10
285.9883162663041
 20
2000.0
 30
4.643744340682757
 70
   192
  0
VERTEX
  5
199C
  8
RÁM
 10
287.6662952360402
 20
2000.0
 30
4.164384448928881
 70
   192
  0
VERTEX
  5
199D
  8
RÁM
 10
288.9804858622038
 20
2000.0
 30
3.016210974752426
 70
   192
  0
VERTEX
  5
199E
  8
RÁM
 10
289.6807484416263
 20
2000.0
 30
1.417764338621172
 70
   192
  0
VERTEX
  5
199F
  8
RÁM
 10
289.6807484416264
 20
2000.0
 30
10.49498701069762
 70
   192
  0
VERTEX
  5
19A0
  8
RÁM
 10
319.6807484416252
 20
2000.0
 30
10.49498701069762
 70
   192
  0
VERTEX
  5
19A1
  8
RÁM
 10
0.0
 20
0.0
 30
0.0
 70
   128
 71
    60
 72
    61
 73
   -62
  0
VERTEX
  5
19A2
  8
RÁM
 10
0.0
 20
0.0
 30
0.0
 70
   128
 71
    59
 72
   -60
 73
   -62
  0
VERTEX
  5
19A3
  8
RÁM
 10
0.0
 20
0.0
 30
0.0
 70
   128
 71
    58
 72
   -59
 73
   -62
  0
VERTEX
  5
19A4
  8
RÁM
 10
0.0
 20
0.0
 30
0.0
 70
   128
 71
    57
 72
   -58
 73
   -62
  0
VERTEX
  5
19A5
  8
RÁM
 10
0.0
 20
0.0
 30
0.0
 70
   128
 71
    56
 72
   -57
 73
   -62
  0
VERTEX
  5
19A6
  8
RÁM
 10
0.0
 20
0.0
 30
0.0
 70
   128
 71
    54
 72
    55
 73
   -56
  0
VERTEX
  5
19A7
  8
RÁM
 10
0.0
 20
0.0
 30
0.0
 70
   128
 71
    53
 72
   -54
 73
   -56
  0
VERTEX
  5
19A8
  8
RÁM
 10
0.0
 20
0.0
 30
0.0
 70
   128
 71
    29
 72
    30
 73
   -31
  0
VERTEX
  5
19A9
  8
RÁM
 10
0.0
 20
0.0
 30
0.0
 70
   128
 71
    28
 72
   -29
 73
   -31
  0
VERTEX
  5
19AA
  8
RÁM
 10
0.0
 20
0.0
 30
0.0
 70
   128
 71
    27
 72
   -28
 73
   -31
  0
VERTEX
  5
19AB
  8
RÁM
 10
0.0
 20
0.0
 30
0.0
 70
   128
 71
    26
 72
   -27
 73
   -31
  0
VERTEX
  5
19AC
  8
RÁM
 10
0.0
 20
0.0
 30
0.0
 70
   128
 71
   -20
 72
   -26
 73
   -31
  0
VERTEX
  5
19AD
  8
RÁM
 10
0.0
 20
0.0
 30
0.0
 70
   128
 71
    19
 72
   -20
 73
   -31
  0
VERTEX
  5
19AE
  8
RÁM
 10
0.0
 20
0.0
 30
0.0
 70
   128
 71
    31
 72
   -32
 73
   -19
  0
VERTEX
  5
19AF
  8
RÁM
 10
0.0
 20
0.0
 30
0.0
 70
   128
 71
    20
 72
   -21
 73
   -26
  0
VERTEX
  5
19B0
  8
RÁM
 10
0.0
 20
0.0
 30
0.0
 70
   128
 71
    24
 72
    25
 73
   -26
  0
VERTEX
  5
19B1
  8
RÁM
 10
0.0
 20
0.0
 30
0.0
 70
   128
 71
    23
 72
   -24
 73
   -26
  0
VERTEX
  5
19B2
  8
RÁM
 10
0.0
 20
0.0
 30
0.0
 70
   128
 71
    22
 72
   -23
 73
   -26
  0
VERTEX
  5
19B3
  8
RÁM
 10
0.0
 20
0.0
 30
0.0
 70
   128
 71
    21
 72
   -22
 73
   -26
  0
VERTEX
  5
19B4
  8
RÁM
 10
0.0
 20
0.0
 30
0.0
 70
   128
 71
    32
 72
   -33
 73
   -19
  0
VERTEX
  5
19B5
  8
RÁM
 10
0.0
 20
0.0
 30
0.0
 70
   128
 71
    33
 72
   -34
 73
   -19
  0
VERTEX
  5
19B6
  8
RÁM
 10
0.0
 20
0.0
 30
0.0
 70
   128
 71
    34
 72
   -35
 73
   -19
  0
VERTEX
  5
19B7
  8
RÁM
 10
0.0
 20
0.0
 30
0.0
 70
   128
 71
    18
 72
   -19
 73
   -35
  0
VERTEX
  5
19B8
  8
RÁM
 10
0.0
 20
0.0
 30
0.0
 70
   128
 71
    35
 72
   -36
 73
   -18
  0
VERTEX
  5
19B9
  8
RÁM
 10
0.0
 20
0.0
 30
0.0
 70
   128
 71
    36
 72
   -37
 73
   -18
  0
VERTEX
  5
19BA
  8
RÁM
 10
0.0
 20
0.0
 30
0.0
 70
   128
 71
    37
 72
   -38
 73
   -18
  0
VERTEX
  5
19BB
  8
RÁM
 10
0.0
 20
0.0
 30
0.0
 70
   128
 71
     1
 72
     2
 73
    -3
  0
VERTEX
  5
19BC
  8
RÁM
 10
0.0
 20
0.0
 30
0.0
 70
   128
 71
    -3
 72
   -62
 73
    -1
  0
VERTEX
  5
19BD
  8
RÁM
 10
0.0
 20
0.0
 30
0.0
 70
   128
 71
    -7
 72
   -12
 73
   -62
  0
VERTEX
  5
19BE
  8
RÁM
 10
0.0
 20
0.0
 30
0.0
 70
   128
 71
     6
 72
    -7
 73
   -62
  0
VERTEX
  5
19BF
  8
RÁM
 10
0.0
 20
0.0
 30
0.0
 70
   128
 71
     5
 72
    -6
 73
   -62
  0
VERTEX
  5
19C0
  8
RÁM
 10
0.0
 20
0.0
 30
0.0
 70
   128
 71
     4
 72
    -5
 73
   -62
  0
VERTEX
  5
19C1
  8
RÁM
 10
0.0
 20
0.0
 30
0.0
 70
   128
 71
     3
 72
    -4
 73
   -62
  0
VERTEX
  5
19C2
  8
RÁM
 10
0.0
 20
0.0
 30
0.0
 70
   128
 71
     7
 72
    -8
 73
   -12
  0
VERTEX
  5
19C3
  8
RÁM
 10
0.0
 20
0.0
 30
0.0
 70
   128
 71
    10
 72
    11
 73
   -12
  0
VERTEX
  5
19C4
  8
RÁM
 10
0.0
 20
0.0
 30
0.0
 70
   128
 71
     9
 72
   -10
 73
   -12
  0
VERTEX
  5
19C5
  8
RÁM
 10
0.0
 20
0.0
 30
0.0
 70
   128
 71
     8
 72
    -9
 73
   -12
  0
VERTEX
  5
19C6
  8
RÁM
 10
0.0
 20
0.0
 30
0.0
 70
   128
 71
   -16
 72
   -56
 73
   -62
  0
VERTEX
  5
19C7
  8
RÁM
 10
0.0
 20
0.0
 30
0.0
 70
   128
 71
   -12
 72
   -16
 73
   -62
  0
VERTEX
  5
19C8
  8
RÁM
 10
0.0
 20
0.0
 30
0.0
 70
   128
 71
    14
 72
    15
 73
   -16
  0
VERTEX
  5
19C9
  8
RÁM
 10
0.0
 20
0.0
 30
0.0
 70
   128
 71
    13
 72
   -14
 73
   -16
  0
VERTEX
  5
19CA
  8
RÁM
 10
0.0
 20
0.0
 30
0.0
 70
   128
 71
    12
 72
   -13
 73
   -16
  0
VERTEX
  5
19CB
  8
RÁM
 10
0.0
 20
0.0
 30
0.0
 70
   128
 71
    16
 72
   -17
 73
   -56
  0
VERTEX
  5
19CC
  8
RÁM
 10
0.0
 20
0.0
 30
0.0
 70
   128
 71
    38
 72
   -39
 73
   -56
  0
VERTEX
  5
19CD
  8
RÁM
 10
0.0
 20
0.0
 30
0.0
 70
   128
 71
   -18
 72
   -38
 73
   -56
  0
VERTEX
  5
19CE
  8
RÁM
 10
0.0
 20
0.0
 30
0.0
 70
   128
 71
    17
 72
   -18
 73
   -56
  0
VERTEX
  5
19CF
  8
RÁM
 10
0.0
 20
0.0
 30
0.0
 70
   128
 71
    39
 72
   -40
 73
   -56
  0
VERTEX
  5
19D0
  8
RÁM
 10
0.0
 20
0.0
 30
0.0
 70
   128
 71
    40
 72
   -41
 73
   -56
  0
VERTEX
  5
19D1
  8
RÁM
 10
0.0
 20
0.0
 30
0.0
 70
   128
 71
    41
 72
   -42
 73
   -56
  0
VERTEX
  5
19D2
  8
RÁM
 10
0.0
 20
0.0
 30
0.0
 70
   128
 71
    52
 72
   -53
 73
   -56
  0
VERTEX
  5
19D3
  8
RÁM
 10
0.0
 20
0.0
 30
0.0
 70
   128
 71
   -43
 72
   -52
 73
   -56
  0
VERTEX
  5
19D4
  8
RÁM
 10
0.0
 20
0.0
 30
0.0
 70
   128
 71
    42
 72
   -43
 73
   -56
  0
VERTEX
  5
19D5
  8
RÁM
 10
0.0
 20
0.0
 30
0.0
 70
   128
 71
    50
 72
    51
 73
   -52
  0
VERTEX
  5
19D6
  8
RÁM
 10
0.0
 20
0.0
 30
0.0
 70
   128
 71
    49
 72
   -50
 73
   -52
  0
VERTEX
  5
19D7
  8
RÁM
 10
0.0
 20
0.0
 30
0.0
 70
   128
 71
    48
 72
   -49
 73
   -52
  0
VERTEX
  5
19D8
  8
RÁM
 10
0.0
 20
0.0
 30
0.0
 70
   128
 71
   -43
 72
   -48
 73
   -52
  0
VERTEX
  5
19D9
  8
RÁM
 10
0.0
 20
0.0
 30
0.0
 70
   128
 71
    46
 72
    47
 73
   -48
  0
VERTEX
  5
19DA
  8
RÁM
 10
0.0
 20
0.0
 30
0.0
 70
   128
 71
    45
 72
   -46
 73
   -48
  0
VERTEX
  5
19DB
  8
RÁM
 10
0.0
 20
0.0
 30
0.0
 70
   128
 71
    44
 72
   -45
 73
   -48
  0
VERTEX
  5
19DC
  8
RÁM
 10
0.0
 20
0.0
 30
0.0
 70
   128
 71
    43
 72
   -44
 73
   -48
  0
VERTEX
  5
19DD
  8
RÁM
 10
0.0
 20
0.0
 30
0.0
 70
   128
 71
    63
 72
    64
 73
    -1
  0
VERTEX
  5
19DE
  8
RÁM
 10
0.0
 20
0.0
 30
0.0
 70
   128
 71
    62
 72
   -63
 73
    -1
  0
SEQEND
  5
216B
  8
RÁM
  0
POLYLINE
  5
19DF
  8
RÁM
 66
     1
 10
0.0
 20
0.0
 30
0.0
 70
    64
 71
    45
 72
    43
  0
VERTEX
  5
19E0
  8
RÁM
 10
274.3853215842921
 20
0.0
 30
4.156604711854633
 70
   192
  0
VERTEX
  5
19E1
  8
RÁM
 10
274.4578961853608
 20
0.0
 30
4.409931265367685
 70
   192
  0
VERTEX
  5
19E2
  8
RÁM
 10
274.649184299715
 20
0.0
 30
4.591177707379385
 70
   192
  0
VERTEX
  5
19E3
  8
RÁM
 10
274.9060526576877
 20
0.0
 30
4.649999999985978
 70
   192
  0
VERTEX
  5
19E4
  8
RÁM
 10
284.9693221577554
 20
0.0
 30
4.649999999985937
 70
   192
  0
VERTEX
  5
19E5
  8
RÁM
 10
285.2250472361346
 20
0.0
 30
4.586391040530311
 70
   192
  0
VERTEX
  5
19E6
  8
RÁM
 10
285.4129172800185
 20
0.0
 30
4.401603968346893
 70
   192
  0
VERTEX
  5
19E7
  8
RÁM
 10
285.4807484423463
 20
0.0
 30
4.146966286822074
 70
   192
  0
VERTEX
  5
19E8
  8
RÁM
 10
285.5500621719348
 20
0.0
 30
4.397805630589419
 70
   192
  0
VERTEX
  5
19E9
  8
RÁM
 10
285.7360457022102
 20
0.0
 30
4.579835562077053
 70
   192
  0
VERTEX
  5
19EA
  8
RÁM
 10
285.9883162663041
 20
0.0
 30
4.643744340682738
 70
   192
  0
VERTEX
  5
19EB
  8
RÁM
 10
287.6662952360402
 20
0.0
 30
4.164384448928881
 70
   192
  0
VERTEX
  5
19EC
  8
RÁM
 10
288.9804858622038
 20
0.0
 30
3.016210974752426
 70
   192
  0
VERTEX
  5
19ED
  8
RÁM
 10
289.6807484416264
 20
0.0
 30
1.417764338621177
 70
   192
  0
VERTEX
  5
19EE
  8
RÁM
 10
289.6807484416265
 20
0.0
 30
10.49498701069762
 70
   192
  0
VERTEX
  5
19EF
  8
RÁM
 10
319.6807484416252
 20
0.0
 30
10.49498701069762
 70
   192
  0
VERTEX
  5
19F0
  8
RÁM
 10
319.6807484416252
 20
0.0
 30
-12.50501298930229
 70
   192
  0
VERTEX
  5
19F1
  8
RÁM
 10
289.6807484416264
 20
0.0
 30
-12.50501298930229
 70
   192
  0
VERTEX
  5
19F2
  8
RÁM
 10
289.6807484416264
 20
0.0
 30
-1.401175522428817
 70
   192
  0
VERTEX
  5
19F3
  8
RÁM
 10
288.9855486055212
 20
0.0
 30
-3.009715524097811
 70
   192
  0
VERTEX
  5
19F4
  8
RÁM
 10
287.66949452876
 20
0.0
 30
-4.166739904191163
 70
   192
  0
VERTEX
  5
19F5
  8
RÁM
 10
285.9851619730626
 20
0.0
 30
-4.650193718850032
 70
   192
  0
VERTEX
  5
19F6
  8
RÁM
 10
285.9836908173851
 20
0.0
 30
-4.650204540837053
 70
   192
  0
VERTEX
  5
19F7
  8
RÁM
 10
285.9822196362334
 20
0.0
 30
-4.650211034066744
 70
   192
  0
VERTEX
  5
19F8
  8
RÁM
 10
285.9807484423447
 20
0.0
 30
-4.650213198482886
 70
   192
  0
VERTEX
  5
19F9
  8
RÁM
 10
285.7307484423454
 20
0.0
 30
-4.583225900375306
 70
   192
  0
VERTEX
  5
19FA
  8
RÁM
 10
285.5477357404538
 20
0.0
 30
-4.400213198483636
 70
   192
  0
VERTEX
  5
19FB
  8
RÁM
 10
285.4807484423462
 20
0.0
 30
-4.150213198484384
 70
   192
  0
VERTEX
  5
19FC
  8
RÁM
 10
285.4137611442385
 20
0.0
 30
-4.400213198483636
 70
   192
  0
VERTEX
  5
19FD
  8
RÁM
 10
285.2307484423469
 20
0.0
 30
-4.583225900375306
 70
   192
  0
VERTEX
  5
19FE
  8
RÁM
 10
284.9807484423476
 20
0.0
 30
-4.650213198482886
 70
   192
  0
VERTEX
  5
19FF
  8
RÁM
 10
284.9758812403508
 20
0.0
 30
-4.650189508266382
 70
   192
  0
VERTEX
  5
1A00
  8
RÁM
 10
284.9710144995743
 20
0.0
 30
-4.650118439861775
 70
   192
  0
VERTEX
  5
1A01
  8
RÁM
 10
284.9661486811946
 20
0.0
 30
-4.650000000003569
 70
   192
  0
VERTEX
  5
1A02
  8
RÁM
 10
274.8949996086411
 20
0.0
 30
-4.650000000003557
 70
   192
  0
VERTEX
  5
1A03
  8
RÁM
 10
274.8902498942828
 20
0.0
 30
-4.650112852424138
 70
   192
  0
VERTEX
  5
1A04
  8
RÁM
 10
274.8854993220266
 20
0.0
 30
-4.650180567952525
 70
   192
  0
VERTEX
  5
1A05
  8
RÁM
 10
274.8807483208021
 20
0.0
 30
-4.650203140474679
 70
   192
  0
VERTEX
  5
1A06
  8
RÁM
 10
274.6306476900796
 20
0.0
 30
-4.583157727599051
 70
   192
  0
VERTEX
  5
1A07
  8
RÁM
 10
274.4476194595463
 20
0.0
 30
-4.400001838522874
 70
   192
  0
VERTEX
  5
1A08
  8
RÁM
 10
274.3807484423384
 20
0.0
 30
-4.149854522061157
 70
   192
  0
VERTEX
  5
1A09
  8
RÁM
 10
274.3807484423385
 20
0.0
 30
-3.299854522061139
 70
   192
  0
VERTEX
  5
1A0A
  8
RÁM
 10
274.3808011929962
 20
0.0
 30
-3.295876782166412
 70
   192
  0
VERTEX
  5
1A0B
  8
RÁM
 10
274.3809594078674
 20
0.0
 30
-3.291901839983626
 70
   192
  0
VERTEX
  5
1A0C
  8
RÁM
 10
274.381222975673
 20
0.0
 30
-3.287932491256972
 70
   192
  0
VERTEX
  5
1A0D
  8
RÁM
 10
0.0
 20
0.0
 30
0.0
 70
   128
 71
    32
 72
    31
 73
   -30
  0
VERTEX
  5
1A0E
  8
RÁM
 10
0.0
 20
0.0
 30
0.0
 70
   128
 71
   -30
 72
    33
 73
   -32
  0
VERTEX
  5
1A0F
  8
RÁM
 10
0.0
 20
0.0
 30
0.0
 70
   128
 71
   -30
 72
    34
 73
   -33
  0
VERTEX
  5
1A10
  8
RÁM
 10
0.0
 20
0.0
 30
0.0
 70
   128
 71
   -30
 72
   -42
 73
   -35
  0
VERTEX
  5
1A11
  8
RÁM
 10
0.0
 20
0.0
 30
0.0
 70
   128
 71
   -30
 72
    35
 73
   -34
  0
VERTEX
  5
1A12
  8
RÁM
 10
0.0
 20
0.0
 30
0.0
 70
   128
 71
   -42
 72
    36
 73
   -35
  0
VERTEX
  5
1A13
  8
RÁM
 10
0.0
 20
0.0
 30
0.0
 70
   128
 71
   -42
 72
    37
 73
   -36
  0
VERTEX
  5
1A14
  8
RÁM
 10
0.0
 20
0.0
 30
0.0
 70
   128
 71
    42
 72
    41
 73
   -40
  0
VERTEX
  5
1A15
  8
RÁM
 10
0.0
 20
0.0
 30
0.0
 70
   128
 71
   -42
 72
    40
 73
   -39
  0
VERTEX
  5
1A16
  8
RÁM
 10
0.0
 20
0.0
 30
0.0
 70
   128
 71
   -42
 72
    39
 73
   -38
  0
VERTEX
  5
1A17
  8
RÁM
 10
0.0
 20
0.0
 30
0.0
 70
   128
 71
   -42
 72
    38
 73
   -37
  0
VERTEX
  5
1A18
  8
RÁM
 10
0.0
 20
0.0
 30
0.0
 70
   128
 71
   -30
 72
    43
 73
   -42
  0
VERTEX
  5
1A19
  8
RÁM
 10
0.0
 20
0.0
 30
0.0
 70
   128
 71
   -30
 72
    44
 73
   -43
  0
VERTEX
  5
1A1A
  8
RÁM
 10
0.0
 20
0.0
 30
0.0
 70
   128
 71
    23
 72
    22
 73
   -21
  0
VERTEX
  5
1A1B
  8
RÁM
 10
0.0
 20
0.0
 30
0.0
 70
   128
 71
   -23
 72
   -21
 73
   -28
  0
VERTEX
  5
1A1C
  8
RÁM
 10
0.0
 20
0.0
 30
0.0
 70
   128
 71
   -28
 72
    24
 73
   -23
  0
VERTEX
  5
1A1D
  8
RÁM
 10
0.0
 20
0.0
 30
0.0
 70
   128
 71
    28
 72
    27
 73
   -26
  0
VERTEX
  5
1A1E
  8
RÁM
 10
0.0
 20
0.0
 30
0.0
 70
   128
 71
   -28
 72
    26
 73
   -25
  0
VERTEX
  5
1A1F
  8
RÁM
 10
0.0
 20
0.0
 30
0.0
 70
   128
 71
   -28
 72
    25
 73
   -24
  0
VERTEX
  5
1A20
  8
RÁM
 10
0.0
 20
0.0
 30
0.0
 70
   128
 71
   -28
 72
   -21
 73
   -45
  0
VERTEX
  5
1A21
  8
RÁM
 10
0.0
 20
0.0
 30
0.0
 70
   128
 71
    45
 72
   -44
 73
   -30
  0
VERTEX
  5
1A22
  8
RÁM
 10
0.0
 20
0.0
 30
0.0
 70
   128
 71
   -45
 72
    30
 73
   -29
  0
VERTEX
  5
1A23
  8
RÁM
 10
0.0
 20
0.0
 30
0.0
 70
   128
 71
   -45
 72
    29
 73
   -28
  0
VERTEX
  5
1A24
  8
RÁM
 10
0.0
 20
0.0
 30
0.0
 70
   128
 71
    19
 72
    18
 73
   -17
  0
VERTEX
  5
1A25
  8
RÁM
 10
0.0
 20
0.0
 30
0.0
 70
   128
 71
   -19
 72
    17
 73
   -16
  0
VERTEX
  5
1A26
  8
RÁM
 10
0.0
 20
0.0
 30
0.0
 70
   128
 71
     8
 72
     7
 73
    -6
  0
VERTEX
  5
1A27
  8
RÁM
 10
0.0
 20
0.0
 30
0.0
 70
   128
 71
    -8
 72
     6
 73
    -5
  0
VERTEX
  5
1A28
  8
RÁM
 10
0.0
 20
0.0
 30
0.0
 70
   128
 71
    -8
 72
     5
 73
    -4
  0
VERTEX
  5
1A29
  8
RÁM
 10
0.0
 20
0.0
 30
0.0
 70
   128
 71
    -8
 72
     4
 73
    -3
  0
VERTEX
  5
1A2A
  8
RÁM
 10
0.0
 20
0.0
 30
0.0
 70
   128
 71
    -8
 72
     3
 73
    -2
  0
VERTEX
  5
1A2B
  8
RÁM
 10
0.0
 20
0.0
 30
0.0
 70
   128
 71
    -8
 72
     2
 73
    -1
  0
VERTEX
  5
1A2C
  8
RÁM
 10
0.0
 20
0.0
 30
0.0
 70
   128
 71
     1
 72
   -45
 73
   -21
  0
VERTEX
  5
1A2D
  8
RÁM
 10
0.0
 20
0.0
 30
0.0
 70
   128
 71
    -1
 72
   -21
 73
    -8
  0
VERTEX
  5
1A2E
  8
RÁM
 10
0.0
 20
0.0
 30
0.0
 70
   128
 71
    21
 72
    20
 73
   -19
  0
VERTEX
  5
1A2F
  8
RÁM
 10
0.0
 20
0.0
 30
0.0
 70
   128
 71
   -21
 72
   -19
 73
   -14
  0
VERTEX
  5
1A30
  8
RÁM
 10
0.0
 20
0.0
 30
0.0
 70
   128
 71
   -21
 72
    14
 73
   -13
  0
VERTEX
  5
1A31
  8
RÁM
 10
0.0
 20
0.0
 30
0.0
 70
   128
 71
   -21
 72
    13
 73
   -12
  0
VERTEX
  5
1A32
  8
RÁM
 10
0.0
 20
0.0
 30
0.0
 70
   128
 71
   -21
 72
    12
 73
   -11
  0
VERTEX
  5
1A33
  8
RÁM
 10
0.0
 20
0.0
 30
0.0
 70
   128
 71
   -21
 72
    11
 73
   -10
  0
VERTEX
  5
1A34
  8
RÁM
 10
0.0
 20
0.0
 30
0.0
 70
   128
 71
   -21
 72
    10
 73
    -9
  0
VERTEX
  5
1A35
  8
RÁM
 10
0.0
 20
0.0
 30
0.0
 70
   128
 71
   -21
 72
     9
 73
    -8
  0
VERTEX
  5
1A36
  8
RÁM
 10
0.0
 20
0.0
 30
0.0
 70
   128
 71
   -14
 72
   -19
 73
   -16
  0
VERTEX
  5
1A37
  8
RÁM
 10
0.0
 20
0.0
 30
0.0
 70
   128
 71
    16
 72
    15
 73
   -14
  0
SEQEND
  5
216C
  8
RÁM
  0
POLYLINE
  5
1A38
  8
RÁM
 66
     1
 10
0.0
 20
0.0
 30
0.0
 70
    64
 71
    24
 72
    22
  0
VERTEX
  5
1A39
  8
RÁM
 10
274.5373531541853
 20
18.00000000000001
 30
-3.150000000002121
 70
   192
  0
VERTEX
  5
1A3A
  8
RÁM
 10
274.4631214447655
 20
18.00000000000001
 30
-3.165964308829099
 70
   192
  0
VERTEX
  5
1A3B
  8
RÁM
 10
274.406217893627
 20
18.00000000000001
 30
-3.216235490509477
 70
   192
  0
VERTEX
  5
1A3C
  8
RÁM
 10
274.3812229756731
 20
18.00000000000001
 30
-3.28793249125697
 70
   192
  0
VERTEX
  5
1A3D
  8
RÁM
 10
274.385321584292
 20
18.0
 30
4.156604711854634
 70
   192
  0
VERTEX
  5
1A3E
  8
RÁM
 10
274.3853215842922
 20
18.00000000000001
 30
3.306604711848843
 70
   192
  0
VERTEX
  5
1A3F
  8
RÁM
 10
274.4031263291392
 20
18.00000000000001
 30
3.22884624860177
 70
   192
  0
VERTEX
  5
1A40
  8
RÁM
 10
274.4582770254398
 20
18.00000000000001
 30
3.171211291820646
 70
   192
  0
VERTEX
  5
1A41
  8
RÁM
 10
274.5351761063511
 20
18.00000000000001
 30
3.150000000001979
 70
   192
  0
VERTEX
  5
1A42
  8
RÁM
 10
276.8874986321334
 20
18.00000000000001
 30
3.150000000001979
 70
   192
  0
VERTEX
  5
1A43
  8
RÁM
 10
276.8874986321334
 20
18.00000000000001
 30
3.450000000001978
 70
   192
  0
VERTEX
  5
1A44
  8
RÁM
 10
279.3728988709805
 20
18.00000000000001
 30
3.450000000001978
 70
   192
  0
VERTEX
  5
1A45
  8
RÁM
 10
279.6290214111016
 20
18.00000000000001
 30
3.388010808387356
 70
   192
  0
VERTEX
  5
1A46
  8
RÁM
 10
279.8180572166968
 20
18.00000000000001
 30
3.204416473948443
 70
   192
  0
VERTEX
  5
1A47
  8
RÁM
 10
279.8874986321322
 20
18.00000000000001
 30
2.950213198482795
 70
   192
  0
VERTEX
  5
1A48
  8
RÁM
 10
279.8874986321322
 20
18.00000000000001
 30
-2.950213198482996
 70
   192
  0
VERTEX
  5
1A49
  8
RÁM
 10
279.8205113340245
 20
18.00000000000001
 30
-3.200213198482288
 70
   192
  0
VERTEX
  5
1A4A
  8
RÁM
 10
279.6374986321328
 20
18.00000000000001
 30
-3.383225900373989
 70
   192
  0
VERTEX
  5
1A4B
  8
RÁM
 10
279.3874986321335
 20
18.00000000000001
 30
-3.450213198481579
 70
   192
  0
VERTEX
  5
1A4C
  8
RÁM
 10
279.3826314301367
 20
18.00000000000001
 30
-3.450189508265075
 70
   192
  0
VERTEX
  5
1A4D
  8
RÁM
 10
279.3777646893602
 20
18.00000000000001
 30
-3.450118439860468
 70
   192
  0
VERTEX
  5
1A4E
  8
RÁM
 10
279.3728988709805
 20
18.00000000000001
 30
-3.450000000002262
 70
   192
  0
VERTEX
  5
1A4F
  8
RÁM
 10
276.885321584299
 20
18.00000000000001
 30
-3.45000000000218
 70
   192
  0
VERTEX
  5
1A50
  8
RÁM
 10
276.8853215842991
 20
18.00000000000001
 30
-3.15000000000218
 70
   192
  0
VERTEX
  5
1A51
  8
RÁM
 10
0.0
 20
0.0
 30
0.0
 70
   128
 71
    18
 72
    19
 73
   -20
  0
VERTEX
  5
1A52
  8
RÁM
 10
0.0
 20
0.0
 30
0.0
 70
   128
 71
    17
 72
   -18
 73
   -20
  0
VERTEX
  5
1A53
  8
RÁM
 10
0.0
 20
0.0
 30
0.0
 70
   128
 71
    16
 72
   -17
 73
   -20
  0
VERTEX
  5
1A54
  8
RÁM
 10
0.0
 20
0.0
 30
0.0
 70
   128
 71
    20
 72
   -21
 73
   -16
  0
VERTEX
  5
1A55
  8
RÁM
 10
0.0
 20
0.0
 30
0.0
 70
   128
 71
    21
 72
   -22
 73
   -16
  0
VERTEX
  5
1A56
  8
RÁM
 10
0.0
 20
0.0
 30
0.0
 70
   128
 71
    23
 72
   -24
 73
   -16
  0
VERTEX
  5
1A57
  8
RÁM
 10
0.0
 20
0.0
 30
0.0
 70
   128
 71
    22
 72
   -23
 73
   -16
  0
VERTEX
  5
1A58
  8
RÁM
 10
0.0
 20
0.0
 30
0.0
 70
   128
 71
     4
 72
     5
 73
    -6
  0
VERTEX
  5
1A59
  8
RÁM
 10
0.0
 20
0.0
 30
0.0
 70
   128
 71
     6
 72
    -7
 73
    -4
  0
VERTEX
  5
1A5A
  8
RÁM
 10
0.0
 20
0.0
 30
0.0
 70
   128
 71
     7
 72
    -8
 73
    -4
  0
VERTEX
  5
1A5B
  8
RÁM
 10
0.0
 20
0.0
 30
0.0
 70
   128
 71
     8
 72
    -9
 73
    -4
  0
VERTEX
  5
1A5C
  8
RÁM
 10
0.0
 20
0.0
 30
0.0
 70
   128
 71
   -10
 72
    24
 73
    -1
  0
VERTEX
  5
1A5D
  8
RÁM
 10
0.0
 20
0.0
 30
0.0
 70
   128
 71
     9
 72
   -10
 73
    -1
  0
VERTEX
  5
1A5E
  8
RÁM
 10
0.0
 20
0.0
 30
0.0
 70
   128
 71
     1
 72
    -2
 73
    -9
  0
VERTEX
  5
1A5F
  8
RÁM
 10
0.0
 20
0.0
 30
0.0
 70
   128
 71
     2
 72
    -3
 73
    -9
  0
VERTEX
  5
1A60
  8
RÁM
 10
0.0
 20
0.0
 30
0.0
 70
   128
 71
     3
 72
    -4
 73
    -9
  0
VERTEX
  5
1A61
  8
RÁM
 10
0.0
 20
0.0
 30
0.0
 70
   128
 71
    15
 72
   -16
 73
   -24
  0
VERTEX
  5
1A62
  8
RÁM
 10
0.0
 20
0.0
 30
0.0
 70
   128
 71
   -10
 72
   -15
 73
   -24
  0
VERTEX
  5
1A63
  8
RÁM
 10
0.0
 20
0.0
 30
0.0
 70
   128
 71
    13
 72
    14
 73
   -15
  0
VERTEX
  5
1A64
  8
RÁM
 10
0.0
 20
0.0
 30
0.0
 70
   128
 71
    12
 72
   -13
 73
   -15
  0
VERTEX
  5
1A65
  8
RÁM
 10
0.0
 20
0.0
 30
0.0
 70
   128
 71
    11
 72
   -12
 73
   -15
  0
VERTEX
  5
1A66
  8
RÁM
 10
0.0
 20
0.0
 30
0.0
 70
   128
 71
    10
 72
   -11
 73
   -15
  0
SEQEND
  5
216D
  8
RÁM
  0
POLYLINE
  5
1A67
  8
RÁM
 66
     1
 10
0.0
 20
0.0
 30
0.0
 70
    64
 71
     4
 72
     2
  0
VERTEX
  5
1A68
  8
RÁM
 10
274.3853215842921
 20
18.0
 30
4.156604711854634
 70
   192
  0
VERTEX
  5
1A69
  8
RÁM
 10
274.385321584292
 20
0.0
 30
4.156604711854633
 70
   192
  0
VERTEX
  5
1A6A
  8
RÁM
 10
274.3812229756731
 20
0.0
 30
-3.287932491256942
 70
   192
  0
VERTEX
  5
1A6B
  8
RÁM
 10
274.381222975673
 20
18.0
 30
-3.287932491256971
 70
   192
  0
VERTEX
  5
1A6C
  8
RÁM
 10
0.0
 20
0.0
 30
0.0
 70
   128
 71
     1
 72
     4
 73
    -3
  0
VERTEX
  5
1A6D
  8
RÁM
 10
0.0
 20
0.0
 30
0.0
 70
   128
 71
    -1
 72
     3
 73
     2
  0
SEQEND
  5
216E
  8
RÁM
  0
ENDBLK
  5
214A
  8
0
  0
BLOCK
  8
0
  2
*X3
 70
     1
 10
0.0
 20
0.0
 30
0.0
  3
*X3
  1

  0
POLYLINE
  5
1A6F
  8
SKLO
 66
     1
 10
0.0
 20
0.0
 30
0.0
 70
    64
 71
     4
 72
     2
  0
VERTEX
  5
1A70
  8
SKLO
 10
-280.212501367868
 20
17.99999999999989
 30
2.99999999999998
 70
   192
  0
VERTEX
  5
1A71
  8
SKLO
 10
-280.212501367868
 20
2000.0
 30
2.99999999999998
 70
   192
  0
VERTEX
  5
1A72
  8
SKLO
 10
-280.212501367868
 20
2000.0
 30
-3.00000000000002
 70
   192
  0
VERTEX
  5
1A73
  8
SKLO
 10
-280.212501367868
 20
17.99999999999989
 30
-3.00000000000002
 70
   192
  0
VERTEX
  5
1A74
  8
SKLO
 10
0.0
 20
0.0
 30
0.0
 70
   128
 71
     3
 72
     4
 73
    -1
  0
VERTEX
  5
1A75
  8
SKLO
 10
0.0
 20
0.0
 30
0.0
 70
   128
 71
     2
 72
    -3
 73
     1
  0
SEQEND
  5
2171
  8
SKLO
  0
POLYLINE
  5
1A76
  8
SKLO
 66
     1
 10
0.0
 20
0.0
 30
0.0
 70
    64
 71
     4
 72
     2
  0
VERTEX
  5
1A77
  8
SKLO
 10
-280.212501367868
 20
2000.0
 30
2.99999999999998
 70
   192
  0
VERTEX
  5
1A78
  8
SKLO
 10
-3.212501367867844
 20
2000.0
 30
2.99999999999998
 70
   192
  0
VERTEX
  5
1A79
  8
SKLO
 10
-3.212501367867854
 20
2000.0
 30
-3.00000000000002
 70
   192
  0
VERTEX
  5
1A7A
  8
SKLO
 10
-280.212501367868
 20
2000.0
 30
-3.00000000000002
 70
   192
  0
VERTEX
  5
1A7B
  8
SKLO
 10
0.0
 20
0.0
 30
0.0
 70
   128
 71
     3
 72
     4
 73
    -1
  0
VERTEX
  5
1A7C
  8
SKLO
 10
0.0
 20
0.0
 30
0.0
 70
   128
 71
     2
 72
    -3
 73
     1
  0
SEQEND
  5
2172
  8
SKLO
  0
POLYLINE
  5
1A7D
  8
SKLO
 66
     1
 10
0.0
 20
0.0
 30
0.0
 70
    64
 71
     4
 72
     2
  0
VERTEX
  5
1A7E
  8
SKLO
 10
-3.212501367867854
 20
2000.0
 30
2.99999999999998
 70
   192
  0
VERTEX
  5
1A7F
  8
SKLO
 10
-3.212501367867854
 20
18.0
 30
2.99999999999998
 70
   192
  0
VERTEX
  5
1A80
  8
SKLO
 10
-3.212501367867854
 20
17.99999999999989
 30
-3.00000000000002
 70
   192
  0
VERTEX
  5
1A81
  8
SKLO
 10
-3.212501367867854
 20
2000.0
 30
-3.00000000000002
 70
   192
  0
VERTEX
  5
1A82
  8
SKLO
 10
0.0
 20
0.0
 30
0.0
 70
   128
 71
     3
 72
     4
 73
    -1
  0
VERTEX
  5
1A83
  8
SKLO
 10
0.0
 20
0.0
 30
0.0
 70
   128
 71
     2
 72
    -3
 73
     1
  0
SEQEND
  5
2173
  8
SKLO
  0
POLYLINE
  5
1A84
  8
SKLO
 66
     1
 10
0.0
 20
0.0
 30
0.0
 70
    64
 71
     4
 72
     2
  0
VERTEX
  5
1A85
  8
SKLO
 10
-3.212501367867854
 20
17.99999999999989
 30
2.99999999999998
 70
   192
  0
VERTEX
  5
1A86
  8
SKLO
 10
-280.212501367868
 20
17.99999999999989
 30
2.99999999999998
 70
   192
  0
VERTEX
  5
1A87
  8
SKLO
 10
-280.212501367868
 20
17.99999999999989
 30
-3.00000000000002
 70
   192
  0
VERTEX
  5
1A88
  8
SKLO
 10
-3.212501367867854
 20
17.99999999999989
 30
-3.00000000000002
 70
   192
  0
VERTEX
  5
1A89
  8
SKLO
 10
0.0
 20
0.0
 30
0.0
 70
   128
 71
     3
 72
     4
 73
    -1
  0
VERTEX
  5
1A8A
  8
SKLO
 10
0.0
 20
0.0
 30
0.0
 70
   128
 71
     2
 72
    -3
 73
     1
  0
SEQEND
  5
2174
  8
SKLO
  0
POLYLINE
  5
1A8B
  8
SKLO
 66
     1
 10
0.0
 20
0.0
 30
0.0
 70
    64
 71
     4
 72
     2
  0
VERTEX
  5
1A8C
  8
SKLO
 10
-280.212501367868
 20
17.99999999999989
 30
-3.00000000000002
 70
   192
  0
VERTEX
  5
1A8D
  8
SKLO
 10
-280.212501367868
 20
2000.0
 30
-3.00000000000002
 70
   192
  0
VERTEX
  5
1A8E
  8
SKLO
 10
-3.212501367867844
 20
2000.0
 30
-3.00000000000002
 70
   192
  0
VERTEX
  5
1A8F
  8
SKLO
 10
-3.212501367867854
 20
18.0
 30
-3.00000000000002
 70
   192
  0
VERTEX
  5
1A90
  8
SKLO
 10
0.0
 20
0.0
 30
0.0
 70
   128
 71
     3
 72
     4
 73
    -1
  0
VERTEX
  5
1A91
  8
SKLO
 10
0.0
 20
0.0
 30
0.0
 70
   128
 71
     2
 72
    -3
 73
     1
  0
SEQEND
  5
2175
  8
SKLO
  0
POLYLINE
  5
1A92
  8
SKLO
 66
     1
 10
0.0
 20
0.0
 30
0.0
 70
    64
 71
     4
 72
     2
  0
VERTEX
  5
1A93
  8
SKLO
 10
-280.212501367868
 20
2000.0
 30
2.99999999999998
 70
   192
  0
VERTEX
  5
1A94
  8
SKLO
 10
-3.212501367867854
 20
2000.0
 30
2.99999999999998
 70
   192
  0
VERTEX
  5
1A95
  8
SKLO
 10
-3.212501367867854
 20
17.99999999999989
 30
2.99999999999998
 70
   192
  0
VERTEX
  5
1A96
  8
SKLO
 10
-280.212501367868
 20
17.99999999999989
 30
2.99999999999998
 70
   192
  0
VERTEX
  5
1A97
  8
SKLO
 10
0.0
 20
0.0
 30
0.0
 70
   128
 71
     1
 72
     4
 73
    -3
  0
VERTEX
  5
1A98
  8
SKLO
 10
0.0
 20
0.0
 30
0.0
 70
   128
 71
    -1
 72
     3
 73
     2
  0
SEQEND
  5
2176
  8
SKLO
  0
ENDBLK
  5
2170
  8
0
  0
BLOCK
  8
0
  2
*X4
 70
     1
 10
0.0
 20
0.0
 30
0.0
  3
*X4
  1

  0
POLYLINE
  5
1A9A
  8
SKLO
 66
     1
 10
0.0
 20
0.0
 30
0.0
 70
    64
 71
     4
 72
     2
  0
VERTEX
  5
1A9B
  8
SKLO
 10
2.787498632132124
 20
17.99999999999989
 30
2.99999999999998
 70
   192
  0
VERTEX
  5
1A9C
  8
SKLO
 10
2.787498632132124
 20
2000.0
 30
2.99999999999998
 70
   192
  0
VERTEX
  5
1A9D
  8
SKLO
 10
2.787498632132124
 20
2000.0
 30
-3.00000000000002
 70
   192
  0
VERTEX
  5
1A9E
  8
SKLO
 10
2.787498632132124
 20
17.99999999999989
 30
-3.00000000000002
 70
   192
  0
VERTEX
  5
1A9F
  8
SKLO
 10
0.0
 20
0.0
 30
0.0
 70
   128
 71
     3
 72
     4
 73
    -1
  0
VERTEX
  5
1AA0
  8
SKLO
 10
0.0
 20
0.0
 30
0.0
 70
   128
 71
     2
 72
    -3
 73
     1
  0
SEQEND
  5
2179
  8
SKLO
  0
POLYLINE
  5
1AA1
  8
SKLO
 66
     1
 10
0.0
 20
0.0
 30
0.0
 70
    64
 71
     4
 72
     2
  0
VERTEX
  5
1AA2
  8
SKLO
 10
2.787498632132124
 20
2000.0
 30
2.99999999999998
 70
   192
  0
VERTEX
  5
1AA3
  8
SKLO
 10
279.7874986321321
 20
2000.0
 30
2.99999999999998
 70
   192
  0
VERTEX
  5
1AA4
  8
SKLO
 10
279.7874986321321
 20
2000.0
 30
-3.00000000000002
 70
   192
  0
VERTEX
  5
1AA5
  8
SKLO
 10
2.787498632132124
 20
2000.0
 30
-3.00000000000002
 70
   192
  0
VERTEX
  5
1AA6
  8
SKLO
 10
0.0
 20
0.0
 30
0.0
 70
   128
 71
     3
 72
     4
 73
    -1
  0
VERTEX
  5
1AA7
  8
SKLO
 10
0.0
 20
0.0
 30
0.0
 70
   128
 71
     2
 72
    -3
 73
     1
  0
SEQEND
  5
217A
  8
SKLO
  0
POLYLINE
  5
1AA8
  8
SKLO
 66
     1
 10
0.0
 20
0.0
 30
0.0
 70
    64
 71
     4
 72
     2
  0
VERTEX
  5
1AA9
  8
SKLO
 10
279.7874986321321
 20
2000.0
 30
2.99999999999998
 70
   192
  0
VERTEX
  5
1AAA
  8
SKLO
 10
279.7874986321321
 20
17.99999999999989
 30
2.99999999999998
 70
   192
  0
VERTEX
  5
1AAB
  8
SKLO
 10
279.7874986321321
 20
17.99999999999989
 30
-3.00000000000002
 70
   192
  0
VERTEX
  5
1AAC
  8
SKLO
 10
279.7874986321321
 20
2000.0
 30
-3.00000000000002
 70
   192
  0
VERTEX
  5
1AAD
  8
SKLO
 10
0.0
 20
0.0
 30
0.0
 70
   128
 71
     3
 72
     4
 73
    -1
  0
VERTEX
  5
1AAE
  8
SKLO
 10
0.0
 20
0.0
 30
0.0
 70
   128
 71
     2
 72
    -3
 73
     1
  0
SEQEND
  5
217B
  8
SKLO
  0
POLYLINE
  5
1AAF
  8
SKLO
 66
     1
 10
0.0
 20
0.0
 30
0.0
 70
    64
 71
     4
 72
     2
  0
VERTEX
  5
1AB0
  8
SKLO
 10
279.7874986321321
 20
17.99999999999989
 30
2.99999999999998
 70
   192
  0
VERTEX
  5
1AB1
  8
SKLO
 10
2.787498632132124
 20
17.99999999999989
 30
2.99999999999998
 70
   192
  0
VERTEX
  5
1AB2
  8
SKLO
 10
2.787498632132124
 20
17.99999999999989
 30
-3.00000000000002
 70
   192
  0
VERTEX
  5
1AB3
  8
SKLO
 10
279.7874986321321
 20
17.99999999999989
 30
-3.00000000000002
 70
   192
  0
VERTEX
  5
1AB4
  8
SKLO
 10
0.0
 20
0.0
 30
0.0
 70
   128
 71
     3
 72
     4
 73
    -1
  0
VERTEX
  5
1AB5
  8
SKLO
 10
0.0
 20
0.0
 30
0.0
 70
   128
 71
     2
 72
    -3
 73
     1
  0
SEQEND
  5
217C
  8
SKLO
  0
POLYLINE
  5
1AB6
  8
SKLO
 66
     1
 10
0.0
 20
0.0
 30
0.0
 70
    64
 71
     4
 72
     2
  0
VERTEX
  5
1AB7
  8
SKLO
 10
2.787498632132124
 20
17.99999999999989
 30
-3.00000000000002
 70
   192
  0
VERTEX
  5
1AB8
  8
SKLO
 10
2.787498632132124
 20
2000.0
 30
-3.00000000000002
 70
   192
  0
VERTEX
  5
1AB9
  8
SKLO
 10
279.7874986321321
 20
2000.0
 30
-3.00000000000002
 70
   192
  0
VERTEX
  5
1ABA
  8
SKLO
 10
279.7874986321321
 20
17.99999999999989
 30
-3.00000000000002
 70
   192
  0
VERTEX
  5
1ABB
  8
SKLO
 10
0.0
 20
0.0
 30
0.0
 70
   128
 71
     3
 72
     4
 73
    -1
  0
VERTEX
  5
1ABC
  8
SKLO
 10
0.0
 20
0.0
 30
0.0
 70
   128
 71
     2
 72
    -3
 73
     1
  0
SEQEND
  5
217D
  8
SKLO
  0
POLYLINE
  5
1ABD
  8
SKLO
 66
     1
 10
0.0
 20
0.0
 30
0.0
 70
    64
 71
     4
 72
     2
  0
VERTEX
  5
1ABE
  8
SKLO
 10
2.787498632132124
 20
2000.0
 30
2.99999999999998
 70
   192
  0
VERTEX
  5
1ABF
  8
SKLO
 10
279.7874986321321
 20
2000.0
 30
2.99999999999998
 70
   192
  0
VERTEX
  5
1AC0
  8
SKLO
 10
279.7874986321321
 20
17.99999999999989
 30
2.99999999999998
 70
   192
  0
VERTEX
  5
1AC1
  8
SKLO
 10
2.787498632132124
 20
17.99999999999989
 30
2.99999999999998
 70
   192
  0
VERTEX
  5
1AC2
  8
SKLO
 10
0.0
 20
0.0
 30
0.0
 70
   128
 71
     1
 72
     4
 73
    -3
  0
VERTEX
  5
1AC3
  8
SKLO
 10
0.0
 20
0.0
 30
0.0
 70
   128
 71
    -1
 72
     3
 73
     2
  0
SEQEND
  5
217E
  8
SKLO
  0
ENDBLK
  5
2178
  8
0
  0
BLOCK
  8
0
  2
*X5
 70
     1
 10
0.0
 20
0.0
 30
0.0
  3
*X5
  1

  0
POLYLINE
  5
1AC5
  8
MADLA
 66
     1
 10
0.0
 20
0.0
 30
0.0
 70
    64
 71
    10
 72
     8
  0
VERTEX
  5
1AC6
  8
MADLA
 10
187.2874986321321
 20
1110.0
 30
-8.000000000000092
 70
   192
  0
VERTEX
  5
1AC7
  8
MADLA
 10
192.2874986321321
 20
1110.0
 30
-8.000000000000092
 70
   192
  0
VERTEX
  5
1AC8
  8
MADLA
 10
192.2874986321321
 20
1110.0
 30
-3.000000000000092
 70
   192
  0
VERTEX
  5
1AC9
  8
MADLA
 10
187.2874986321321
 20
1110.0
 30
-3.000000000000092
 70
   192
  0
VERTEX
  5
1ACA
  8
MADLA
 10
189.7874986321321
 20
1107.5
 30
-3.000000000000091
 70
   192
  0
VERTEX
  5
1ACB
  8
MADLA
 10
189.7874986321321
 20
1107.5
 30
-8.00000000000009
 70
   192
  0
VERTEX
  5
1ACC
  8
MADLA
 10
188.0197316791657
 20
1108.232233047034
 30
-3.000000000000091
 70
   192
  0
VERTEX
  5
1ACD
  8
MADLA
 10
188.0197316791657
 20
1108.232233047034
 30
-8.00000000000009
 70
   192
  0
VERTEX
  5
1ACE
  8
MADLA
 10
191.5552655850984
 20
1108.232233047034
 30
-3.000000000000091
 70
   192
  0
VERTEX
  5
1ACF
  8
MADLA
 10
191.5552655850984
 20
1108.232233047034
 30
-8.00000000000009
 70
   192
  0
VERTEX
  5
1AD0
  8
MADLA
 10
0.0
 20
0.0
 30
0.0
 70
   128
 71
     8
 72
     1
 73
    -4
  0
VERTEX
  5
1AD1
  8
MADLA
 10
0.0
 20
0.0
 30
0.0
 70
   128
 71
     7
 72
    -8
 73
     4
  0
VERTEX
  5
1AD2
  8
MADLA
 10
0.0
 20
0.0
 30
0.0
 70
   128
 71
     6
 72
     8
 73
    -7
  0
VERTEX
  5
1AD3
  8
MADLA
 10
0.0
 20
0.0
 30
0.0
 70
   128
 71
     5
 72
    -6
 73
     7
  0
VERTEX
  5
1AD4
  8
MADLA
 10
0.0
 20
0.0
 30
0.0
 70
   128
 71
    10
 72
     6
 73
    -5
  0
VERTEX
  5
1AD5
  8
MADLA
 10
0.0
 20
0.0
 30
0.0
 70
   128
 71
     9
 72
   -10
 73
     5
  0
VERTEX
  5
1AD6
  8
MADLA
 10
0.0
 20
0.0
 30
0.0
 70
   128
 71
     2
 72
    10
 73
    -9
  0
VERTEX
  5
1AD7
  8
MADLA
 10
0.0
 20
0.0
 30
0.0
 70
   128
 71
     3
 72
    -2
 73
     9
  0
SEQEND
  5
2181
  8
MADLA
  0
POLYLINE
  5
1AD8
  8
MADLA
 66
     1
 10
0.0
 20
0.0
 30
0.0
 70
    64
 71
    10
 72
     8
  0
VERTEX
  5
1AD9
  8
MADLA
 10
187.2874986321322
 20
910.0
 30
-7.99999999999995
 70
   192
  0
VERTEX
  5
1ADA
  8
MADLA
 10
192.2874986321322
 20
910.0
 30
-7.99999999999995
 70
   192
  0
VERTEX
  5
1ADB
  8
MADLA
 10
192.2874986321322
 20
910.0
 30
-2.99999999999995
 70
   192
  0
VERTEX
  5
1ADC
  8
MADLA
 10
187.2874986321322
 20
910.0
 30
-2.99999999999995
 70
   192
  0
VERTEX
  5
1ADD
  8
MADLA
 10
189.7874986321322
 20
907.5
 30
-2.999999999999949
 70
   192
  0
VERTEX
  5
1ADE
  8
MADLA
 10
189.7874986321322
 20
907.5
 30
-7.999999999999948
 70
   192
  0
VERTEX
  5
1ADF
  8
MADLA
 10
188.0197316791658
 20
908.2322330470337
 30
-2.999999999999949
 70
   192
  0
VERTEX
  5
1AE0
  8
MADLA
 10
188.0197316791658
 20
908.2322330470337
 30
-7.999999999999949
 70
   192
  0
VERTEX
  5
1AE1
  8
MADLA
 10
191.5552655850985
 20
908.2322330470337
 30
-2.999999999999949
 70
   192
  0
VERTEX
  5
1AE2
  8
MADLA
 10
191.5552655850985
 20
908.2322330470337
 30
-7.999999999999949
 70
   192
  0
VERTEX
  5
1AE3
  8
MADLA
 10
0.0
 20
0.0
 30
0.0
 70
   128
 71
     8
 72
     1
 73
    -4
  0
VERTEX
  5
1AE4
  8
MADLA
 10
0.0
 20
0.0
 30
0.0
 70
   128
 71
     7
 72
    -8
 73
     4
  0
VERTEX
  5
1AE5
  8
MADLA
 10
0.0
 20
0.0
 30
0.0
 70
   128
 71
     6
 72
     8
 73
    -7
  0
VERTEX
  5
1AE6
  8
MADLA
 10
0.0
 20
0.0
 30
0.0
 70
   128
 71
     5
 72
    -6
 73
     7
  0
VERTEX
  5
1AE7
  8
MADLA
 10
0.0
 20
0.0
 30
0.0
 70
   128
 71
    10
 72
     6
 73
    -5
  0
VERTEX
  5
1AE8
  8
MADLA
 10
0.0
 20
0.0
 30
0.0
 70
   128
 71
     9
 72
   -10
 73
     5
  0
VERTEX
  5
1AE9
  8
MADLA
 10
0.0
 20
0.0
 30
0.0
 70
   128
 71
     2
 72
    10
 73
    -9
  0
VERTEX
  5
1AEA
  8
MADLA
 10
0.0
 20
0.0
 30
0.0
 70
   128
 71
     3
 72
    -2
 73
     9
  0
SEQEND
  5
2182
  8
MADLA
  0
POLYLINE
  5
1AEB
  8
MADLA
 66
     1
 10
0.0
 20
0.0
 30
0.0
 70
    64
 71
     4
 72
     2
  0
VERTEX
  5
1AEC
  8
MADLA
 10
179.7874986321322
 20
920.0
 30
-37.99999999999997
 70
   192
  0
VERTEX
  5
1AED
  8
MADLA
 10
179.7874986321321
 20
1100.0
 30
-38.00000000000009
 70
   192
  0
VERTEX
  5
1AEE
  8
MADLA
 10
199.7874986321321
 20
1100.0
 30
-38.00000000000009
 70
   192
  0
VERTEX
  5
1AEF
  8
MADLA
 10
199.7874986321322
 20
920.0
 30
-37.99999999999997
 70
   192
  0
VERTEX
  5
1AF0
  8
MADLA
 10
0.0
 20
0.0
 30
0.0
 70
   128
 71
     1
 72
     4
 73
    -3
  0
VERTEX
  5
1AF1
  8
MADLA
 10
0.0
 20
0.0
 30
0.0
 70
   128
 71
    -1
 72
     3
 73
     2
  0
SEQEND
  5
2183
  8
MADLA
  0
POLYLINE
  5
1AF2
  8
MADLA
 66
     1
 10
0.0
 20
0.0
 30
0.0
 70
    64
 71
     8
 72
     6
  0
VERTEX
  5
1AF3
  8
MADLA
 10
199.7874986321322
 20
900.0
 30
-47.99999999999996
 70
   192
  0
VERTEX
  5
1AF4
  8
MADLA
 10
199.7874986321321
 20
1120.0
 30
-48.00000000000011
 70
   192
  0
VERTEX
  5
1AF5
  8
MADLA
 10
199.7874986321321
 20
1120.0
 30
-3.000000000000099
 70
   192
  0
VERTEX
  5
1AF6
  8
MADLA
 10
199.7874986321321
 20
1100.0
 30
-3.000000000000086
 70
   192
  0
VERTEX
  5
1AF7
  8
MADLA
 10
199.7874986321321
 20
1100.0
 30
-38.00000000000009
 70
   192
  0
VERTEX
  5
1AF8
  8
MADLA
 10
199.7874986321322
 20
920.0
 30
-37.99999999999997
 70
   192
  0
VERTEX
  5
1AF9
  8
MADLA
 10
199.7874986321322
 20
920.0
 30
-2.999999999999957
 70
   192
  0
VERTEX
  5
1AFA
  8
MADLA
 10
199.7874986321322
 20
900.0
 30
-2.99999999999995
 70
   192
  0
VERTEX
  5
1AFB
  8
MADLA
 10
0.0
 20
0.0
 30
0.0
 70
   128
 71
     3
 72
     4
 73
    -5
  0
VERTEX
  5
1AFC
  8
MADLA
 10
0.0
 20
0.0
 30
0.0
 70
   128
 71
     2
 72
    -3
 73
    -5
  0
VERTEX
  5
1AFD
  8
MADLA
 10
0.0
 20
0.0
 30
0.0
 70
   128
 71
    -6
 72
     1
 73
    -2
  0
VERTEX
  5
1AFE
  8
MADLA
 10
0.0
 20
0.0
 30
0.0
 70
   128
 71
     5
 72
    -6
 73
    -2
  0
VERTEX
  5
1AFF
  8
MADLA
 10
0.0
 20
0.0
 30
0.0
 70
   128
 71
     7
 72
     8
 73
    -1
  0
VERTEX
  5
1B00
  8
MADLA
 10
0.0
 20
0.0
 30
0.0
 70
   128
 71
     6
 72
    -7
 73
    -1
  0
SEQEND
  5
2184
  8
MADLA
  0
POLYLINE
  5
1B01
  8
MADLA
 66
     1
 10
0.0
 20
0.0
 30
0.0
 70
    64
 71
     4
 72
     2
  0
VERTEX
  5
1B02
  8
MADLA
 10
199.7874986321321
 20
1120.0
 30
-48.0000000000001
 70
   192
  0
VERTEX
  5
1B03
  8
MADLA
 10
179.7874986321321
 20
1120.0
 30
-48.0000000000001
 70
   192
  0
VERTEX
  5
1B04
  8
MADLA
 10
179.7874986321321
 20
1120.0
 30
-3.000000000000099
 70
   192
  0
VERTEX
  5
1B05
  8
MADLA
 10
199.7874986321321
 20
1120.0
 30
-3.000000000000099
 70
   192
  0
VERTEX
  5
1B06
  8
MADLA
 10
0.0
 20
0.0
 30
0.0
 70
   128
 71
     3
 72
     4
 73
    -1
  0
VERTEX
  5
1B07
  8
MADLA
 10
0.0
 20
0.0
 30
0.0
 70
   128
 71
     2
 72
    -3
 73
     1
  0
SEQEND
  5
2185
  8
MADLA
  0
POLYLINE
  5
1B08
  8
MADLA
 66
     1
 10
0.0
 20
0.0
 30
0.0
 70
    64
 71
     8
 72
     6
  0
VERTEX
  5
1B09
  8
MADLA
 10
179.7874986321321
 20
1120.0
 30
-48.00000000000011
 70
   192
  0
VERTEX
  5
1B0A
  8
MADLA
 10
179.7874986321322
 20
900.0
 30
-47.99999999999996
 70
   192
  0
VERTEX
  5
1B0B
  8
MADLA
 10
179.7874986321322
 20
900.0
 30
-2.99999999999995
 70
   192
  0
VERTEX
  5
1B0C
  8
MADLA
 10
179.7874986321322
 20
920.0
 30
-2.999999999999964
 70
   192
  0
VERTEX
  5
1B0D
  8
MADLA
 10
179.7874986321322
 20
920.0
 30
-37.99999999999997
 70
   192
  0
VERTEX
  5
1B0E
  8
MADLA
 10
179.7874986321321
 20
1100.0
 30
-38.00000000000009
 70
   192
  0
VERTEX
  5
1B0F
  8
MADLA
 10
179.7874986321321
 20
1100.0
 30
-3.000000000000085
 70
   192
  0
VERTEX
  5
1B10
  8
MADLA
 10
179.7874986321321
 20
1120.0
 30
-3.000000000000099
 70
   192
  0
VERTEX
  5
1B11
  8
MADLA
 10
0.0
 20
0.0
 30
0.0
 70
   128
 71
     3
 72
     4
 73
    -5
  0
VERTEX
  5
1B12
  8
MADLA
 10
0.0
 20
0.0
 30
0.0
 70
   128
 71
     2
 72
    -3
 73
    -5
  0
VERTEX
  5
1B13
  8
MADLA
 10
0.0
 20
0.0
 30
0.0
 70
   128
 71
    -6
 72
     1
 73
    -2
  0
VERTEX
  5
1B14
  8
MADLA
 10
0.0
 20
0.0
 30
0.0
 70
   128
 71
     5
 72
    -6
 73
    -2
  0
VERTEX
  5
1B15
  8
MADLA
 10
0.0
 20
0.0
 30
0.0
 70
   128
 71
     7
 72
     8
 73
    -1
  0
VERTEX
  5
1B16
  8
MADLA
 10
0.0
 20
0.0
 30
0.0
 70
   128
 71
     6
 72
    -7
 73
    -1
  0
SEQEND
  5
2186
  8
MADLA
  0
POLYLINE
  5
1B17
  8
MADLA
 66
     1
 10
0.0
 20
0.0
 30
0.0
 70
    64
 71
     4
 72
     2
  0
VERTEX
  5
1B18
  8
MADLA
 10
179.7874986321322
 20
900.0
 30
-47.99999999999996
 70
   192
  0
VERTEX
  5
1B19
  8
MADLA
 10
199.7874986321322
 20
900.0
 30
-47.99999999999996
 70
   192
  0
VERTEX
  5
1B1A
  8
MADLA
 10
199.7874986321322
 20
900.0
 30
-2.99999999999995
 70
   192
  0
VERTEX
  5
1B1B
  8
MADLA
 10
179.7874986321322
 20
900.0
 30
-2.99999999999995
 70
   192
  0
VERTEX
  5
1B1C
  8
MADLA
 10
0.0
 20
0.0
 30
0.0
 70
   128
 71
     3
 72
     4
 73
    -1
  0
VERTEX
  5
1B1D
  8
MADLA
 10
0.0
 20
0.0
 30
0.0
 70
   128
 71
     2
 72
    -3
 73
     1
  0
SEQEND
  5
2187
  8
MADLA
  0
POLYLINE
  5
1B1E
  8
MADLA
 66
     1
 10
0.0
 20
0.0
 30
0.0
 70
    64
 71
     4
 72
     2
  0
VERTEX
  5
1B1F
  8
MADLA
 10
199.7874986321321
 20
1120.0
 30
-48.00000000000011
 70
   192
  0
VERTEX
  5
1B20
  8
MADLA
 10
199.7874986321322
 20
900.0
 30
-47.99999999999996
 70
   192
  0
VERTEX
  5
1B21
  8
MADLA
 10
179.7874986321322
 20
900.0
 30
-47.99999999999996
 70
   192
  0
VERTEX
  5
1B22
  8
MADLA
 10
179.7874986321321
 20
1120.0
 30
-48.00000000000011
 70
   192
  0
VERTEX
  5
1B23
  8
MADLA
 10
0.0
 20
0.0
 30
0.0
 70
   128
 71
     3
 72
     4
 73
    -1
  0
VERTEX
  5
1B24
  8
MADLA
 10
0.0
 20
0.0
 30
0.0
 70
   128
 71
     2
 72
    -3
 73
     1
  0
SEQEND
  5
2188
  8
MADLA
  0
POLYLINE
  5
1B25
  8
MADLA
 66
     1
 10
0.0
 20
0.0
 30
0.0
 70
    64
 71
     4
 72
     2
  0
VERTEX
  5
1B26
  8
MADLA
 10
179.7874986321321
 20
1100.0
 30
-38.00000000000009
 70
   192
  0
VERTEX
  5
1B27
  8
MADLA
 10
179.7874986321321
 20
1100.0
 30
-3.000000000000085
 70
   192
  0
VERTEX
  5
1B28
  8
MADLA
 10
199.7874986321321
 20
1100.0
 30
-3.000000000000085
 70
   192
  0
VERTEX
  5
1B29
  8
MADLA
 10
199.7874986321321
 20
1100.0
 30
-38.00000000000009
 70
   192
  0
VERTEX
  5
1B2A
  8
MADLA
 10
0.0
 20
0.0
 30
0.0
 70
   128
 71
     1
 72
     4
 73
    -3
  0
VERTEX
  5
1B2B
  8
MADLA
 10
0.0
 20
0.0
 30
0.0
 70
   128
 71
    -1
 72
     3
 73
     2
  0
SEQEND
  5
2189
  8
MADLA
  0
POLYLINE
  5
1B2C
  8
MADLA
 66
     1
 10
0.0
 20
0.0
 30
0.0
 70
    64
 71
    13
 72
    13
  0
VERTEX
  5
1B2D
  8
MADLA
 10
179.7874986321321
 20
1120.0
 30
-3.000000000000099
 70
   192
  0
VERTEX
  5
1B2E
  8
MADLA
 10
179.7874986321321
 20
1100.0
 30
-3.000000000000086
 70
   192
  0
VERTEX
  5
1B2F
  8
MADLA
 10
199.7874986321321
 20
1100.0
 30
-3.000000000000085
 70
   192
  0
VERTEX
  5
1B30
  8
MADLA
 10
199.7874986321321
 20
1120.0
 30
-3.000000000000099
 70
   192
  0
VERTEX
  5
1B31
  8
MADLA
 10
187.2874986321321
 20
1110.0
 30
-3.000000000000092
 70
   192
  0
VERTEX
  5
1B32
  8
MADLA
 10
187.7649561461947
 20
1111.469463130731
 30
-3.000000000000093
 70
   192
  0
VERTEX
  5
1B33
  8
MADLA
 10
189.0149561461947
 20
1112.377641290738
 30
-3.000000000000094
 70
   192
  0
VERTEX
  5
1B34
  8
MADLA
 10
190.5600411180694
 20
1112.377641290738
 30
-3.000000000000094
 70
   192
  0
VERTEX
  5
1B35
  8
MADLA
 10
191.8100411180694
 20
1111.469463130731
 30
-3.000000000000093
 70
   192
  0
VERTEX
  5
1B36
  8
MADLA
 10
192.2874986321321
 20
1110.0
 30
-3.000000000000092
 70
   192
  0
VERTEX
  5
1B37
  8
MADLA
 10
191.5552655850984
 20
1108.232233047034
 30
-3.000000000000091
 70
   192
  0
VERTEX
  5
1B38
  8
MADLA
 10
189.7874986321321
 20
1107.5
 30
-3.000000000000091
 70
   192
  0
VERTEX
  5
1B39
  8
MADLA
 10
188.0197316791657
 20
1108.232233047034
 30
-3.000000000000091
 70
   192
  0
VERTEX
  5
1B3A
  8
MADLA
 10
0.0
 20
0.0
 30
0.0
 70
   128
 71
    -1
 72
     5
 73
    -6
  0
VERTEX
  5
1B3B
  8
MADLA
 10
0.0
 20
0.0
 30
0.0
 70
   128
 71
     6
 72
    -7
 73
    -1
  0
VERTEX
  5
1B3C
  8
MADLA
 10
0.0
 20
0.0
 30
0.0
 70
   128
 71
    -8
 72
     4
 73
    -1
  0
VERTEX
  5
1B3D
  8
MADLA
 10
0.0
 20
0.0
 30
0.0
 70
   128
 71
     7
 72
    -8
 73
    -1
  0
VERTEX
  5
1B3E
  8
MADLA
 10
0.0
 20
0.0
 30
0.0
 70
   128
 71
     8
 72
    -9
 73
    -4
  0
VERTEX
  5
1B3F
  8
MADLA
 10
0.0
 20
0.0
 30
0.0
 70
   128
 71
     9
 72
   -10
 73
    -4
  0
VERTEX
  5
1B40
  8
MADLA
 10
0.0
 20
0.0
 30
0.0
 70
   128
 71
   -11
 72
     3
 73
    -4
  0
VERTEX
  5
1B41
  8
MADLA
 10
0.0
 20
0.0
 30
0.0
 70
   128
 71
    10
 72
   -11
 73
    -4
  0
VERTEX
  5
1B42
  8
MADLA
 10
0.0
 20
0.0
 30
0.0
 70
   128
 71
   -12
 72
     2
 73
    -3
  0
VERTEX
  5
1B43
  8
MADLA
 10
0.0
 20
0.0
 30
0.0
 70
   128
 71
    11
 72
   -12
 73
    -3
  0
VERTEX
  5
1B44
  8
MADLA
 10
0.0
 20
0.0
 30
0.0
 70
   128
 71
    12
 72
   -13
 73
    -2
  0
VERTEX
  5
1B45
  8
MADLA
 10
0.0
 20
0.0
 30
0.0
 70
   128
 71
    -5
 72
     1
 73
    -2
  0
VERTEX
  5
1B46
  8
MADLA
 10
0.0
 20
0.0
 30
0.0
 70
   128
 71
    13
 72
    -5
 73
    -2
  0
SEQEND
  5
218A
  8
MADLA
  0
POLYLINE
  5
1B47
  8
MADLA
 66
     1
 10
0.0
 20
0.0
 30
0.0
 70
    64
 71
     4
 72
     2
  0
VERTEX
  5
1B48
  8
MADLA
 10
199.7874986321322
 20
920.0
 30
-37.99999999999997
 70
   192
  0
VERTEX
  5
1B49
  8
MADLA
 10
199.7874986321322
 20
920.0
 30
-2.999999999999957
 70
   192
  0
VERTEX
  5
1B4A
  8
MADLA
 10
179.7874986321322
 20
920.0
 30
-2.999999999999957
 70
   192
  0
VERTEX
  5
1B4B
  8
MADLA
 10
179.7874986321322
 20
920.0
 30
-37.99999999999997
 70
   192
  0
VERTEX
  5
1B4C
  8
MADLA
 10
0.0
 20
0.0
 30
0.0
 70
   128
 71
     1
 72
     4
 73
    -3
  0
VERTEX
  5
1B4D
  8
MADLA
 10
0.0
 20
0.0
 30
0.0
 70
   128
 71
    -1
 72
     3
 73
     2
  0
SEQEND
  5
218B
  8
MADLA
  0
POLYLINE
  5
1B4E
  8
MADLA
 66
     1
 10
0.0
 20
0.0
 30
0.0
 70
    64
 71
    13
 72
    13
  0
VERTEX
  5
1B4F
  8
MADLA
 10
179.7874986321322
 20
920.0
 30
-2.999999999999957
 70
   192
  0
VERTEX
  5
1B50
  8
MADLA
 10
199.7874986321322
 20
920.0
 30
-2.999999999999964
 70
   192
  0
VERTEX
  5
1B51
  8
MADLA
 10
199.7874986321322
 20
900.0
 30
-2.99999999999995
 70
   192
  0
VERTEX
  5
1B52
  8
MADLA
 10
179.7874986321322
 20
900.0
 30
-2.99999999999995
 70
   192
  0
VERTEX
  5
1B53
  8
MADLA
 10
187.2874986321322
 20
910.0
 30
-2.99999999999995
 70
   192
  0
VERTEX
  5
1B54
  8
MADLA
 10
188.0197316791658
 20
908.2322330470337
 30
-2.999999999999949
 70
   192
  0
VERTEX
  5
1B55
  8
MADLA
 10
189.7874986321322
 20
907.5
 30
-2.999999999999949
 70
   192
  0
VERTEX
  5
1B56
  8
MADLA
 10
191.5552655850985
 20
908.2322330470337
 30
-2.999999999999949
 70
   192
  0
VERTEX
  5
1B57
  8
MADLA
 10
192.2874986321322
 20
910.0
 30
-2.99999999999995
 70
   192
  0
VERTEX
  5
1B58
  8
MADLA
 10
191.8100411180696
 20
911.4694631307311
 30
-2.999999999999951
 70
   192
  0
VERTEX
  5
1B59
  8
MADLA
 10
190.5600411180696
 20
912.3776412907379
 30
-2.999999999999952
 70
   192
  0
VERTEX
  5
1B5A
  8
MADLA
 10
189.0149561461948
 20
912.3776412907379
 30
-2.999999999999952
 70
   192
  0
VERTEX
  5
1B5B
  8
MADLA
 10
187.7649561461948
 20
911.4694631307311
 30
-2.999999999999951
 70
   192
  0
VERTEX
  5
1B5C
  8
MADLA
 10
0.0
 20
0.0
 30
0.0
 70
   128
 71
     6
 72
    -5
 73
    -4
  0
VERTEX
  5
1B5D
  8
MADLA
 10
0.0
 20
0.0
 30
0.0
 70
   128
 71
     4
 72
    -3
 73
    -7
  0
VERTEX
  5
1B5E
  8
MADLA
 10
0.0
 20
0.0
 30
0.0
 70
   128
 71
    -4
 72
     7
 73
    -6
  0
VERTEX
  5
1B5F
  8
MADLA
 10
0.0
 20
0.0
 30
0.0
 70
   128
 71
    -3
 72
     8
 73
    -7
  0
VERTEX
  5
1B60
  8
MADLA
 10
0.0
 20
0.0
 30
0.0
 70
   128
 71
    -3
 72
     9
 73
    -8
  0
VERTEX
  5
1B61
  8
MADLA
 10
0.0
 20
0.0
 30
0.0
 70
   128
 71
     3
 72
    -2
 73
   -10
  0
VERTEX
  5
1B62
  8
MADLA
 10
0.0
 20
0.0
 30
0.0
 70
   128
 71
    -3
 72
    10
 73
    -9
  0
VERTEX
  5
1B63
  8
MADLA
 10
0.0
 20
0.0
 30
0.0
 70
   128
 71
    -2
 72
    11
 73
   -10
  0
VERTEX
  5
1B64
  8
MADLA
 10
0.0
 20
0.0
 30
0.0
 70
   128
 71
     2
 72
    -1
 73
   -12
  0
VERTEX
  5
1B65
  8
MADLA
 10
0.0
 20
0.0
 30
0.0
 70
   128
 71
    -2
 72
    12
 73
   -11
  0
VERTEX
  5
1B66
  8
MADLA
 10
0.0
 20
0.0
 30
0.0
 70
   128
 71
    -1
 72
    13
 73
   -12
  0
VERTEX
  5
1B67
  8
MADLA
 10
0.0
 20
0.0
 30
0.0
 70
   128
 71
     1
 72
    -4
 73
    -5
  0
VERTEX
  5
1B68
  8
MADLA
 10
0.0
 20
0.0
 30
0.0
 70
   128
 71
    -1
 72
     5
 73
   -13
  0
SEQEND
  5
218C
  8
MADLA
  0
POLYLINE
  5
1B69
  8
MADLA
 66
     1
 10
0.0
 20
0.0
 30
0.0
 70
    64
 71
    12
 72
    10
  0
VERTEX
  5
1B6A
  8
MADLA
 10
192.2874986321322
 20
910.0
 30
-7.99999999999995
 70
   192
  0
VERTEX
  5
1B6B
  8
MADLA
 10
192.2874986321322
 20
910.0
 30
-2.99999999999995
 70
   192
  0
VERTEX
  5
1B6C
  8
MADLA
 10
191.8100411180696
 20
911.4694631307311
 30
-2.999999999999951
 70
   192
  0
VERTEX
  5
1B6D
  8
MADLA
 10
191.8100411180696
 20
911.4694631307311
 30
-7.999999999999951
 70
   192
  0
VERTEX
  5
1B6E
  8
MADLA
 10
187.2874986321322
 20
910.0
 30
-2.99999999999995
 70
   192
  0
VERTEX
  5
1B6F
  8
MADLA
 10
187.2874986321322
 20
910.0
 30
-7.99999999999995
 70
   192
  0
VERTEX
  5
1B70
  8
MADLA
 10
187.7649561461948
 20
911.4694631307311
 30
-7.999999999999951
 70
   192
  0
VERTEX
  5
1B71
  8
MADLA
 10
187.7649561461948
 20
911.4694631307311
 30
-2.999999999999951
 70
   192
  0
VERTEX
  5
1B72
  8
MADLA
 10
189.0149561461948
 20
912.3776412907379
 30
-7.999999999999952
 70
   192
  0
VERTEX
  5
1B73
  8
MADLA
 10
190.5600411180696
 20
912.3776412907379
 30
-7.999999999999952
 70
   192
  0
VERTEX
  5
1B74
  8
MADLA
 10
190.5600411180696
 20
912.3776412907379
 30
-2.999999999999952
 70
   192
  0
VERTEX
  5
1B75
  8
MADLA
 10
189.0149561461948
 20
912.3776412907379
 30
-2.999999999999952
 70
   192
  0
VERTEX
  5
1B76
  8
MADLA
 10
0.0
 20
0.0
 30
0.0
 70
   128
 71
     1
 72
     2
 73
    -3
  0
VERTEX
  5
1B77
  8
MADLA
 10
0.0
 20
0.0
 30
0.0
 70
   128
 71
     4
 72
    -1
 73
     3
  0
VERTEX
  5
1B78
  8
MADLA
 10
0.0
 20
0.0
 30
0.0
 70
   128
 71
     5
 72
     6
 73
    -7
  0
VERTEX
  5
1B79
  8
MADLA
 10
0.0
 20
0.0
 30
0.0
 70
   128
 71
     8
 72
    -5
 73
     7
  0
VERTEX
  5
1B7A
  8
MADLA
 10
0.0
 20
0.0
 30
0.0
 70
   128
 71
     9
 72
    10
 73
   -11
  0
VERTEX
  5
1B7B
  8
MADLA
 10
0.0
 20
0.0
 30
0.0
 70
   128
 71
    12
 72
    -9
 73
    11
  0
VERTEX
  5
1B7C
  8
MADLA
 10
0.0
 20
0.0
 30
0.0
 70
   128
 71
    10
 72
     4
 73
    -3
  0
VERTEX
  5
1B7D
  8
MADLA
 10
0.0
 20
0.0
 30
0.0
 70
   128
 71
    11
 72
   -10
 73
     3
  0
VERTEX
  5
1B7E
  8
MADLA
 10
0.0
 20
0.0
 30
0.0
 70
   128
 71
     7
 72
     9
 73
   -12
  0
VERTEX
  5
1B7F
  8
MADLA
 10
0.0
 20
0.0
 30
0.0
 70
   128
 71
     8
 72
    -7
 73
    12
  0
SEQEND
  5
218D
  8
MADLA
  0
POLYLINE
  5
1B80
  8
MADLA
 66
     1
 10
0.0
 20
0.0
 30
0.0
 70
    64
 71
     9
 72
     7
  0
VERTEX
  5
1B81
  8
MADLA
 10
192.2874986321322
 20
910.0
 30
-7.99999999999995
 70
   192
  0
VERTEX
  5
1B82
  8
MADLA
 10
191.8100411180696
 20
911.4694631307311
 30
-7.999999999999951
 70
   192
  0
VERTEX
  5
1B83
  8
MADLA
 10
190.5600411180696
 20
912.3776412907379
 30
-7.999999999999952
 70
   192
  0
VERTEX
  5
1B84
  8
MADLA
 10
189.0149561461948
 20
912.3776412907379
 30
-7.999999999999952
 70
   192
  0
VERTEX
  5
1B85
  8
MADLA
 10
187.7649561461948
 20
911.4694631307311
 30
-7.999999999999951
 70
   192
  0
VERTEX
  5
1B86
  8
MADLA
 10
187.2874986321322
 20
910.0
 30
-7.99999999999995
 70
   192
  0
VERTEX
  5
1B87
  8
MADLA
 10
188.0197316791658
 20
908.2322330470337
 30
-7.999999999999949
 70
   192
  0
VERTEX
  5
1B88
  8
MADLA
 10
189.7874986321322
 20
907.5
 30
-7.999999999999948
 70
   192
  0
VERTEX
  5
1B89
  8
MADLA
 10
191.5552655850985
 20
908.2322330470337
 30
-7.999999999999949
 70
   192
  0
VERTEX
  5
1B8A
  8
MADLA
 10
0.0
 20
0.0
 30
0.0
 70
   128
 71
     8
 72
     9
 73
    -1
  0
VERTEX
  5
1B8B
  8
MADLA
 10
0.0
 20
0.0
 30
0.0
 70
   128
 71
     7
 72
    -8
 73
    -1
  0
VERTEX
  5
1B8C
  8
MADLA
 10
0.0
 20
0.0
 30
0.0
 70
   128
 71
     6
 72
    -7
 73
    -1
  0
VERTEX
  5
1B8D
  8
MADLA
 10
0.0
 20
0.0
 30
0.0
 70
   128
 71
     5
 72
    -6
 73
    -1
  0
VERTEX
  5
1B8E
  8
MADLA
 10
0.0
 20
0.0
 30
0.0
 70
   128
 71
     4
 72
    -5
 73
    -1
  0
VERTEX
  5
1B8F
  8
MADLA
 10
0.0
 20
0.0
 30
0.0
 70
   128
 71
     3
 72
    -4
 73
    -1
  0
VERTEX
  5
1B90
  8
MADLA
 10
0.0
 20
0.0
 30
0.0
 70
   128
 71
     2
 72
    -3
 73
     1
  0
SEQEND
  5
218E
  8
MADLA
  0
POLYLINE
  5
1B91
  8
MADLA
 66
     1
 10
0.0
 20
0.0
 30
0.0
 70
    64
 71
    12
 72
    10
  0
VERTEX
  5
1B92
  8
MADLA
 10
192.2874986321321
 20
1110.0
 30
-8.000000000000092
 70
   192
  0
VERTEX
  5
1B93
  8
MADLA
 10
192.2874986321321
 20
1110.0
 30
-3.000000000000092
 70
   192
  0
VERTEX
  5
1B94
  8
MADLA
 10
191.8100411180694
 20
1111.469463130731
 30
-3.000000000000093
 70
   192
  0
VERTEX
  5
1B95
  8
MADLA
 10
191.8100411180694
 20
1111.469463130731
 30
-8.000000000000094
 70
   192
  0
VERTEX
  5
1B96
  8
MADLA
 10
187.2874986321321
 20
1110.0
 30
-3.000000000000092
 70
   192
  0
VERTEX
  5
1B97
  8
MADLA
 10
187.2874986321321
 20
1110.0
 30
-8.000000000000092
 70
   192
  0
VERTEX
  5
1B98
  8
MADLA
 10
187.7649561461947
 20
1111.469463130731
 30
-8.000000000000094
 70
   192
  0
VERTEX
  5
1B99
  8
MADLA
 10
187.7649561461947
 20
1111.469463130731
 30
-3.000000000000093
 70
   192
  0
VERTEX
  5
1B9A
  8
MADLA
 10
189.0149561461947
 20
1112.377641290738
 30
-8.000000000000094
 70
   192
  0
VERTEX
  5
1B9B
  8
MADLA
 10
190.5600411180694
 20
1112.377641290738
 30
-8.000000000000094
 70
   192
  0
VERTEX
  5
1B9C
  8
MADLA
 10
190.5600411180694
 20
1112.377641290738
 30
-3.000000000000094
 70
   192
  0
VERTEX
  5
1B9D
  8
MADLA
 10
189.0149561461947
 20
1112.377641290738
 30
-3.000000000000094
 70
   192
  0
VERTEX
  5
1B9E
  8
MADLA
 10
0.0
 20
0.0
 30
0.0
 70
   128
 71
     1
 72
     2
 73
    -3
  0
VERTEX
  5
1B9F
  8
MADLA
 10
0.0
 20
0.0
 30
0.0
 70
   128
 71
     4
 72
    -1
 73
     3
  0
VERTEX
  5
1BA0
  8
MADLA
 10
0.0
 20
0.0
 30
0.0
 70
   128
 71
     5
 72
     6
 73
    -7
  0
VERTEX
  5
1BA1
  8
MADLA
 10
0.0
 20
0.0
 30
0.0
 70
   128
 71
     8
 72
    -5
 73
     7
  0
VERTEX
  5
1BA2
  8
MADLA
 10
0.0
 20
0.0
 30
0.0
 70
   128
 71
     9
 72
    10
 73
   -11
  0
VERTEX
  5
1BA3
  8
MADLA
 10
0.0
 20
0.0
 30
0.0
 70
   128
 71
    12
 72
    -9
 73
    11
  0
VERTEX
  5
1BA4
  8
MADLA
 10
0.0
 20
0.0
 30
0.0
 70
   128
 71
    10
 72
     4
 73
    -3
  0
VERTEX
  5
1BA5
  8
MADLA
 10
0.0
 20
0.0
 30
0.0
 70
   128
 71
    11
 72
   -10
 73
     3
  0
VERTEX
  5
1BA6
  8
MADLA
 10
0.0
 20
0.0
 30
0.0
 70
   128
 71
     7
 72
     9
 73
   -12
  0
VERTEX
  5
1BA7
  8
MADLA
 10
0.0
 20
0.0
 30
0.0
 70
   128
 71
     8
 72
    -7
 73
    12
  0
SEQEND
  5
218F
  8
MADLA
  0
POLYLINE
  5
1BA8
  8
MADLA
 66
     1
 10
0.0
 20
0.0
 30
0.0
 70
    64
 71
     9
 72
     7
  0
VERTEX
  5
1BA9
  8
MADLA
 10
192.2874986321321
 20
1110.0
 30
-8.000000000000092
 70
   192
  0
VERTEX
  5
1BAA
  8
MADLA
 10
191.8100411180694
 20
1111.469463130731
 30
-8.000000000000094
 70
   192
  0
VERTEX
  5
1BAB
  8
MADLA
 10
190.5600411180694
 20
1112.377641290738
 30
-8.000000000000094
 70
   192
  0
VERTEX
  5
1BAC
  8
MADLA
 10
189.0149561461947
 20
1112.377641290738
 30
-8.000000000000094
 70
   192
  0
VERTEX
  5
1BAD
  8
MADLA
 10
187.7649561461947
 20
1111.469463130731
 30
-8.000000000000094
 70
   192
  0
VERTEX
  5
1BAE
  8
MADLA
 10
187.2874986321321
 20
1110.0
 30
-8.000000000000092
 70
   192
  0
VERTEX
  5
1BAF
  8
MADLA
 10
188.0197316791657
 20
1108.232233047034
 30
-8.00000000000009
 70
   192
  0
VERTEX
  5
1BB0
  8
MADLA
 10
189.7874986321321
 20
1107.5
 30
-8.00000000000009
 70
   192
  0
VERTEX
  5
1BB1
  8
MADLA
 10
191.5552655850984
 20
1108.232233047034
 30
-8.00000000000009
 70
   192
  0
VERTEX
  5
1BB2
  8
MADLA
 10
0.0
 20
0.0
 30
0.0
 70
   128
 71
     8
 72
     9
 73
    -1
  0
VERTEX
  5
1BB3
  8
MADLA
 10
0.0
 20
0.0
 30
0.0
 70
   128
 71
     7
 72
    -8
 73
    -1
  0
VERTEX
  5
1BB4
  8
MADLA
 10
0.0
 20
0.0
 30
0.0
 70
   128
 71
     6
 72
    -7
 73
    -1
  0
VERTEX
  5
1BB5
  8
MADLA
 10
0.0
 20
0.0
 30
0.0
 70
   128
 71
     5
 72
    -6
 73
    -1
  0
VERTEX
  5
1BB6
  8
MADLA
 10
0.0
 20
0.0
 30
0.0
 70
   128
 71
     4
 72
    -5
 73
    -1
  0
VERTEX
  5
1BB7
  8
MADLA
 10
0.0
 20
0.0
 30
0.0
 70
   128
 71
     3
 72
    -4
 73
    -1
  0
VERTEX
  5
1BB8
  8
MADLA
 10
0.0
 20
0.0
 30
0.0
 70
   128
 71
     2
 72
    -3
 73
     1
  0
SEQEND
  5
2190
  8
MADLA
  0
ENDBLK
  5
2180
  8
0
  0
BLOCK
  8
0
  2
*X6
 70
     1
 10
0.0
 20
0.0
 30
0.0
  3
*X6
  1

  0
POLYLINE
  5
1BBA
  8
MADLA
 66
     1
 10
0.0
 20
0.0
 30
0.0
 70
    64
 71
    10
 72
     8
  0
VERTEX
  5
1BBB
  8
MADLA
 10
192.2874986321322
 20
1110.0
 30
7.999999999999979
 70
   192
  0
VERTEX
  5
1BBC
  8
MADLA
 10
187.2874986321322
 20
1110.0
 30
7.999999999999979
 70
   192
  0
VERTEX
  5
1BBD
  8
MADLA
 10
187.2874986321322
 20
1110.0
 30
2.999999999999979
 70
   192
  0
VERTEX
  5
1BBE
  8
MADLA
 10
192.2874986321322
 20
1110.0
 30
2.999999999999979
 70
   192
  0
VERTEX
  5
1BBF
  8
MADLA
 10
189.7874986321322
 20
1107.5
 30
2.999999999999979
 70
   192
  0
VERTEX
  5
1BC0
  8
MADLA
 10
189.7874986321322
 20
1107.5
 30
7.999999999999979
 70
   192
  0
VERTEX
  5
1BC1
  8
MADLA
 10
191.5552655850986
 20
1108.232233047034
 30
2.999999999999979
 70
   192
  0
VERTEX
  5
1BC2
  8
MADLA
 10
191.5552655850986
 20
1108.232233047034
 30
7.999999999999979
 70
   192
  0
VERTEX
  5
1BC3
  8
MADLA
 10
188.0197316791658
 20
1108.232233047034
 30
2.999999999999979
 70
   192
  0
VERTEX
  5
1BC4
  8
MADLA
 10
188.0197316791658
 20
1108.232233047034
 30
7.999999999999979
 70
   192
  0
VERTEX
  5
1BC5
  8
MADLA
 10
0.0
 20
0.0
 30
0.0
 70
   128
 71
     8
 72
     1
 73
    -4
  0
VERTEX
  5
1BC6
  8
MADLA
 10
0.0
 20
0.0
 30
0.0
 70
   128
 71
     7
 72
    -8
 73
     4
  0
VERTEX
  5
1BC7
  8
MADLA
 10
0.0
 20
0.0
 30
0.0
 70
   128
 71
     6
 72
     8
 73
    -7
  0
VERTEX
  5
1BC8
  8
MADLA
 10
0.0
 20
0.0
 30
0.0
 70
   128
 71
     5
 72
    -6
 73
     7
  0
VERTEX
  5
1BC9
  8
MADLA
 10
0.0
 20
0.0
 30
0.0
 70
   128
 71
    10
 72
     6
 73
    -5
  0
VERTEX
  5
1BCA
  8
MADLA
 10
0.0
 20
0.0
 30
0.0
 70
   128
 71
     9
 72
   -10
 73
     5
  0
VERTEX
  5
1BCB
  8
MADLA
 10
0.0
 20
0.0
 30
0.0
 70
   128
 71
     2
 72
    10
 73
    -9
  0
VERTEX
  5
1BCC
  8
MADLA
 10
0.0
 20
0.0
 30
0.0
 70
   128
 71
     3
 72
    -2
 73
     9
  0
SEQEND
  5
2193
  8
MADLA
  0
POLYLINE
  5
1BCD
  8
MADLA
 66
     1
 10
0.0
 20
0.0
 30
0.0
 70
    64
 71
    10
 72
     8
  0
VERTEX
  5
1BCE
  8
MADLA
 10
192.2874986321322
 20
910.0
 30
7.999999999999979
 70
   192
  0
VERTEX
  5
1BCF
  8
MADLA
 10
187.2874986321322
 20
910.0
 30
7.999999999999979
 70
   192
  0
VERTEX
  5
1BD0
  8
MADLA
 10
187.2874986321322
 20
910.0
 30
2.999999999999979
 70
   192
  0
VERTEX
  5
1BD1
  8
MADLA
 10
192.2874986321322
 20
910.0
 30
2.999999999999979
 70
   192
  0
VERTEX
  5
1BD2
  8
MADLA
 10
189.7874986321322
 20
907.5
 30
2.999999999999979
 70
   192
  0
VERTEX
  5
1BD3
  8
MADLA
 10
189.7874986321322
 20
907.5
 30
7.999999999999979
 70
   192
  0
VERTEX
  5
1BD4
  8
MADLA
 10
191.5552655850986
 20
908.2322330470337
 30
2.999999999999979
 70
   192
  0
VERTEX
  5
1BD5
  8
MADLA
 10
191.5552655850986
 20
908.2322330470337
 30
7.999999999999979
 70
   192
  0
VERTEX
  5
1BD6
  8
MADLA
 10
188.0197316791658
 20
908.2322330470337
 30
2.999999999999979
 70
   192
  0
VERTEX
  5
1BD7
  8
MADLA
 10
188.0197316791658
 20
908.2322330470337
 30
7.999999999999979
 70
   192
  0
VERTEX
  5
1BD8
  8
MADLA
 10
0.0
 20
0.0
 30
0.0
 70
   128
 71
     8
 72
     1
 73
    -4
  0
VERTEX
  5
1BD9
  8
MADLA
 10
0.0
 20
0.0
 30
0.0
 70
   128
 71
     7
 72
    -8
 73
     4
  0
VERTEX
  5
1BDA
  8
MADLA
 10
0.0
 20
0.0
 30
0.0
 70
   128
 71
     6
 72
     8
 73
    -7
  0
VERTEX
  5
1BDB
  8
MADLA
 10
0.0
 20
0.0
 30
0.0
 70
   128
 71
     5
 72
    -6
 73
     7
  0
VERTEX
  5
1BDC
  8
MADLA
 10
0.0
 20
0.0
 30
0.0
 70
   128
 71
    10
 72
     6
 73
    -5
  0
VERTEX
  5
1BDD
  8
MADLA
 10
0.0
 20
0.0
 30
0.0
 70
   128
 71
     9
 72
   -10
 73
     5
  0
VERTEX
  5
1BDE
  8
MADLA
 10
0.0
 20
0.0
 30
0.0
 70
   128
 71
     2
 72
    10
 73
    -9
  0
VERTEX
  5
1BDF
  8
MADLA
 10
0.0
 20
0.0
 30
0.0
 70
   128
 71
     3
 72
    -2
 73
     9
  0
SEQEND
  5
2194
  8
MADLA
  0
POLYLINE
  5
1BE0
  8
MADLA
 66
     1
 10
0.0
 20
0.0
 30
0.0
 70
    64
 71
     4
 72
     2
  0
VERTEX
  5
1BE1
  8
MADLA
 10
199.7874986321322
 20
920.0
 30
37.99999999999999
 70
   192
  0
VERTEX
  5
1BE2
  8
MADLA
 10
199.7874986321322
 20
1100.0
 30
37.99999999999999
 70
   192
  0
VERTEX
  5
1BE3
  8
MADLA
 10
179.7874986321322
 20
1100.0
 30
37.99999999999999
 70
   192
  0
VERTEX
  5
1BE4
  8
MADLA
 10
179.7874986321322
 20
920.0
 30
37.99999999999999
 70
   192
  0
VERTEX
  5
1BE5
  8
MADLA
 10
0.0
 20
0.0
 30
0.0
 70
   128
 71
     1
 72
     4
 73
    -3
  0
VERTEX
  5
1BE6
  8
MADLA
 10
0.0
 20
0.0
 30
0.0
 70
   128
 71
    -1
 72
     3
 73
     2
  0
SEQEND
  5
2195
  8
MADLA
  0
POLYLINE
  5
1BE7
  8
MADLA
 66
     1
 10
0.0
 20
0.0
 30
0.0
 70
    64
 71
     8
 72
     6
  0
VERTEX
  5
1BE8
  8
MADLA
 10
179.7874986321322
 20
900.0
 30
47.99999999999999
 70
   192
  0
VERTEX
  5
1BE9
  8
MADLA
 10
179.7874986321322
 20
1120.0
 30
47.99999999999999
 70
   192
  0
VERTEX
  5
1BEA
  8
MADLA
 10
179.7874986321322
 20
1120.0
 30
2.999999999999979
 70
   192
  0
VERTEX
  5
1BEB
  8
MADLA
 10
179.7874986321322
 20
1100.0
 30
2.999999999999979
 70
   192
  0
VERTEX
  5
1BEC
  8
MADLA
 10
179.7874986321322
 20
1100.0
 30
37.99999999999999
 70
   192
  0
VERTEX
  5
1BED
  8
MADLA
 10
179.7874986321322
 20
920.0
 30
37.99999999999999
 70
   192
  0
VERTEX
  5
1BEE
  8
MADLA
 10
179.7874986321322
 20
920.0
 30
2.999999999999979
 70
   192
  0
VERTEX
  5
1BEF
  8
MADLA
 10
179.7874986321322
 20
900.0
 30
2.999999999999979
 70
   192
  0
VERTEX
  5
1BF0
  8
MADLA
 10
0.0
 20
0.0
 30
0.0
 70
   128
 71
     3
 72
     4
 73
    -5
  0
VERTEX
  5
1BF1
  8
MADLA
 10
0.0
 20
0.0
 30
0.0
 70
   128
 71
     2
 72
    -3
 73
    -5
  0
VERTEX
  5
1BF2
  8
MADLA
 10
0.0
 20
0.0
 30
0.0
 70
   128
 71
    -6
 72
     1
 73
    -2
  0
VERTEX
  5
1BF3
  8
MADLA
 10
0.0
 20
0.0
 30
0.0
 70
   128
 71
     5
 72
    -6
 73
    -2
  0
VERTEX
  5
1BF4
  8
MADLA
 10
0.0
 20
0.0
 30
0.0
 70
   128
 71
     7
 72
     8
 73
    -1
  0
VERTEX
  5
1BF5
  8
MADLA
 10
0.0
 20
0.0
 30
0.0
 70
   128
 71
     6
 72
    -7
 73
    -1
  0
SEQEND
  5
2196
  8
MADLA
  0
POLYLINE
  5
1BF6
  8
MADLA
 66
     1
 10
0.0
 20
0.0
 30
0.0
 70
    64
 71
     4
 72
     2
  0
VERTEX
  5
1BF7
  8
MADLA
 10
179.7874986321322
 20
1120.0
 30
47.99999999999999
 70
   192
  0
VERTEX
  5
1BF8
  8
MADLA
 10
199.7874986321322
 20
1120.0
 30
47.99999999999999
 70
   192
  0
VERTEX
  5
1BF9
  8
MADLA
 10
199.7874986321322
 20
1120.0
 30
2.999999999999979
 70
   192
  0
VERTEX
  5
1BFA
  8
MADLA
 10
179.7874986321322
 20
1120.0
 30
2.999999999999979
 70
   192
  0
VERTEX
  5
1BFB
  8
MADLA
 10
0.0
 20
0.0
 30
0.0
 70
   128
 71
     3
 72
     4
 73
    -1
  0
VERTEX
  5
1BFC
  8
MADLA
 10
0.0
 20
0.0
 30
0.0
 70
   128
 71
     2
 72
    -3
 73
     1
  0
SEQEND
  5
2197
  8
MADLA
  0
POLYLINE
  5
1BFD
  8
MADLA
 66
     1
 10
0.0
 20
0.0
 30
0.0
 70
    64
 71
     8
 72
     6
  0
VERTEX
  5
1BFE
  8
MADLA
 10
199.7874986321322
 20
1120.0
 30
47.99999999999999
 70
   192
  0
VERTEX
  5
1BFF
  8
MADLA
 10
199.7874986321322
 20
900.0
 30
47.99999999999999
 70
   192
  0
VERTEX
  5
1C00
  8
MADLA
 10
199.7874986321322
 20
900.0
 30
2.999999999999979
 70
   192
  0
VERTEX
  5
1C01
  8
MADLA
 10
199.7874986321322
 20
920.0
 30
2.999999999999979
 70
   192
  0
VERTEX
  5
1C02
  8
MADLA
 10
199.7874986321322
 20
920.0
 30
37.99999999999999
 70
   192
  0
VERTEX
  5
1C03
  8
MADLA
 10
199.7874986321322
 20
1100.0
 30
37.99999999999999
 70
   192
  0
VERTEX
  5
1C04
  8
MADLA
 10
199.7874986321322
 20
1100.0
 30
2.999999999999979
 70
   192
  0
VERTEX
  5
1C05
  8
MADLA
 10
199.7874986321322
 20
1120.0
 30
2.999999999999979
 70
   192
  0
VERTEX
  5
1C06
  8
MADLA
 10
0.0
 20
0.0
 30
0.0
 70
   128
 71
     3
 72
     4
 73
    -5
  0
VERTEX
  5
1C07
  8
MADLA
 10
0.0
 20
0.0
 30
0.0
 70
   128
 71
     2
 72
    -3
 73
    -5
  0
VERTEX
  5
1C08
  8
MADLA
 10
0.0
 20
0.0
 30
0.0
 70
   128
 71
    -6
 72
     1
 73
    -2
  0
VERTEX
  5
1C09
  8
MADLA
 10
0.0
 20
0.0
 30
0.0
 70
   128
 71
     5
 72
    -6
 73
    -2
  0
VERTEX
  5
1C0A
  8
MADLA
 10
0.0
 20
0.0
 30
0.0
 70
   128
 71
     7
 72
     8
 73
    -1
  0
VERTEX
  5
1C0B
  8
MADLA
 10
0.0
 20
0.0
 30
0.0
 70
   128
 71
     6
 72
    -7
 73
    -1
  0
SEQEND
  5
2198
  8
MADLA
  0
POLYLINE
  5
1C0C
  8
MADLA
 66
     1
 10
0.0
 20
0.0
 30
0.0
 70
    64
 71
     4
 72
     2
  0
VERTEX
  5
1C0D
  8
MADLA
 10
199.7874986321322
 20
900.0
 30
47.99999999999999
 70
   192
  0
VERTEX
  5
1C0E
  8
MADLA
 10
179.7874986321322
 20
900.0
 30
47.99999999999999
 70
   192
  0
VERTEX
  5
1C0F
  8
MADLA
 10
179.7874986321322
 20
900.0
 30
2.999999999999979
 70
   192
  0
VERTEX
  5
1C10
  8
MADLA
 10
199.7874986321322
 20
900.0
 30
2.999999999999979
 70
   192
  0
VERTEX
  5
1C11
  8
MADLA
 10
0.0
 20
0.0
 30
0.0
 70
   128
 71
     3
 72
     4
 73
    -1
  0
VERTEX
  5
1C12
  8
MADLA
 10
0.0
 20
0.0
 30
0.0
 70
   128
 71
     2
 72
    -3
 73
     1
  0
SEQEND
  5
2199
  8
MADLA
  0
POLYLINE
  5
1C13
  8
MADLA
 66
     1
 10
0.0
 20
0.0
 30
0.0
 70
    64
 71
     4
 72
     2
  0
VERTEX
  5
1C14
  8
MADLA
 10
179.7874986321322
 20
1120.0
 30
47.99999999999999
 70
   192
  0
VERTEX
  5
1C15
  8
MADLA
 10
179.7874986321322
 20
900.0
 30
47.99999999999999
 70
   192
  0
VERTEX
  5
1C16
  8
MADLA
 10
199.7874986321322
 20
900.0
 30
47.99999999999999
 70
   192
  0
VERTEX
  5
1C17
  8
MADLA
 10
199.7874986321322
 20
1120.0
 30
47.99999999999999
 70
   192
  0
VERTEX
  5
1C18
  8
MADLA
 10
0.0
 20
0.0
 30
0.0
 70
   128
 71
     3
 72
     4
 73
    -1
  0
VERTEX
  5
1C19
  8
MADLA
 10
0.0
 20
0.0
 30
0.0
 70
   128
 71
     2
 72
    -3
 73
     1
  0
SEQEND
  5
219A
  8
MADLA
  0
POLYLINE
  5
1C1A
  8
MADLA
 66
     1
 10
0.0
 20
0.0
 30
0.0
 70
    64
 71
     4
 72
     2
  0
VERTEX
  5
1C1B
  8
MADLA
 10
199.7874986321322
 20
1100.0
 30
37.99999999999999
 70
   192
  0
VERTEX
  5
1C1C
  8
MADLA
 10
199.7874986321322
 20
1100.0
 30
2.999999999999979
 70
   192
  0
VERTEX
  5
1C1D
  8
MADLA
 10
179.7874986321322
 20
1100.0
 30
2.999999999999979
 70
   192
  0
VERTEX
  5
1C1E
  8
MADLA
 10
179.7874986321322
 20
1100.0
 30
37.99999999999999
 70
   192
  0
VERTEX
  5
1C1F
  8
MADLA
 10
0.0
 20
0.0
 30
0.0
 70
   128
 71
     1
 72
     4
 73
    -3
  0
VERTEX
  5
1C20
  8
MADLA
 10
0.0
 20
0.0
 30
0.0
 70
   128
 71
    -1
 72
     3
 73
     2
  0
SEQEND
  5
219B
  8
MADLA
  0
POLYLINE
  5
1C21
  8
MADLA
 66
     1
 10
0.0
 20
0.0
 30
0.0
 70
    64
 71
    12
 72
    12
  0
VERTEX
  5
1C22
  8
MADLA
 10
199.7874986321322
 20
1120.0
 30
2.999999999999979
 70
   192
  0
VERTEX
  5
1C23
  8
MADLA
 10
199.7874986321322
 20
1100.0
 30
2.999999999999979
 70
   192
  0
VERTEX
  5
1C24
  8
MADLA
 10
179.7874986321322
 20
1100.0
 30
2.999999999999979
 70
   192
  0
VERTEX
  5
1C25
  8
MADLA
 10
179.7874986321322
 20
1120.0
 30
2.999999999999979
 70
   192
  0
VERTEX
  5
1C26
  8
MADLA
 10
192.2874986321322
 20
1110.0
 30
2.999999999999979
 70
   192
  0
VERTEX
  5
1C27
  8
MADLA
 10
191.5552655850986
 20
1111.767766952967
 30
2.999999999999979
 70
   192
  0
VERTEX
  5
1C28
  8
MADLA
 10
189.7874986321322
 20
1112.5
 30
2.999999999999979
 70
   192
  0
VERTEX
  5
1C29
  8
MADLA
 10
188.0197316791658
 20
1111.767766952967
 30
2.999999999999979
 70
   192
  0
VERTEX
  5
1C2A
  8
MADLA
 10
187.2874986321322
 20
1110.0
 30
2.999999999999979
 70
   192
  0
VERTEX
  5
1C2B
  8
MADLA
 10
188.0197316791658
 20
1108.232233047034
 30
2.999999999999979
 70
   192
  0
VERTEX
  5
1C2C
  8
MADLA
 10
189.7874986321322
 20
1107.5
 30
2.999999999999979
 70
   192
  0
VERTEX
  5
1C2D
  8
MADLA
 10
191.5552655850986
 20
1108.232233047034
 30
2.999999999999979
 70
   192
  0
VERTEX
  5
1C2E
  8
MADLA
 10
0.0
 20
0.0
 30
0.0
 70
   128
 71
    -1
 72
     5
 73
    -6
  0
VERTEX
  5
1C2F
  8
MADLA
 10
0.0
 20
0.0
 30
0.0
 70
   128
 71
    -7
 72
     4
 73
    -1
  0
VERTEX
  5
1C30
  8
MADLA
 10
0.0
 20
0.0
 30
0.0
 70
   128
 71
     6
 72
    -7
 73
    -1
  0
VERTEX
  5
1C31
  8
MADLA
 10
0.0
 20
0.0
 30
0.0
 70
   128
 71
     7
 72
    -8
 73
    -4
  0
VERTEX
  5
1C32
  8
MADLA
 10
0.0
 20
0.0
 30
0.0
 70
   128
 71
     8
 72
    -9
 73
    -4
  0
VERTEX
  5
1C33
  8
MADLA
 10
0.0
 20
0.0
 30
0.0
 70
   128
 71
   -10
 72
     3
 73
    -4
  0
VERTEX
  5
1C34
  8
MADLA
 10
0.0
 20
0.0
 30
0.0
 70
   128
 71
     9
 72
   -10
 73
    -4
  0
VERTEX
  5
1C35
  8
MADLA
 10
0.0
 20
0.0
 30
0.0
 70
   128
 71
   -11
 72
     2
 73
    -3
  0
VERTEX
  5
1C36
  8
MADLA
 10
0.0
 20
0.0
 30
0.0
 70
   128
 71
    10
 72
   -11
 73
    -3
  0
VERTEX
  5
1C37
  8
MADLA
 10
0.0
 20
0.0
 30
0.0
 70
   128
 71
    11
 72
   -12
 73
    -2
  0
VERTEX
  5
1C38
  8
MADLA
 10
0.0
 20
0.0
 30
0.0
 70
   128
 71
    -5
 72
     1
 73
    -2
  0
VERTEX
  5
1C39
  8
MADLA
 10
0.0
 20
0.0
 30
0.0
 70
   128
 71
    12
 72
    -5
 73
    -2
  0
SEQEND
  5
219C
  8
MADLA
  0
POLYLINE
  5
1C3A
  8
MADLA
 66
     1
 10
0.0
 20
0.0
 30
0.0
 70
    64
 71
     4
 72
     2
  0
VERTEX
  5
1C3B
  8
MADLA
 10
179.7874986321322
 20
920.0
 30
37.99999999999999
 70
   192
  0
VERTEX
  5
1C3C
  8
MADLA
 10
179.7874986321322
 20
920.0
 30
2.999999999999979
 70
   192
  0
VERTEX
  5
1C3D
  8
MADLA
 10
199.7874986321322
 20
920.0
 30
2.999999999999979
 70
   192
  0
VERTEX
  5
1C3E
  8
MADLA
 10
199.7874986321322
 20
920.0
 30
37.99999999999999
 70
   192
  0
VERTEX
  5
1C3F
  8
MADLA
 10
0.0
 20
0.0
 30
0.0
 70
   128
 71
     1
 72
     4
 73
    -3
  0
VERTEX
  5
1C40
  8
MADLA
 10
0.0
 20
0.0
 30
0.0
 70
   128
 71
    -1
 72
     3
 73
     2
  0
SEQEND
  5
219D
  8
MADLA
  0
POLYLINE
  5
1C41
  8
MADLA
 66
     1
 10
0.0
 20
0.0
 30
0.0
 70
    64
 71
    12
 72
    12
  0
VERTEX
  5
1C42
  8
MADLA
 10
199.7874986321322
 20
920.0
 30
2.999999999999979
 70
   192
  0
VERTEX
  5
1C43
  8
MADLA
 10
179.7874986321322
 20
920.0
 30
2.999999999999979
 70
   192
  0
VERTEX
  5
1C44
  8
MADLA
 10
179.7874986321322
 20
900.0
 30
2.999999999999979
 70
   192
  0
VERTEX
  5
1C45
  8
MADLA
 10
199.7874986321322
 20
900.0
 30
2.999999999999979
 70
   192
  0
VERTEX
  5
1C46
  8
MADLA
 10
192.2874986321322
 20
910.0
 30
2.999999999999979
 70
   192
  0
VERTEX
  5
1C47
  8
MADLA
 10
191.5552655850986
 20
908.2322330470337
 30
2.999999999999979
 70
   192
  0
VERTEX
  5
1C48
  8
MADLA
 10
189.7874986321322
 20
907.5
 30
2.999999999999979
 70
   192
  0
VERTEX
  5
1C49
  8
MADLA
 10
188.0197316791658
 20
908.2322330470337
 30
2.999999999999979
 70
   192
  0
VERTEX
  5
1C4A
  8
MADLA
 10
187.2874986321322
 20
910.0
 30
2.999999999999979
 70
   192
  0
VERTEX
  5
1C4B
  8
MADLA
 10
188.0197316791658
 20
911.7677669529663
 30
2.999999999999979
 70
   192
  0
VERTEX
  5
1C4C
  8
MADLA
 10
189.7874986321322
 20
912.5
 30
2.999999999999979
 70
   192
  0
VERTEX
  5
1C4D
  8
MADLA
 10
191.5552655850986
 20
911.7677669529663
 30
2.999999999999979
 70
   192
  0
VERTEX
  5
1C4E
  8
MADLA
 10
0.0
 20
0.0
 30
0.0
 70
   128
 71
     6
 72
    -5
 73
    -4
  0
VERTEX
  5
1C4F
  8
MADLA
 10
0.0
 20
0.0
 30
0.0
 70
   128
 71
     4
 72
    -3
 73
    -7
  0
VERTEX
  5
1C50
  8
MADLA
 10
0.0
 20
0.0
 30
0.0
 70
   128
 71
    -4
 72
     7
 73
    -6
  0
VERTEX
  5
1C51
  8
MADLA
 10
0.0
 20
0.0
 30
0.0
 70
   128
 71
    -3
 72
     8
 73
    -7
  0
VERTEX
  5
1C52
  8
MADLA
 10
0.0
 20
0.0
 30
0.0
 70
   128
 71
    -3
 72
     9
 73
    -8
  0
VERTEX
  5
1C53
  8
MADLA
 10
0.0
 20
0.0
 30
0.0
 70
   128
 71
     3
 72
    -2
 73
   -10
  0
VERTEX
  5
1C54
  8
MADLA
 10
0.0
 20
0.0
 30
0.0
 70
   128
 71
    -3
 72
    10
 73
    -9
  0
VERTEX
  5
1C55
  8
MADLA
 10
0.0
 20
0.0
 30
0.0
 70
   128
 71
     2
 72
    -1
 73
   -11
  0
VERTEX
  5
1C56
  8
MADLA
 10
0.0
 20
0.0
 30
0.0
 70
   128
 71
    -2
 72
    11
 73
   -10
  0
VERTEX
  5
1C57
  8
MADLA
 10
0.0
 20
0.0
 30
0.0
 70
   128
 71
    -1
 72
    12
 73
   -11
  0
VERTEX
  5
1C58
  8
MADLA
 10
0.0
 20
0.0
 30
0.0
 70
   128
 71
     1
 72
    -4
 73
    -5
  0
VERTEX
  5
1C59
  8
MADLA
 10
0.0
 20
0.0
 30
0.0
 70
   128
 71
    -1
 72
     5
 73
   -12
  0
SEQEND
  5
219E
  8
MADLA
  0
POLYLINE
  5
1C5A
  8
MADLA
 66
     1
 10
0.0
 20
0.0
 30
0.0
 70
    64
 71
    10
 72
     8
  0
VERTEX
  5
1C5B
  8
MADLA
 10
187.2874986321322
 20
910.0
 30
7.999999999999979
 70
   192
  0
VERTEX
  5
1C5C
  8
MADLA
 10
192.2874986321322
 20
910.0
 30
7.999999999999979
 70
   192
  0
VERTEX
  5
1C5D
  8
MADLA
 10
192.2874986321322
 20
910.0
 30
2.999999999999979
 70
   192
  0
VERTEX
  5
1C5E
  8
MADLA
 10
187.2874986321322
 20
910.0
 30
2.999999999999979
 70
   192
  0
VERTEX
  5
1C5F
  8
MADLA
 10
189.7874986321322
 20
912.5
 30
2.999999999999979
 70
   192
  0
VERTEX
  5
1C60
  8
MADLA
 10
189.7874986321322
 20
912.5
 30
7.999999999999979
 70
   192
  0
VERTEX
  5
1C61
  8
MADLA
 10
188.0197316791658
 20
911.7677669529663
 30
2.999999999999979
 70
   192
  0
VERTEX
  5
1C62
  8
MADLA
 10
188.0197316791658
 20
911.7677669529663
 30
7.999999999999979
 70
   192
  0
VERTEX
  5
1C63
  8
MADLA
 10
191.5552655850986
 20
911.7677669529663
 30
2.999999999999979
 70
   192
  0
VERTEX
  5
1C64
  8
MADLA
 10
191.5552655850986
 20
911.7677669529663
 30
7.999999999999979
 70
   192
  0
VERTEX
  5
1C65
  8
MADLA
 10
0.0
 20
0.0
 30
0.0
 70
   128
 71
     8
 72
     1
 73
    -4
  0
VERTEX
  5
1C66
  8
MADLA
 10
0.0
 20
0.0
 30
0.0
 70
   128
 71
     7
 72
    -8
 73
     4
  0
VERTEX
  5
1C67
  8
MADLA
 10
0.0
 20
0.0
 30
0.0
 70
   128
 71
     6
 72
     8
 73
    -7
  0
VERTEX
  5
1C68
  8
MADLA
 10
0.0
 20
0.0
 30
0.0
 70
   128
 71
     5
 72
    -6
 73
     7
  0
VERTEX
  5
1C69
  8
MADLA
 10
0.0
 20
0.0
 30
0.0
 70
   128
 71
    10
 72
     6
 73
    -5
  0
VERTEX
  5
1C6A
  8
MADLA
 10
0.0
 20
0.0
 30
0.0
 70
   128
 71
     9
 72
   -10
 73
     5
  0
VERTEX
  5
1C6B
  8
MADLA
 10
0.0
 20
0.0
 30
0.0
 70
   128
 71
     3
 72
     2
 73
   -10
  0
VERTEX
  5
1C6C
  8
MADLA
 10
0.0
 20
0.0
 30
0.0
 70
   128
 71
     9
 72
    -3
 73
    10
  0
SEQEND
  5
219F
  8
MADLA
  0
POLYLINE
  5
1C6D
  8
MADLA
 66
     1
 10
0.0
 20
0.0
 30
0.0
 70
    64
 71
     8
 72
     6
  0
VERTEX
  5
1C6E
  8
MADLA
 10
187.2874986321322
 20
910.0
 30
7.999999999999979
 70
   192
  0
VERTEX
  5
1C6F
  8
MADLA
 10
188.0197316791658
 20
911.7677669529663
 30
7.999999999999979
 70
   192
  0
VERTEX
  5
1C70
  8
MADLA
 10
189.7874986321322
 20
912.5
 30
7.999999999999979
 70
   192
  0
VERTEX
  5
1C71
  8
MADLA
 10
191.5552655850986
 20
911.7677669529663
 30
7.999999999999979
 70
   192
  0
VERTEX
  5
1C72
  8
MADLA
 10
192.2874986321322
 20
910.0
 30
7.999999999999979
 70
   192
  0
VERTEX
  5
1C73
  8
MADLA
 10
191.5552655850986
 20
908.2322330470337
 30
7.999999999999979
 70
   192
  0
VERTEX
  5
1C74
  8
MADLA
 10
189.7874986321322
 20
907.5
 30
7.999999999999979
 70
   192
  0
VERTEX
  5
1C75
  8
MADLA
 10
188.0197316791658
 20
908.2322330470337
 30
7.999999999999979
 70
   192
  0
VERTEX
  5
1C76
  8
MADLA
 10
0.0
 20
0.0
 30
0.0
 70
   128
 71
     7
 72
     8
 73
    -1
  0
VERTEX
  5
1C77
  8
MADLA
 10
0.0
 20
0.0
 30
0.0
 70
   128
 71
     6
 72
    -7
 73
    -1
  0
VERTEX
  5
1C78
  8
MADLA
 10
0.0
 20
0.0
 30
0.0
 70
   128
 71
     5
 72
    -6
 73
    -1
  0
VERTEX
  5
1C79
  8
MADLA
 10
0.0
 20
0.0
 30
0.0
 70
   128
 71
     4
 72
    -5
 73
    -1
  0
VERTEX
  5
1C7A
  8
MADLA
 10
0.0
 20
0.0
 30
0.0
 70
   128
 71
     3
 72
    -4
 73
    -1
  0
VERTEX
  5
1C7B
  8
MADLA
 10
0.0
 20
0.0
 30
0.0
 70
   128
 71
     2
 72
    -3
 73
     1
  0
SEQEND
  5
21A0
  8
MADLA
  0
POLYLINE
  5
1C7C
  8
MADLA
 66
     1
 10
0.0
 20
0.0
 30
0.0
 70
    64
 71
    10
 72
     8
  0
VERTEX
  5
1C7D
  8
MADLA
 10
187.2874986321322
 20
1110.0
 30
7.999999999999979
 70
   192
  0
VERTEX
  5
1C7E
  8
MADLA
 10
192.2874986321322
 20
1110.0
 30
7.999999999999979
 70
   192
  0
VERTEX
  5
1C7F
  8
MADLA
 10
192.2874986321322
 20
1110.0
 30
2.999999999999979
 70
   192
  0
VERTEX
  5
1C80
  8
MADLA
 10
187.2874986321322
 20
1110.0
 30
2.999999999999979
 70
   192
  0
VERTEX
  5
1C81
  8
MADLA
 10
189.7874986321322
 20
1112.5
 30
2.999999999999979
 70
   192
  0
VERTEX
  5
1C82
  8
MADLA
 10
189.7874986321322
 20
1112.5
 30
7.999999999999979
 70
   192
  0
VERTEX
  5
1C83
  8
MADLA
 10
188.0197316791658
 20
1111.767766952967
 30
2.999999999999979
 70
   192
  0
VERTEX
  5
1C84
  8
MADLA
 10
188.0197316791658
 20
1111.767766952967
 30
7.999999999999979
 70
   192
  0
VERTEX
  5
1C85
  8
MADLA
 10
191.5552655850986
 20
1111.767766952967
 30
2.999999999999979
 70
   192
  0
VERTEX
  5
1C86
  8
MADLA
 10
191.5552655850986
 20
1111.767766952967
 30
7.999999999999979
 70
   192
  0
VERTEX
  5
1C87
  8
MADLA
 10
0.0
 20
0.0
 30
0.0
 70
   128
 71
     8
 72
     1
 73
    -4
  0
VERTEX
  5
1C88
  8
MADLA
 10
0.0
 20
0.0
 30
0.0
 70
   128
 71
     7
 72
    -8
 73
     4
  0
VERTEX
  5
1C89
  8
MADLA
 10
0.0
 20
0.0
 30
0.0
 70
   128
 71
     6
 72
     8
 73
    -7
  0
VERTEX
  5
1C8A
  8
MADLA
 10
0.0
 20
0.0
 30
0.0
 70
   128
 71
     5
 72
    -6
 73
     7
  0
VERTEX
  5
1C8B
  8
MADLA
 10
0.0
 20
0.0
 30
0.0
 70
   128
 71
    10
 72
     6
 73
    -5
  0
VERTEX
  5
1C8C
  8
MADLA
 10
0.0
 20
0.0
 30
0.0
 70
   128
 71
     9
 72
   -10
 73
     5
  0
VERTEX
  5
1C8D
  8
MADLA
 10
0.0
 20
0.0
 30
0.0
 70
   128
 71
     3
 72
     2
 73
   -10
  0
VERTEX
  5
1C8E
  8
MADLA
 10
0.0
 20
0.0
 30
0.0
 70
   128
 71
     9
 72
    -3
 73
    10
  0
SEQEND
  5
21A1
  8
MADLA
  0
POLYLINE
  5
1C8F
  8
MADLA
 66
     1
 10
0.0
 20
0.0
 30
0.0
 70
    64
 71
     8
 72
     6
  0
VERTEX
  5
1C90
  8
MADLA
 10
187.2874986321322
 20
1110.0
 30
7.999999999999979
 70
   192
  0
VERTEX
  5
1C91
  8
MADLA
 10
188.0197316791658
 20
1111.767766952967
 30
7.999999999999979
 70
   192
  0
VERTEX
  5
1C92
  8
MADLA
 10
189.7874986321322
 20
1112.5
 30
7.999999999999979
 70
   192
  0
VERTEX
  5
1C93
  8
MADLA
 10
191.5552655850986
 20
1111.767766952967
 30
7.999999999999979
 70
   192
  0
VERTEX
  5
1C94
  8
MADLA
 10
192.2874986321322
 20
1110.0
 30
7.999999999999979
 70
   192
  0
VERTEX
  5
1C95
  8
MADLA
 10
191.5552655850986
 20
1108.232233047034
 30
7.999999999999979
 70
   192
  0
VERTEX
  5
1C96
  8
MADLA
 10
189.7874986321322
 20
1107.5
 30
7.999999999999979
 70
   192
  0
VERTEX
  5
1C97
  8
MADLA
 10
188.0197316791658
 20
1108.232233047034
 30
7.999999999999979
 70
   192
  0
VERTEX
  5
1C98
  8
MADLA
 10
0.0
 20
0.0
 30
0.0
 70
   128
 71
     7
 72
     8
 73
    -1
  0
VERTEX
  5
1C99
  8
MADLA
 10
0.0
 20
0.0
 30
0.0
 70
   128
 71
     6
 72
    -7
 73
    -1
  0
VERTEX
  5
1C9A
  8
MADLA
 10
0.0
 20
0.0
 30
0.0
 70
   128
 71
     5
 72
    -6
 73
    -1
  0
VERTEX
  5
1C9B
  8
MADLA
 10
0.0
 20
0.0
 30
0.0
 70
   128
 71
     4
 72
    -5
 73
    -1
  0
VERTEX
  5
1C9C
  8
MADLA
 10
0.0
 20
0.0
 30
0.0
 70
   128
 71
     3
 72
    -4
 73
    -1
  0
VERTEX
  5
1C9D
  8
MADLA
 10
0.0
 20
0.0
 30
0.0
 70
   128
 71
     2
 72
    -3
 73
     1
  0
SEQEND
  5
21A2
  8
MADLA
  0
ENDBLK
  5
2192
  8
0
  0
BLOCK
  8
0
  2
*X7
 70
     1
 10
0.0
 20
0.0
 30
0.0
  3
*X7
  1

  0
POLYLINE
  5
1C9F
  8
GUMA
 66
     1
 10
0.0
 20
0.0
 30
0.0
 70
    64
 71
     8
 72
     6
  0
VERTEX
  5
1CA0
  8
GUMA
 10
0.2161728934127818
 20
2000.0
 30
-3.449582139804502
 70
   192
  0
VERTEX
  5
1CA1
  8
GUMA
 10
-1.669530622871624
 20
2000.0
 30
-3.720973628153779
 70
   192
  0
VERTEX
  5
1CA2
  8
GUMA
 10
-1.669530622871624
 20
17.99999999999985
 30
-3.720973628153779
 70
   192
  0
VERTEX
  5
1CA3
  8
GUMA
 10
0.2161728934127818
 20
17.99999999999985
 30
-3.449582139804502
 70
   192
  0
VERTEX
  5
1CA4
  8
GUMA
 10
-3.572501367867902
 20
2000.0
 30
-3.811711905435672
 70
   192
  0
VERTEX
  5
1CA5
  8
GUMA
 10
-3.5725013678679
 20
17.99999999999977
 30
-3.811711905435675
 70
   192
  0
VERTEX
  5
1CA6
  8
GUMA
 10
2.067498632132093
 20
2000.0
 30
-3.000000000000025
 70
   192
  0
VERTEX
  5
1CA7
  8
GUMA
 10
2.067498632132093
 20
17.99999999999985
 30
-3.000000000000025
 70
   192
  0
VERTEX
  5
1CA8
  8
GUMA
 10
0.0
 20
0.0
 30
0.0
 70
   128
 71
     1
 72
     2
 73
    -3
  0
VERTEX
  5
1CA9
  8
GUMA
 10
0.0
 20
0.0
 30
0.0
 70
   128
 71
     4
 72
    -1
 73
     3
  0
VERTEX
  5
1CAA
  8
GUMA
 10
0.0
 20
0.0
 30
0.0
 70
   128
 71
     2
 72
     5
 73
    -6
  0
VERTEX
  5
1CAB
  8
GUMA
 10
0.0
 20
0.0
 30
0.0
 70
   128
 71
     3
 72
    -2
 73
     6
  0
VERTEX
  5
1CAC
  8
GUMA
 10
0.0
 20
0.0
 30
0.0
 70
   128
 71
     7
 72
     1
 73
    -4
  0
VERTEX
  5
1CAD
  8
GUMA
 10
0.0
 20
0.0
 30
0.0
 70
   128
 71
     8
 72
    -7
 73
     4
  0
SEQEND
  5
21A5
  8
GUMA
  0
POLYLINE
  5
1CAE
  8
GUMA
 66
     1
 10
0.0
 20
0.0
 30
0.0
 70
    64
 71
     8
 72
     6
  0
VERTEX
  5
1CAF
  8
GUMA
 10
-7.361175629148589
 20
17.99999999999985
 30
-4.169582139804502
 70
   192
  0
VERTEX
  5
1CB0
  8
GUMA
 10
-7.361175629148589
 20
2000.0
 30
-4.169582139804502
 70
   192
  0
VERTEX
  5
1CB1
  8
GUMA
 10
-5.475472112864184
 20
2000.0
 30
-4.440973628153779
 70
   192
  0
VERTEX
  5
1CB2
  8
GUMA
 10
-5.475472112864184
 20
17.99999999999985
 30
-4.440973628153779
 70
   192
  0
VERTEX
  5
1CB3
  8
GUMA
 10
-9.212501367867908
 20
17.99999999999985
 30
-3.720000000000022
 70
   192
  0
VERTEX
  5
1CB4
  8
GUMA
 10
-9.212501367867901
 20
2000.0
 30
-3.720000000000024
 70
   192
  0
VERTEX
  5
1CB5
  8
GUMA
 10
-3.572501367867897
 20
2000.0
 30
-4.531711905435673
 70
   192
  0
VERTEX
  5
1CB6
  8
GUMA
 10
-3.5725013678679
 20
17.99999999999977
 30
-4.531711905435673
 70
   192
  0
VERTEX
  5
1CB7
  8
GUMA
 10
0.0
 20
0.0
 30
0.0
 70
   128
 71
     1
 72
     2
 73
    -3
  0
VERTEX
  5
1CB8
  8
GUMA
 10
0.0
 20
0.0
 30
0.0
 70
   128
 71
    -1
 72
     3
 73
     4
  0
VERTEX
  5
1CB9
  8
GUMA
 10
0.0
 20
0.0
 30
0.0
 70
   128
 71
     5
 72
     6
 73
    -2
  0
VERTEX
  5
1CBA
  8
GUMA
 10
0.0
 20
0.0
 30
0.0
 70
   128
 71
    -5
 72
     2
 73
     1
  0
VERTEX
  5
1CBB
  8
GUMA
 10
0.0
 20
0.0
 30
0.0
 70
   128
 71
     4
 72
     3
 73
    -7
  0
VERTEX
  5
1CBC
  8
GUMA
 10
0.0
 20
0.0
 30
0.0
 70
   128
 71
    -4
 72
     7
 73
     8
  0
SEQEND
  5
21A6
  8
GUMA
  0
POLYLINE
  5
1CBD
  8
GUMA
 66
     1
 10
0.0
 20
0.0
 30
0.0
 70
    64
 71
     4
 72
     2
  0
VERTEX
  5
1CBE
  8
GUMA
 10
11.7874986321321
 20
17.99999999999977
 30
3.719999999999978
 70
   192
  0
VERTEX
  5
1CBF
  8
GUMA
 10
11.7874986321321
 20
2000.0
 30
3.719999999999978
 70
   192
  0
VERTEX
  5
1CC0
  8
GUMA
 10
11.7874986321321
 20
2000.0
 30
2.999999999999978
 70
   192
  0
VERTEX
  5
1CC1
  8
GUMA
 10
11.7874986321321
 20
17.99999999999985
 30
2.999999999999978
 70
   192
  0
VERTEX
  5
1CC2
  8
GUMA
 10
0.0
 20
0.0
 30
0.0
 70
   128
 71
     1
 72
     4
 73
    -3
  0
VERTEX
  5
1CC3
  8
GUMA
 10
0.0
 20
0.0
 30
0.0
 70
   128
 71
    -1
 72
     3
 73
     2
  0
SEQEND
  5
21A7
  8
GUMA
  0
POLYLINE
  5
1CC4
  8
GUMA
 66
     1
 10
0.0
 20
0.0
 30
0.0
 70
    64
 71
     4
 72
     2
  0
VERTEX
  5
1CC5
  8
GUMA
 10
11.7874986321321
 20
17.99999999999977
 30
2.999999999999978
 70
   192
  0
VERTEX
  5
1CC6
  8
GUMA
 10
11.7874986321321
 20
2000.0
 30
2.999999999999978
 70
   192
  0
VERTEX
  5
1CC7
  8
GUMA
 10
2.7874986321321
 20
2000.0
 30
2.99999999999998
 70
   192
  0
VERTEX
  5
1CC8
  8
GUMA
 10
2.787498632132099
 20
17.99999999999985
 30
2.99999999999998
 70
   192
  0
VERTEX
  5
1CC9
  8
GUMA
 10
0.0
 20
0.0
 30
0.0
 70
   128
 71
     1
 72
     4
 73
    -3
  0
VERTEX
  5
1CCA
  8
GUMA
 10
0.0
 20
0.0
 30
0.0
 70
   128
 71
    -1
 72
     3
 73
     2
  0
SEQEND
  5
21A8
  8
GUMA
  0
POLYLINE
  5
1CCB
  8
GUMA
 66
     1
 10
0.0
 20
0.0
 30
0.0
 70
    64
 71
     4
 72
     2
  0
VERTEX
  5
1CCC
  8
GUMA
 10
2.7874986321321
 20
17.99999999999977
 30
2.99999999999998
 70
   192
  0
VERTEX
  5
1CCD
  8
GUMA
 10
2.7874986321321
 20
2000.0
 30
2.99999999999998
 70
   192
  0
VERTEX
  5
1CCE
  8
GUMA
 10
2.7874986321321
 20
2000.0
 30
-3.000000000000024
 70
   192
  0
VERTEX
  5
1CCF
  8
GUMA
 10
2.7874986321321
 20
17.99999999999985
 30
-3.000000000000024
 70
   192
  0
VERTEX
  5
1CD0
  8
GUMA
 10
0.0
 20
0.0
 30
0.0
 70
   128
 71
     1
 72
     4
 73
    -3
  0
VERTEX
  5
1CD1
  8
GUMA
 10
0.0
 20
0.0
 30
0.0
 70
   128
 71
    -1
 72
     3
 73
     2
  0
SEQEND
  5
21A9
  8
GUMA
  0
POLYLINE
  5
1CD2
  8
GUMA
 66
     1
 10
0.0
 20
0.0
 30
0.0
 70
    64
 71
     4
 72
     2
  0
VERTEX
  5
1CD3
  8
GUMA
 10
2.7874986321321
 20
17.99999999999977
 30
-3.000000000000024
 70
   192
  0
VERTEX
  5
1CD4
  8
GUMA
 10
2.787498632132099
 20
2000.0
 30
-3.000000000000024
 70
   192
  0
VERTEX
  5
1CD5
  8
GUMA
 10
11.7874986321321
 20
2000.0
 30
-3.000000000000022
 70
   192
  0
VERTEX
  5
1CD6
  8
GUMA
 10
11.7874986321321
 20
17.99999999999985
 30
-3.000000000000022
 70
   192
  0
VERTEX
  5
1CD7
  8
GUMA
 10
0.0
 20
0.0
 30
0.0
 70
   128
 71
     1
 72
     4
 73
    -3
  0
VERTEX
  5
1CD8
  8
GUMA
 10
0.0
 20
0.0
 30
0.0
 70
   128
 71
    -1
 72
     3
 73
     2
  0
SEQEND
  5
21AA
  8
GUMA
  0
POLYLINE
  5
1CD9
  8
GUMA
 66
     1
 10
0.0
 20
0.0
 30
0.0
 70
    64
 71
     4
 72
     2
  0
VERTEX
  5
1CDA
  8
GUMA
 10
11.7874986321321
 20
17.99999999999977
 30
-3.000000000000022
 70
   192
  0
VERTEX
  5
1CDB
  8
GUMA
 10
11.7874986321321
 20
2000.0
 30
-3.000000000000022
 70
   192
  0
VERTEX
  5
1CDC
  8
GUMA
 10
11.7874986321321
 20
2000.0
 30
-3.720000000000025
 70
   192
  0
VERTEX
  5
1CDD
  8
GUMA
 10
11.7874986321321
 20
17.99999999999985
 30
-3.720000000000025
 70
   192
  0
VERTEX
  5
1CDE
  8
GUMA
 10
0.0
 20
0.0
 30
0.0
 70
   128
 71
     1
 72
     4
 73
    -3
  0
VERTEX
  5
1CDF
  8
GUMA
 10
0.0
 20
0.0
 30
0.0
 70
   128
 71
    -1
 72
     3
 73
     2
  0
SEQEND
  5
21AB
  8
GUMA
  0
POLYLINE
  5
1CE0
  8
GUMA
 66
     1
 10
0.0
 20
0.0
 30
0.0
 70
    64
 71
     4
 72
     2
  0
VERTEX
  5
1CE1
  8
GUMA
 10
11.7874986321321
 20
17.99999999999977
 30
-3.720000000000025
 70
   192
  0
VERTEX
  5
1CE2
  8
GUMA
 10
11.7874986321321
 20
2000.0
 30
-3.720000000000025
 70
   192
  0
VERTEX
  5
1CE3
  8
GUMA
 10
2.067498632132097
 20
2000.0
 30
-3.720000000000023
 70
   192
  0
VERTEX
  5
1CE4
  8
GUMA
 10
2.067498632132097
 20
17.99999999999985
 30
-3.720000000000025
 70
   192
  0
VERTEX
  5
1CE5
  8
GUMA
 10
0.0
 20
0.0
 30
0.0
 70
   128
 71
     1
 72
     4
 73
    -3
  0
VERTEX
  5
1CE6
  8
GUMA
 10
0.0
 20
0.0
 30
0.0
 70
   128
 71
    -1
 72
     3
 73
     2
  0
SEQEND
  5
21AC
  8
GUMA
  0
POLYLINE
  5
1CE7
  8
GUMA
 66
     1
 10
0.0
 20
0.0
 30
0.0
 70
    64
 71
     8
 72
     6
  0
VERTEX
  5
1CE8
  8
GUMA
 10
-1.66953062287162
 20
17.99999999999985
 30
-4.440973628153779
 70
   192
  0
VERTEX
  5
1CE9
  8
GUMA
 10
-1.66953062287162
 20
2000.0
 30
-4.440973628153779
 70
   192
  0
VERTEX
  5
1CEA
  8
GUMA
 10
0.2161728934127858
 20
2000.0
 30
-4.169582139804502
 70
   192
  0
VERTEX
  5
1CEB
  8
GUMA
 10
0.2161728934127858
 20
17.99999999999985
 30
-4.169582139804502
 70
   192
  0
VERTEX
  5
1CEC
  8
GUMA
 10
-3.572501367867897
 20
17.99999999999985
 30
-4.531711905435673
 70
   192
  0
VERTEX
  5
1CED
  8
GUMA
 10
-3.5725013678679
 20
2000.0
 30
-4.531711905435673
 70
   192
  0
VERTEX
  5
1CEE
  8
GUMA
 10
2.067498632132097
 20
2000.0
 30
-3.720000000000026
 70
   192
  0
VERTEX
  5
1CEF
  8
GUMA
 10
2.067498632132097
 20
17.99999999999977
 30
-3.720000000000023
 70
   192
  0
VERTEX
  5
1CF0
  8
GUMA
 10
0.0
 20
0.0
 30
0.0
 70
   128
 71
     1
 72
     2
 73
    -3
  0
VERTEX
  5
1CF1
  8
GUMA
 10
0.0
 20
0.0
 30
0.0
 70
   128
 71
    -1
 72
     3
 73
     4
  0
VERTEX
  5
1CF2
  8
GUMA
 10
0.0
 20
0.0
 30
0.0
 70
   128
 71
     5
 72
     6
 73
    -2
  0
VERTEX
  5
1CF3
  8
GUMA
 10
0.0
 20
0.0
 30
0.0
 70
   128
 71
    -5
 72
     2
 73
     1
  0
VERTEX
  5
1CF4
  8
GUMA
 10
0.0
 20
0.0
 30
0.0
 70
   128
 71
     4
 72
     3
 73
    -7
  0
VERTEX
  5
1CF5
  8
GUMA
 10
0.0
 20
0.0
 30
0.0
 70
   128
 71
    -4
 72
     7
 73
     8
  0
SEQEND
  5
21AD
  8
GUMA
  0
POLYLINE
  5
1CF6
  8
GUMA
 66
     1
 10
0.0
 20
0.0
 30
0.0
 70
    64
 71
     4
 72
     2
  0
VERTEX
  5
1CF7
  8
GUMA
 10
-9.212501367867901
 20
17.99999999999977
 30
-3.720000000000024
 70
   192
  0
VERTEX
  5
1CF8
  8
GUMA
 10
-9.212501367867901
 20
2000.0
 30
-3.720000000000024
 70
   192
  0
VERTEX
  5
1CF9
  8
GUMA
 10
-9.212501367867894
 20
2000.0
 30
-3.000000000000028
 70
   192
  0
VERTEX
  5
1CFA
  8
GUMA
 10
-9.212501367867901
 20
17.99999999999985
 30
-3.000000000000028
 70
   192
  0
VERTEX
  5
1CFB
  8
GUMA
 10
0.0
 20
0.0
 30
0.0
 70
   128
 71
     1
 72
     4
 73
    -3
  0
VERTEX
  5
1CFC
  8
GUMA
 10
0.0
 20
0.0
 30
0.0
 70
   128
 71
    -1
 72
     3
 73
     2
  0
SEQEND
  5
21AE
  8
GUMA
  0
POLYLINE
  5
1CFD
  8
GUMA
 66
     1
 10
0.0
 20
0.0
 30
0.0
 70
    64
 71
     8
 72
     6
  0
VERTEX
  5
1CFE
  8
GUMA
 10
-5.47547211286418
 20
2000.0
 30
-3.720973628153779
 70
   192
  0
VERTEX
  5
1CFF
  8
GUMA
 10
-7.361175629148586
 20
2000.0
 30
-3.449582139804502
 70
   192
  0
VERTEX
  5
1D00
  8
GUMA
 10
-7.361175629148586
 20
17.99999999999985
 30
-3.449582139804502
 70
   192
  0
VERTEX
  5
1D01
  8
GUMA
 10
-5.47547211286418
 20
17.99999999999985
 30
-3.720973628153779
 70
   192
  0
VERTEX
  5
1D02
  8
GUMA
 10
-9.212501367867898
 20
2000.0
 30
-3.000000000000025
 70
   192
  0
VERTEX
  5
1D03
  8
GUMA
 10
-9.212501367867894
 20
17.99999999999977
 30
-3.000000000000028
 70
   192
  0
VERTEX
  5
1D04
  8
GUMA
 10
-3.5725013678679
 20
2000.0
 30
-3.811711905435675
 70
   192
  0
VERTEX
  5
1D05
  8
GUMA
 10
-3.5725013678679
 20
17.99999999999977
 30
-3.811711905435675
 70
   192
  0
VERTEX
  5
1D06
  8
GUMA
 10
0.0
 20
0.0
 30
0.0
 70
   128
 71
     1
 72
     2
 73
    -3
  0
VERTEX
  5
1D07
  8
GUMA
 10
0.0
 20
0.0
 30
0.0
 70
   128
 71
     4
 72
    -1
 73
     3
  0
VERTEX
  5
1D08
  8
GUMA
 10
0.0
 20
0.0
 30
0.0
 70
   128
 71
     2
 72
     5
 73
    -6
  0
VERTEX
  5
1D09
  8
GUMA
 10
0.0
 20
0.0
 30
0.0
 70
   128
 71
     3
 72
    -2
 73
     6
  0
VERTEX
  5
1D0A
  8
GUMA
 10
0.0
 20
0.0
 30
0.0
 70
   128
 71
     7
 72
     1
 73
    -4
  0
VERTEX
  5
1D0B
  8
GUMA
 10
0.0
 20
0.0
 30
0.0
 70
   128
 71
     8
 72
    -7
 73
     4
  0
SEQEND
  5
21AF
  8
GUMA
  0
POLYLINE
  5
1D0C
  8
GUMA
 66
     1
 10
0.0
 20
0.0
 30
0.0
 70
    64
 71
     4
 72
     2
  0
VERTEX
  5
1D0D
  8
GUMA
 10
2.067498632132099
 20
17.99999999999977
 30
-3.000000000000024
 70
   192
  0
VERTEX
  5
1D0E
  8
GUMA
 10
2.067498632132099
 20
2000.0
 30
-3.000000000000024
 70
   192
  0
VERTEX
  5
1D0F
  8
GUMA
 10
2.0674986321321
 20
2000.0
 30
3.719999999999978
 70
   192
  0
VERTEX
  5
1D10
  8
GUMA
 10
2.0674986321321
 20
17.99999999999985
 30
3.719999999999979
 70
   192
  0
VERTEX
  5
1D11
  8
GUMA
 10
0.0
 20
0.0
 30
0.0
 70
   128
 71
     1
 72
     4
 73
    -3
  0
VERTEX
  5
1D12
  8
GUMA
 10
0.0
 20
0.0
 30
0.0
 70
   128
 71
    -1
 72
     3
 73
     2
  0
SEQEND
  5
21B0
  8
GUMA
  0
POLYLINE
  5
1D13
  8
GUMA
 66
     1
 10
0.0
 20
0.0
 30
0.0
 70
    64
 71
     4
 72
     2
  0
VERTEX
  5
1D14
  8
GUMA
 10
2.0674986321321
 20
17.99999999999977
 30
3.719999999999978
 70
   192
  0
VERTEX
  5
1D15
  8
GUMA
 10
2.0674986321321
 20
2000.0
 30
3.719999999999978
 70
   192
  0
VERTEX
  5
1D16
  8
GUMA
 10
11.7874986321321
 20
2000.0
 30
3.719999999999978
 70
   192
  0
VERTEX
  5
1D17
  8
GUMA
 10
11.7874986321321
 20
17.99999999999985
 30
3.719999999999978
 70
   192
  0
VERTEX
  5
1D18
  8
GUMA
 10
0.0
 20
0.0
 30
0.0
 70
   128
 71
     1
 72
     4
 73
    -3
  0
VERTEX
  5
1D19
  8
GUMA
 10
0.0
 20
0.0
 30
0.0
 70
   128
 71
    -1
 72
     3
 73
     2
  0
SEQEND
  5
21B1
  8
GUMA
  0
POLYLINE
  5
1D1A
  8
GUMA
 66
     1
 10
0.0
 20
0.0
 30
0.0
 70
    64
 71
    21
 72
    19
  0
VERTEX
  5
1D1B
  8
GUMA
 10
11.7874986321321
 20
2000.0
 30
3.719999999999978
 70
   192
  0
VERTEX
  5
1D1C
  8
GUMA
 10
11.7874986321321
 20
2000.0
 30
2.999999999999978
 70
   192
  0
VERTEX
  5
1D1D
  8
GUMA
 10
2.787498632132099
 20
2000.0
 30
2.99999999999998
 70
   192
  0
VERTEX
  5
1D1E
  8
GUMA
 10
2.7874986321321
 20
2000.0
 30
-3.000000000000024
 70
   192
  0
VERTEX
  5
1D1F
  8
GUMA
 10
11.7874986321321
 20
2000.0
 30
-3.000000000000022
 70
   192
  0
VERTEX
  5
1D20
  8
GUMA
 10
11.7874986321321
 20
2000.0
 30
-3.720000000000025
 70
   192
  0
VERTEX
  5
1D21
  8
GUMA
 10
2.067498632132097
 20
2000.0
 30
-3.720000000000025
 70
   192
  0
VERTEX
  5
1D22
  8
GUMA
 10
0.2161728934127858
 20
2000.0
 30
-4.169582139804502
 70
   192
  0
VERTEX
  5
1D23
  8
GUMA
 10
-1.66953062287162
 20
2000.0
 30
-4.440973628153779
 70
   192
  0
VERTEX
  5
1D24
  8
GUMA
 10
-3.572501367867897
 20
2000.0
 30
-4.531711905435673
 70
   192
  0
VERTEX
  5
1D25
  8
GUMA
 10
-5.475472112864184
 20
2000.0
 30
-4.440973628153779
 70
   192
  0
VERTEX
  5
1D26
  8
GUMA
 10
-7.361175629148589
 20
2000.0
 30
-4.169582139804502
 70
   192
  0
VERTEX
  5
1D27
  8
GUMA
 10
-9.212501367867908
 20
2000.0
 30
-3.720000000000022
 70
   192
  0
VERTEX
  5
1D28
  8
GUMA
 10
-9.212501367867901
 20
2000.0
 30
-3.000000000000028
 70
   192
  0
VERTEX
  5
1D29
  8
GUMA
 10
-7.361175629148586
 20
2000.0
 30
-3.449582139804502
 70
   192
  0
VERTEX
  5
1D2A
  8
GUMA
 10
-5.47547211286418
 20
2000.0
 30
-3.720973628153779
 70
   192
  0
VERTEX
  5
1D2B
  8
GUMA
 10
-3.572501367867902
 20
2000.0
 30
-3.811711905435672
 70
   192
  0
VERTEX
  5
1D2C
  8
GUMA
 10
-1.669530622871624
 20
2000.0
 30
-3.720973628153779
 70
   192
  0
VERTEX
  5
1D2D
  8
GUMA
 10
0.2161728934127818
 20
2000.0
 30
-3.449582139804502
 70
   192
  0
VERTEX
  5
1D2E
  8
GUMA
 10
2.067498632132093
 20
2000.0
 30
-3.000000000000025
 70
   192
  0
VERTEX
  5
1D2F
  8
GUMA
 10
2.0674986321321
 20
2000.0
 30
3.719999999999979
 70
   192
  0
VERTEX
  5
1D30
  8
GUMA
 10
0.0
 20
0.0
 30
0.0
 70
   128
 71
    13
 72
    14
 73
   -15
  0
VERTEX
  5
1D31
  8
GUMA
 10
0.0
 20
0.0
 30
0.0
 70
   128
 71
    12
 72
   -13
 73
   -15
  0
VERTEX
  5
1D32
  8
GUMA
 10
0.0
 20
0.0
 30
0.0
 70
   128
 71
   -16
 72
    11
 73
   -12
  0
VERTEX
  5
1D33
  8
GUMA
 10
0.0
 20
0.0
 30
0.0
 70
   128
 71
    15
 72
   -16
 73
   -12
  0
VERTEX
  5
1D34
  8
GUMA
 10
0.0
 20
0.0
 30
0.0
 70
   128
 71
   -17
 72
    10
 73
   -11
  0
VERTEX
  5
1D35
  8
GUMA
 10
0.0
 20
0.0
 30
0.0
 70
   128
 71
    16
 72
   -17
 73
   -11
  0
VERTEX
  5
1D36
  8
GUMA
 10
0.0
 20
0.0
 30
0.0
 70
   128
 71
   -18
 72
     9
 73
   -10
  0
VERTEX
  5
1D37
  8
GUMA
 10
0.0
 20
0.0
 30
0.0
 70
   128
 71
    17
 72
   -18
 73
   -10
  0
VERTEX
  5
1D38
  8
GUMA
 10
0.0
 20
0.0
 30
0.0
 70
   128
 71
   -19
 72
     8
 73
    -9
  0
VERTEX
  5
1D39
  8
GUMA
 10
0.0
 20
0.0
 30
0.0
 70
   128
 71
    18
 72
   -19
 73
    -9
  0
VERTEX
  5
1D3A
  8
GUMA
 10
0.0
 20
0.0
 30
0.0
 70
   128
 71
   -20
 72
     7
 73
    -8
  0
VERTEX
  5
1D3B
  8
GUMA
 10
0.0
 20
0.0
 30
0.0
 70
   128
 71
    19
 72
   -20
 73
    -8
  0
VERTEX
  5
1D3C
  8
GUMA
 10
0.0
 20
0.0
 30
0.0
 70
   128
 71
     1
 72
     2
 73
    -3
  0
VERTEX
  5
1D3D
  8
GUMA
 10
0.0
 20
0.0
 30
0.0
 70
   128
 71
    21
 72
    -1
 73
    -3
  0
VERTEX
  5
1D3E
  8
GUMA
 10
0.0
 20
0.0
 30
0.0
 70
   128
 71
    -4
 72
    20
 73
   -21
  0
VERTEX
  5
1D3F
  8
GUMA
 10
0.0
 20
0.0
 30
0.0
 70
   128
 71
     3
 72
    -4
 73
   -21
  0
VERTEX
  5
1D40
  8
GUMA
 10
0.0
 20
0.0
 30
0.0
 70
   128
 71
    -7
 72
   -20
 73
    -4
  0
VERTEX
  5
1D41
  8
GUMA
 10
0.0
 20
0.0
 30
0.0
 70
   128
 71
     5
 72
     6
 73
    -7
  0
VERTEX
  5
1D42
  8
GUMA
 10
0.0
 20
0.0
 30
0.0
 70
   128
 71
     4
 72
    -5
 73
    -7
  0
SEQEND
  5
21B2
  8
GUMA
  0
POLYLINE
  5
1D43
  8
GUMA
 66
     1
 10
0.0
 20
0.0
 30
0.0
 70
    64
 71
    21
 72
    19
  0
VERTEX
  5
1D44
  8
GUMA
 10
11.7874986321321
 20
17.99999999999985
 30
2.999999999999978
 70
   192
  0
VERTEX
  5
1D45
  8
GUMA
 10
2.7874986321321
 20
17.99999999999985
 30
2.99999999999998
 70
   192
  0
VERTEX
  5
1D46
  8
GUMA
 10
2.787498632132099
 20
17.99999999999985
 30
-3.000000000000024
 70
   192
  0
VERTEX
  5
1D47
  8
GUMA
 10
11.7874986321321
 20
17.99999999999985
 30
-3.000000000000022
 70
   192
  0
VERTEX
  5
1D48
  8
GUMA
 10
11.7874986321321
 20
17.99999999999985
 30
-3.720000000000025
 70
   192
  0
VERTEX
  5
1D49
  8
GUMA
 10
2.067498632132097
 20
17.99999999999985
 30
-3.720000000000026
 70
   192
  0
VERTEX
  5
1D4A
  8
GUMA
 10
0.2161728934127858
 20
17.99999999999985
 30
-4.169582139804502
 70
   192
  0
VERTEX
  5
1D4B
  8
GUMA
 10
-1.66953062287162
 20
17.99999999999985
 30
-4.440973628153779
 70
   192
  0
VERTEX
  5
1D4C
  8
GUMA
 10
-3.572501367867897
 20
17.99999999999985
 30
-4.531711905435673
 70
   192
  0
VERTEX
  5
1D4D
  8
GUMA
 10
-5.475472112864184
 20
17.99999999999985
 30
-4.440973628153779
 70
   192
  0
VERTEX
  5
1D4E
  8
GUMA
 10
-7.361175629148589
 20
17.99999999999985
 30
-4.169582139804502
 70
   192
  0
VERTEX
  5
1D4F
  8
GUMA
 10
-9.212501367867901
 20
17.99999999999985
 30
-3.720000000000024
 70
   192
  0
VERTEX
  5
1D50
  8
GUMA
 10
-9.212501367867898
 20
17.99999999999985
 30
-3.000000000000025
 70
   192
  0
VERTEX
  5
1D51
  8
GUMA
 10
-7.361175629148586
 20
17.99999999999985
 30
-3.449582139804502
 70
   192
  0
VERTEX
  5
1D52
  8
GUMA
 10
-5.47547211286418
 20
17.99999999999985
 30
-3.720973628153779
 70
   192
  0
VERTEX
  5
1D53
  8
GUMA
 10
-3.572501367867902
 20
17.99999999999985
 30
-3.811711905435672
 70
   192
  0
VERTEX
  5
1D54
  8
GUMA
 10
-1.669530622871624
 20
17.99999999999985
 30
-3.720973628153779
 70
   192
  0
VERTEX
  5
1D55
  8
GUMA
 10
0.2161728934127818
 20
17.99999999999985
 30
-3.449582139804502
 70
   192
  0
VERTEX
  5
1D56
  8
GUMA
 10
2.067498632132099
 20
17.99999999999985
 30
-3.000000000000024
 70
   192
  0
VERTEX
  5
1D57
  8
GUMA
 10
2.0674986321321
 20
17.99999999999985
 30
3.719999999999978
 70
   192
  0
VERTEX
  5
1D58
  8
GUMA
 10
11.7874986321321
 20
17.99999999999985
 30
3.719999999999978
 70
   192
  0
VERTEX
  5
1D59
  8
GUMA
 10
0.0
 20
0.0
 30
0.0
 70
   128
 71
    14
 72
    13
 73
   -12
  0
VERTEX
  5
1D5A
  8
GUMA
 10
0.0
 20
0.0
 30
0.0
 70
   128
 71
   -14
 72
    12
 73
   -11
  0
VERTEX
  5
1D5B
  8
GUMA
 10
0.0
 20
0.0
 30
0.0
 70
   128
 71
    11
 72
   -10
 73
   -15
  0
VERTEX
  5
1D5C
  8
GUMA
 10
0.0
 20
0.0
 30
0.0
 70
   128
 71
   -11
 72
    15
 73
   -14
  0
VERTEX
  5
1D5D
  8
GUMA
 10
0.0
 20
0.0
 30
0.0
 70
   128
 71
    10
 72
    -9
 73
   -16
  0
VERTEX
  5
1D5E
  8
GUMA
 10
0.0
 20
0.0
 30
0.0
 70
   128
 71
   -10
 72
    16
 73
   -15
  0
VERTEX
  5
1D5F
  8
GUMA
 10
0.0
 20
0.0
 30
0.0
 70
   128
 71
     9
 72
    -8
 73
   -17
  0
VERTEX
  5
1D60
  8
GUMA
 10
0.0
 20
0.0
 30
0.0
 70
   128
 71
    -9
 72
    17
 73
   -16
  0
VERTEX
  5
1D61
  8
GUMA
 10
0.0
 20
0.0
 30
0.0
 70
   128
 71
     8
 72
    -7
 73
   -18
  0
VERTEX
  5
1D62
  8
GUMA
 10
0.0
 20
0.0
 30
0.0
 70
   128
 71
    -8
 72
    18
 73
   -17
  0
VERTEX
  5
1D63
  8
GUMA
 10
0.0
 20
0.0
 30
0.0
 70
   128
 71
     7
 72
    -6
 73
   -19
  0
VERTEX
  5
1D64
  8
GUMA
 10
0.0
 20
0.0
 30
0.0
 70
   128
 71
    -7
 72
    19
 73
   -18
  0
VERTEX
  5
1D65
  8
GUMA
 10
0.0
 20
0.0
 30
0.0
 70
   128
 71
     2
 72
     1
 73
   -21
  0
VERTEX
  5
1D66
  8
GUMA
 10
0.0
 20
0.0
 30
0.0
 70
   128
 71
    -2
 72
    21
 73
   -20
  0
VERTEX
  5
1D67
  8
GUMA
 10
0.0
 20
0.0
 30
0.0
 70
   128
 71
    20
 72
   -19
 73
    -3
  0
VERTEX
  5
1D68
  8
GUMA
 10
0.0
 20
0.0
 30
0.0
 70
   128
 71
   -20
 72
     3
 73
    -2
  0
VERTEX
  5
1D69
  8
GUMA
 10
0.0
 20
0.0
 30
0.0
 70
   128
 71
    -3
 72
   -19
 73
    -6
  0
VERTEX
  5
1D6A
  8
GUMA
 10
0.0
 20
0.0
 30
0.0
 70
   128
 71
     6
 72
     5
 73
    -4
  0
VERTEX
  5
1D6B
  8
GUMA
 10
0.0
 20
0.0
 30
0.0
 70
   128
 71
    -6
 72
     4
 73
    -3
  0
SEQEND
  5
21B3
  8
GUMA
  0
ENDBLK
  5
21A4
  8
0
  0
BLOCK
  8
0
  2
*X8
 70
     1
 10
0.0
 20
0.0
 30
0.0
  3
*X8
  1

  0
POLYLINE
  5
1D6D
  8
RÁM
 66
     1
 10
0.0
 20
0.0
 30
0.0
 70
    64
 71
     8
 72
     6
  0
VERTEX
  5
1D6E
  8
RÁM
 10
4.763139720814412
 20
1771.5
 30
13.24999999999998
 70
   192
  0
VERTEX
  5
1D6F
  8
RÁM
 10
4.763139720814412
 20
1827.5
 30
13.24999999999997
 70
   192
  0
VERTEX
  5
1D70
  8
RÁM
 10
2.749999999999999
 20
1827.5
 30
15.26313972081438
 70
   192
  0
VERTEX
  5
1D71
  8
RÁM
 10
2.749999999999999
 20
1771.5
 30
15.26313972081439
 70
   192
  0
VERTEX
  5
1D72
  8
RÁM
 10
5.5
 20
1771.5
 30
10.49999999999998
 70
   192
  0
VERTEX
  5
1D73
  8
RÁM
 10
5.5
 20
1827.5
 30
10.49999999999997
 70
   192
  0
VERTEX
  5
1D74
  8
RÁM
 10
-0.0000000000000007
 20
1827.5
 30
15.99999999999997
 70
   192
  0
VERTEX
  5
1D75
  8
RÁM
 10
0.0
 20
1771.5
 30
15.99999999999998
 70
   192
  0
VERTEX
  5
1D76
  8
RÁM
 10
0.0
 20
0.0
 30
0.0
 70
   128
 71
     1
 72
     2
 73
    -3
  0
VERTEX
  5
1D77
  8
RÁM
 10
0.0
 20
0.0
 30
0.0
 70
   128
 71
    -1
 72
     3
 73
     4
  0
VERTEX
  5
1D78
  8
RÁM
 10
0.0
 20
0.0
 30
0.0
 70
   128
 71
     5
 72
     6
 73
    -2
  0
VERTEX
  5
1D79
  8
RÁM
 10
0.0
 20
0.0
 30
0.0
 70
   128
 71
    -5
 72
     2
 73
     1
  0
VERTEX
  5
1D7A
  8
RÁM
 10
0.0
 20
0.0
 30
0.0
 70
   128
 71
     4
 72
     3
 73
    -7
  0
VERTEX
  5
1D7B
  8
RÁM
 10
0.0
 20
0.0
 30
0.0
 70
   128
 71
    -4
 72
     7
 73
     8
  0
SEQEND
  5
21B6
  8
RÁM
  0
POLYLINE
  5
1D7C
  8
RÁM
 66
     1
 10
0.0
 20
0.0
 30
0.0
 70
    64
 71
     4
 72
     2
  0
VERTEX
  5
1D7D
  8
RÁM
 10
-41.00000000000006
 20
1771.5
 30
7.999999999999981
 70
   192
  0
VERTEX
  5
1D7E
  8
RÁM
 10
-5.5
 20
1771.5
 30
7.999999999999981
 70
   192
  0
VERTEX
  5
1D7F
  8
RÁM
 10
-5.5
 20
1827.5
 30
7.999999999999969
 70
   192
  0
VERTEX
  5
1D80
  8
RÁM
 10
-41.00000000000006
 20
1827.5
 30
7.999999999999969
 70
   192
  0
VERTEX
  5
1D81
  8
RÁM
 10
0.0
 20
0.0
 30
0.0
 70
   128
 71
     3
 72
     4
 73
    -1
  0
VERTEX
  5
1D82
  8
RÁM
 10
0.0
 20
0.0
 30
0.0
 70
   128
 71
     2
 72
    -3
 73
     1
  0
SEQEND
  5
21B7
  8
RÁM
  0
POLYLINE
  5
1D83
  8
RÁM
 66
     1
 10
0.0
 20
0.0
 30
0.0
 70
    64
 71
     4
 72
     2
  0
VERTEX
  5
1D84
  8
RÁM
 10
-5.499999999999999
 20
1771.5
 30
7.999999999999981
 70
   192
  0
VERTEX
  5
1D85
  8
RÁM
 10
-5.5
 20
1771.5
 30
10.49999999999998
 70
   192
  0
VERTEX
  5
1D86
  8
RÁM
 10
-5.5
 20
1827.5
 30
10.49999999999997
 70
   192
  0
VERTEX
  5
1D87
  8
RÁM
 10
-5.499999999999999
 20
1827.5
 30
7.999999999999969
 70
   192
  0
VERTEX
  5
1D88
  8
RÁM
 10
0.0
 20
0.0
 30
0.0
 70
   128
 71
     3
 72
     4
 73
    -1
  0
VERTEX
  5
1D89
  8
RÁM
 10
0.0
 20
0.0
 30
0.0
 70
   128
 71
     2
 72
    -3
 73
     1
  0
SEQEND
  5
21B8
  8
RÁM
  0
POLYLINE
  5
1D8A
  8
RÁM
 66
     1
 10
0.0
 20
0.0
 30
0.0
 70
    64
 71
     8
 72
     6
  0
VERTEX
  5
1D8B
  8
RÁM
 10
-2.750000000000002
 20
1771.5
 30
15.26313972081439
 70
   192
  0
VERTEX
  5
1D8C
  8
RÁM
 10
-2.750000000000002
 20
1827.5
 30
15.26313972081438
 70
   192
  0
VERTEX
  5
1D8D
  8
RÁM
 10
-4.763139720814413
 20
1827.5
 30
13.24999999999997
 70
   192
  0
VERTEX
  5
1D8E
  8
RÁM
 10
-4.763139720814413
 20
1771.5
 30
13.24999999999998
 70
   192
  0
VERTEX
  5
1D8F
  8
RÁM
 10
-0.0000000000000007
 20
1771.5
 30
15.99999999999998
 70
   192
  0
VERTEX
  5
1D90
  8
RÁM
 10
0.0
 20
1827.5
 30
15.99999999999997
 70
   192
  0
VERTEX
  5
1D91
  8
RÁM
 10
-5.5
 20
1827.5
 30
10.49999999999997
 70
   192
  0
VERTEX
  5
1D92
  8
RÁM
 10
-5.5
 20
1771.5
 30
10.49999999999998
 70
   192
  0
VERTEX
  5
1D93
  8
RÁM
 10
0.0
 20
0.0
 30
0.0
 70
   128
 71
     1
 72
     2
 73
    -3
  0
VERTEX
  5
1D94
  8
RÁM
 10
0.0
 20
0.0
 30
0.0
 70
   128
 71
    -1
 72
     3
 73
     4
  0
VERTEX
  5
1D95
  8
RÁM
 10
0.0
 20
0.0
 30
0.0
 70
   128
 71
     5
 72
     6
 73
    -2
  0
VERTEX
  5
1D96
  8
RÁM
 10
0.0
 20
0.0
 30
0.0
 70
   128
 71
    -5
 72
     2
 73
     1
  0
VERTEX
  5
1D97
  8
RÁM
 10
0.0
 20
0.0
 30
0.0
 70
   128
 71
     4
 72
     3
 73
    -7
  0
VERTEX
  5
1D98
  8
RÁM
 10
0.0
 20
0.0
 30
0.0
 70
   128
 71
    -4
 72
     7
 73
     8
  0
SEQEND
  5
21B9
  8
RÁM
  0
POLYLINE
  5
1D99
  8
RÁM
 66
     1
 10
0.0
 20
0.0
 30
0.0
 70
    64
 71
     4
 72
     2
  0
VERTEX
  5
1D9A
  8
RÁM
 10
5.5
 20
1771.5
 30
10.49999999999998
 70
   192
  0
VERTEX
  5
1D9B
  8
RÁM
 10
5.5
 20
1827.5
 30
10.49999999999997
 70
   192
  0
VERTEX
  5
1D9C
  8
RÁM
 10
5.5
 20
1827.5
 30
7.999999999999969
 70
   192
  0
VERTEX
  5
1D9D
  8
RÁM
 10
5.499999999999999
 20
1771.5
 30
7.999999999999981
 70
   192
  0
VERTEX
  5
1D9E
  8
RÁM
 10
0.0
 20
0.0
 30
0.0
 70
   128
 71
     1
 72
     4
 73
    -3
  0
VERTEX
  5
1D9F
  8
RÁM
 10
0.0
 20
0.0
 30
0.0
 70
   128
 71
    -1
 72
     3
 73
     2
  0
SEQEND
  5
21BA
  8
RÁM
  0
POLYLINE
  5
1DA0
  8
RÁM
 66
     1
 10
0.0
 20
0.0
 30
0.0
 70
    64
 71
     4
 72
     2
  0
VERTEX
  5
1DA1
  8
RÁM
 10
5.5
 20
1771.5
 30
7.999999999999981
 70
   192
  0
VERTEX
  5
1DA2
  8
RÁM
 10
40.99999999999994
 20
1771.5
 30
7.999999999999981
 70
   192
  0
VERTEX
  5
1DA3
  8
RÁM
 10
40.99999999999994
 20
1827.5
 30
7.999999999999969
 70
   192
  0
VERTEX
  5
1DA4
  8
RÁM
 10
5.5
 20
1827.5
 30
7.999999999999969
 70
   192
  0
VERTEX
  5
1DA5
  8
RÁM
 10
0.0
 20
0.0
 30
0.0
 70
   128
 71
     3
 72
     4
 73
    -1
  0
VERTEX
  5
1DA6
  8
RÁM
 10
0.0
 20
0.0
 30
0.0
 70
   128
 71
     2
 72
    -3
 73
     1
  0
SEQEND
  5
21BB
  8
RÁM
  0
POLYLINE
  5
1DA7
  8
RÁM
 66
     1
 10
0.0
 20
0.0
 30
0.0
 70
    64
 71
     4
 72
     2
  0
VERTEX
  5
1DA8
  8
RÁM
 10
40.99999999999994
 20
1771.5
 30
7.999999999999981
 70
   192
  0
VERTEX
  5
1DA9
  8
RÁM
 10
40.99999999999994
 20
1771.5
 30
2.999999999999982
 70
   192
  0
VERTEX
  5
1DAA
  8
RÁM
 10
40.99999999999994
 20
1827.5
 30
2.999999999999968
 70
   192
  0
VERTEX
  5
1DAB
  8
RÁM
 10
40.99999999999994
 20
1827.5
 30
7.999999999999969
 70
   192
  0
VERTEX
  5
1DAC
  8
RÁM
 10
0.0
 20
0.0
 30
0.0
 70
   128
 71
     3
 72
     4
 73
    -1
  0
VERTEX
  5
1DAD
  8
RÁM
 10
0.0
 20
0.0
 30
0.0
 70
   128
 71
     2
 72
    -3
 73
     1
  0
SEQEND
  5
21BC
  8
RÁM
  0
POLYLINE
  5
1DAE
  8
RÁM
 66
     1
 10
0.0
 20
0.0
 30
0.0
 70
    64
 71
     4
 72
     2
  0
VERTEX
  5
1DAF
  8
RÁM
 10
40.99999999999994
 20
1771.5
 30
2.999999999999981
 70
   192
  0
VERTEX
  5
1DB0
  8
RÁM
 10
40.99999999999994
 20
1827.5
 30
2.999999999999968
 70
   192
  0
VERTEX
  5
1DB1
  8
RÁM
 10
15.99999999999994
 20
1827.5
 30
2.999999999999968
 70
   192
  0
VERTEX
  5
1DB2
  8
RÁM
 10
15.99999999999994
 20
1771.5
 30
2.999999999999981
 70
   192
  0
VERTEX
  5
1DB3
  8
RÁM
 10
0.0
 20
0.0
 30
0.0
 70
   128
 71
     1
 72
     4
 73
    -3
  0
VERTEX
  5
1DB4
  8
RÁM
 10
0.0
 20
0.0
 30
0.0
 70
   128
 71
    -1
 72
     3
 73
     2
  0
SEQEND
  5
21BD
  8
RÁM
  0
POLYLINE
  5
1DB5
  8
RÁM
 66
     1
 10
0.0
 20
0.0
 30
0.0
 70
    64
 71
     4
 72
     2
  0
VERTEX
  5
1DB6
  8
RÁM
 10
15.99999999999994
 20
1771.5
 30
2.999999999999981
 70
   192
  0
VERTEX
  5
1DB7
  8
RÁM
 10
15.99999999999994
 20
1827.5
 30
2.999999999999968
 70
   192
  0
VERTEX
  5
1DB8
  8
RÁM
 10
15.99999999999994
 20
1827.5
 30
4.999999999999969
 70
   192
  0
VERTEX
  5
1DB9
  8
RÁM
 10
15.99999999999994
 20
1771.5
 30
4.999999999999981
 70
   192
  0
VERTEX
  5
1DBA
  8
RÁM
 10
0.0
 20
0.0
 30
0.0
 70
   128
 71
     1
 72
     4
 73
    -3
  0
VERTEX
  5
1DBB
  8
RÁM
 10
0.0
 20
0.0
 30
0.0
 70
   128
 71
    -1
 72
     3
 73
     2
  0
SEQEND
  5
21BE
  8
RÁM
  0
POLYLINE
  5
1DBC
  8
RÁM
 66
     1
 10
0.0
 20
0.0
 30
0.0
 70
    64
 71
     4
 72
     2
  0
VERTEX
  5
1DBD
  8
RÁM
 10
15.99999999999994
 20
1771.5
 30
4.999999999999981
 70
   192
  0
VERTEX
  5
1DBE
  8
RÁM
 10
15.99999999999994
 20
1827.5
 30
4.999999999999969
 70
   192
  0
VERTEX
  5
1DBF
  8
RÁM
 10
-15.99999999999994
 20
1827.5
 30
4.999999999999969
 70
   192
  0
VERTEX
  5
1DC0
  8
RÁM
 10
-15.99999999999994
 20
1771.5
 30
4.999999999999981
 70
   192
  0
VERTEX
  5
1DC1
  8
RÁM
 10
0.0
 20
0.0
 30
0.0
 70
   128
 71
     1
 72
     4
 73
    -3
  0
VERTEX
  5
1DC2
  8
RÁM
 10
0.0
 20
0.0
 30
0.0
 70
   128
 71
    -1
 72
     3
 73
     2
  0
SEQEND
  5
21BF
  8
RÁM
  0
POLYLINE
  5
1DC3
  8
RÁM
 66
     1
 10
0.0
 20
0.0
 30
0.0
 70
    64
 71
     4
 72
     2
  0
VERTEX
  5
1DC4
  8
RÁM
 10
-15.99999999999994
 20
1771.5
 30
4.999999999999981
 70
   192
  0
VERTEX
  5
1DC5
  8
RÁM
 10
-15.99999999999994
 20
1827.5
 30
4.999999999999969
 70
   192
  0
VERTEX
  5
1DC6
  8
RÁM
 10
-15.99999999999994
 20
1827.5
 30
2.999999999999968
 70
   192
  0
VERTEX
  5
1DC7
  8
RÁM
 10
-15.99999999999994
 20
1771.5
 30
2.999999999999981
 70
   192
  0
VERTEX
  5
1DC8
  8
RÁM
 10
0.0
 20
0.0
 30
0.0
 70
   128
 71
     1
 72
     4
 73
    -3
  0
VERTEX
  5
1DC9
  8
RÁM
 10
0.0
 20
0.0
 30
0.0
 70
   128
 71
    -1
 72
     3
 73
     2
  0
SEQEND
  5
21C0
  8
RÁM
  0
POLYLINE
  5
1DCA
  8
RÁM
 66
     1
 10
0.0
 20
0.0
 30
0.0
 70
    64
 71
     4
 72
     2
  0
VERTEX
  5
1DCB
  8
RÁM
 10
-15.99999999999994
 20
1771.5
 30
2.999999999999981
 70
   192
  0
VERTEX
  5
1DCC
  8
RÁM
 10
-15.99999999999994
 20
1827.5
 30
2.999999999999968
 70
   192
  0
VERTEX
  5
1DCD
  8
RÁM
 10
-41.00000000000006
 20
1827.5
 30
2.999999999999968
 70
   192
  0
VERTEX
  5
1DCE
  8
RÁM
 10
-41.00000000000006
 20
1771.5
 30
2.999999999999981
 70
   192
  0
VERTEX
  5
1DCF
  8
RÁM
 10
0.0
 20
0.0
 30
0.0
 70
   128
 71
     1
 72
     4
 73
    -3
  0
VERTEX
  5
1DD0
  8
RÁM
 10
0.0
 20
0.0
 30
0.0
 70
   128
 71
    -1
 72
     3
 73
     2
  0
SEQEND
  5
21C1
  8
RÁM
  0
POLYLINE
  5
1DD1
  8
RÁM
 66
     1
 10
0.0
 20
0.0
 30
0.0
 70
    64
 71
     4
 72
     2
  0
VERTEX
  5
1DD2
  8
RÁM
 10
-41.00000000000006
 20
1771.5
 30
2.999999999999981
 70
   192
  0
VERTEX
  5
1DD3
  8
RÁM
 10
-41.00000000000006
 20
1827.5
 30
2.999999999999968
 70
   192
  0
VERTEX
  5
1DD4
  8
RÁM
 10
-41.00000000000006
 20
1827.5
 30
7.999999999999969
 70
   192
  0
VERTEX
  5
1DD5
  8
RÁM
 10
-41.00000000000006
 20
1771.5
 30
7.999999999999981
 70
   192
  0
VERTEX
  5
1DD6
  8
RÁM
 10
0.0
 20
0.0
 30
0.0
 70
   128
 71
     1
 72
     4
 73
    -3
  0
VERTEX
  5
1DD7
  8
RÁM
 10
0.0
 20
0.0
 30
0.0
 70
   128
 71
    -1
 72
     3
 73
     2
  0
SEQEND
  5
21C2
  8
RÁM
  0
POLYLINE
  5
1DD8
  8
RÁM
 66
     1
 10
0.0
 20
0.0
 30
0.0
 70
    64
 71
    17
 72
    15
  0
VERTEX
  5
1DD9
  8
RÁM
 10
-41.00000000000006
 20
1827.5
 30
7.999999999999969
 70
   192
  0
VERTEX
  5
1DDA
  8
RÁM
 10
-5.5
 20
1827.5
 30
7.999999999999969
 70
   192
  0
VERTEX
  5
1DDB
  8
RÁM
 10
-5.5
 20
1827.5
 30
10.49999999999997
 70
   192
  0
VERTEX
  5
1DDC
  8
RÁM
 10
-4.763139720814413
 20
1827.5
 30
13.24999999999997
 70
   192
  0
VERTEX
  5
1DDD
  8
RÁM
 10
-2.750000000000002
 20
1827.5
 30
15.26313972081438
 70
   192
  0
VERTEX
  5
1DDE
  8
RÁM
 10
-0.0000000000000007
 20
1827.5
 30
15.99999999999997
 70
   192
  0
VERTEX
  5
1DDF
  8
RÁM
 10
2.749999999999999
 20
1827.5
 30
15.26313972081438
 70
   192
  0
VERTEX
  5
1DE0
  8
RÁM
 10
4.763139720814412
 20
1827.5
 30
13.24999999999997
 70
   192
  0
VERTEX
  5
1DE1
  8
RÁM
 10
5.5
 20
1827.5
 30
10.49999999999997
 70
   192
  0
VERTEX
  5
1DE2
  8
RÁM
 10
5.499999999999999
 20
1827.5
 30
7.999999999999969
 70
   192
  0
VERTEX
  5
1DE3
  8
RÁM
 10
40.99999999999994
 20
1827.5
 30
7.999999999999969
 70
   192
  0
VERTEX
  5
1DE4
  8
RÁM
 10
40.99999999999994
 20
1827.5
 30
2.999999999999968
 70
   192
  0
VERTEX
  5
1DE5
  8
RÁM
 10
15.99999999999994
 20
1827.5
 30
2.999999999999968
 70
   192
  0
VERTEX
  5
1DE6
  8
RÁM
 10
15.99999999999994
 20
1827.5
 30
4.999999999999969
 70
   192
  0
VERTEX
  5
1DE7
  8
RÁM
 10
-15.99999999999994
 20
1827.5
 30
4.999999999999969
 70
   192
  0
VERTEX
  5
1DE8
  8
RÁM
 10
-15.99999999999994
 20
1827.5
 30
2.999999999999968
 70
   192
  0
VERTEX
  5
1DE9
  8
RÁM
 10
-41.00000000000006
 20
1827.5
 30
2.999999999999968
 70
   192
  0
VERTEX
  5
1DEA
  8
RÁM
 10
0.0
 20
0.0
 30
0.0
 70
   128
 71
    12
 72
    13
 73
   -14
  0
VERTEX
  5
1DEB
  8
RÁM
 10
0.0
 20
0.0
 30
0.0
 70
   128
 71
     8
 72
     9
 73
   -10
  0
VERTEX
  5
1DEC
  8
RÁM
 10
0.0
 20
0.0
 30
0.0
 70
   128
 71
     7
 72
    -8
 73
   -10
  0
VERTEX
  5
1DED
  8
RÁM
 10
0.0
 20
0.0
 30
0.0
 70
   128
 71
     6
 72
    -7
 73
   -10
  0
VERTEX
  5
1DEE
  8
RÁM
 10
0.0
 20
0.0
 30
0.0
 70
   128
 71
     5
 72
    -6
 73
   -10
  0
VERTEX
  5
1DEF
  8
RÁM
 10
0.0
 20
0.0
 30
0.0
 70
   128
 71
     4
 72
    -5
 73
   -10
  0
VERTEX
  5
1DF0
  8
RÁM
 10
0.0
 20
0.0
 30
0.0
 70
   128
 71
     3
 72
    -4
 73
   -10
  0
VERTEX
  5
1DF1
  8
RÁM
 10
0.0
 20
0.0
 30
0.0
 70
   128
 71
     2
 72
    -3
 73
   -10
  0
VERTEX
  5
1DF2
  8
RÁM
 10
0.0
 20
0.0
 30
0.0
 70
   128
 71
    11
 72
   -12
 73
   -14
  0
VERTEX
  5
1DF3
  8
RÁM
 10
0.0
 20
0.0
 30
0.0
 70
   128
 71
    10
 72
   -11
 73
   -14
  0
VERTEX
  5
1DF4
  8
RÁM
 10
0.0
 20
0.0
 30
0.0
 70
   128
 71
   -15
 72
    -2
 73
   -10
  0
VERTEX
  5
1DF5
  8
RÁM
 10
0.0
 20
0.0
 30
0.0
 70
   128
 71
    14
 72
   -15
 73
   -10
  0
VERTEX
  5
1DF6
  8
RÁM
 10
0.0
 20
0.0
 30
0.0
 70
   128
 71
    17
 72
     1
 73
    -2
  0
VERTEX
  5
1DF7
  8
RÁM
 10
0.0
 20
0.0
 30
0.0
 70
   128
 71
   -15
 72
   -17
 73
    -2
  0
VERTEX
  5
1DF8
  8
RÁM
 10
0.0
 20
0.0
 30
0.0
 70
   128
 71
    15
 72
    16
 73
   -17
  0
SEQEND
  5
21C3
  8
RÁM
  0
POLYLINE
  5
1DF9
  8
RÁM
 66
     1
 10
0.0
 20
0.0
 30
0.0
 70
    64
 71
    17
 72
    15
  0
VERTEX
  5
1DFA
  8
RÁM
 10
-5.499999999999999
 20
1771.5
 30
7.999999999999981
 70
   192
  0
VERTEX
  5
1DFB
  8
RÁM
 10
-5.5
 20
1771.5
 30
10.49999999999998
 70
   192
  0
VERTEX
  5
1DFC
  8
RÁM
 10
-4.763139720814413
 20
1771.5
 30
13.24999999999998
 70
   192
  0
VERTEX
  5
1DFD
  8
RÁM
 10
-2.750000000000002
 20
1771.5
 30
15.26313972081439
 70
   192
  0
VERTEX
  5
1DFE
  8
RÁM
 10
-0.0000000000000007
 20
1771.5
 30
15.99999999999998
 70
   192
  0
VERTEX
  5
1DFF
  8
RÁM
 10
2.749999999999999
 20
1771.5
 30
15.26313972081439
 70
   192
  0
VERTEX
  5
1E00
  8
RÁM
 10
4.763139720814412
 20
1771.5
 30
13.24999999999998
 70
   192
  0
VERTEX
  5
1E01
  8
RÁM
 10
5.5
 20
1771.5
 30
10.49999999999998
 70
   192
  0
VERTEX
  5
1E02
  8
RÁM
 10
5.5
 20
1771.5
 30
7.999999999999981
 70
   192
  0
VERTEX
  5
1E03
  8
RÁM
 10
40.99999999999994
 20
1771.5
 30
7.999999999999981
 70
   192
  0
VERTEX
  5
1E04
  8
RÁM
 10
40.99999999999994
 20
1771.5
 30
2.999999999999981
 70
   192
  0
VERTEX
  5
1E05
  8
RÁM
 10
15.99999999999994
 20
1771.5
 30
2.999999999999981
 70
   192
  0
VERTEX
  5
1E06
  8
RÁM
 10
15.99999999999994
 20
1771.5
 30
4.999999999999981
 70
   192
  0
VERTEX
  5
1E07
  8
RÁM
 10
-15.99999999999994
 20
1771.5
 30
4.999999999999981
 70
   192
  0
VERTEX
  5
1E08
  8
RÁM
 10
-15.99999999999994
 20
1771.5
 30
2.999999999999981
 70
   192
  0
VERTEX
  5
1E09
  8
RÁM
 10
-41.00000000000006
 20
1771.5
 30
2.999999999999982
 70
   192
  0
VERTEX
  5
1E0A
  8
RÁM
 10
-41.00000000000006
 20
1771.5
 30
7.999999999999981
 70
   192
  0
VERTEX
  5
1E0B
  8
RÁM
 10
0.0
 20
0.0
 30
0.0
 70
   128
 71
    13
 72
    12
 73
   -11
  0
VERTEX
  5
1E0C
  8
RÁM
 10
0.0
 20
0.0
 30
0.0
 70
   128
 71
   -11
 72
    -1
 73
   -13
  0
VERTEX
  5
1E0D
  8
RÁM
 10
0.0
 20
0.0
 30
0.0
 70
   128
 71
    -1
 72
    14
 73
   -13
  0
VERTEX
  5
1E0E
  8
RÁM
 10
0.0
 20
0.0
 30
0.0
 70
   128
 71
     1
 72
    17
 73
   -16
  0
VERTEX
  5
1E0F
  8
RÁM
 10
0.0
 20
0.0
 30
0.0
 70
   128
 71
    -1
 72
   -16
 73
   -14
  0
VERTEX
  5
1E10
  8
RÁM
 10
0.0
 20
0.0
 30
0.0
 70
   128
 71
    16
 72
    15
 73
   -14
  0
VERTEX
  5
1E11
  8
RÁM
 10
0.0
 20
0.0
 30
0.0
 70
   128
 71
     9
 72
     8
 73
    -7
  0
VERTEX
  5
1E12
  8
RÁM
 10
0.0
 20
0.0
 30
0.0
 70
   128
 71
    -9
 72
     7
 73
    -6
  0
VERTEX
  5
1E13
  8
RÁM
 10
0.0
 20
0.0
 30
0.0
 70
   128
 71
    -9
 72
     6
 73
    -5
  0
VERTEX
  5
1E14
  8
RÁM
 10
0.0
 20
0.0
 30
0.0
 70
   128
 71
    -9
 72
     5
 73
    -4
  0
VERTEX
  5
1E15
  8
RÁM
 10
0.0
 20
0.0
 30
0.0
 70
   128
 71
    -9
 72
     4
 73
    -3
  0
VERTEX
  5
1E16
  8
RÁM
 10
0.0
 20
0.0
 30
0.0
 70
   128
 71
    -9
 72
     3
 73
    -2
  0
VERTEX
  5
1E17
  8
RÁM
 10
0.0
 20
0.0
 30
0.0
 70
   128
 71
    -9
 72
     2
 73
    -1
  0
VERTEX
  5
1E18
  8
RÁM
 10
0.0
 20
0.0
 30
0.0
 70
   128
 71
    -9
 72
    -1
 73
   -11
  0
VERTEX
  5
1E19
  8
RÁM
 10
0.0
 20
0.0
 30
0.0
 70
   128
 71
    11
 72
    10
 73
    -9
  0
SEQEND
  5
21C4
  8
RÁM
  0
ENDBLK
  5
21B5
  8
0
  0
BLOCK
  8
0
  2
*X9
 70
     1
 10
0.0
 20
0.0
 30
0.0
  3
*X9
  1

  0
POLYLINE
  5
1E1B
  8
RÁM
 66
     1
 10
0.0
 20
0.0
 30
0.0
 70
    64
 71
     8
 72
     6
  0
VERTEX
  5
1E1C
  8
RÁM
 10
4.763139720814412
 20
190.5
 30
13.24999999999998
 70
   192
  0
VERTEX
  5
1E1D
  8
RÁM
 10
4.763139720814412
 20
246.5
 30
13.24999999999996
 70
   192
  0
VERTEX
  5
1E1E
  8
RÁM
 10
2.749999999999999
 20
246.5
 30
15.26313972081437
 70
   192
  0
VERTEX
  5
1E1F
  8
RÁM
 10
2.749999999999999
 20
190.5
 30
15.26313972081439
 70
   192
  0
VERTEX
  5
1E20
  8
RÁM
 10
5.5
 20
190.5
 30
10.49999999999998
 70
   192
  0
VERTEX
  5
1E21
  8
RÁM
 10
5.5
 20
246.5
 30
10.49999999999996
 70
   192
  0
VERTEX
  5
1E22
  8
RÁM
 10
-0.0000000000000007
 20
246.5
 30
15.99999999999996
 70
   192
  0
VERTEX
  5
1E23
  8
RÁM
 10
0.0
 20
190.5
 30
15.99999999999997
 70
   192
  0
VERTEX
  5
1E24
  8
RÁM
 10
0.0
 20
0.0
 30
0.0
 70
   128
 71
     1
 72
     2
 73
    -3
  0
VERTEX
  5
1E25
  8
RÁM
 10
0.0
 20
0.0
 30
0.0
 70
   128
 71
    -1
 72
     3
 73
     4
  0
VERTEX
  5
1E26
  8
RÁM
 10
0.0
 20
0.0
 30
0.0
 70
   128
 71
     5
 72
     6
 73
    -2
  0
VERTEX
  5
1E27
  8
RÁM
 10
0.0
 20
0.0
 30
0.0
 70
   128
 71
    -5
 72
     2
 73
     1
  0
VERTEX
  5
1E28
  8
RÁM
 10
0.0
 20
0.0
 30
0.0
 70
   128
 71
     4
 72
     3
 73
    -7
  0
VERTEX
  5
1E29
  8
RÁM
 10
0.0
 20
0.0
 30
0.0
 70
   128
 71
    -4
 72
     7
 73
     8
  0
SEQEND
  5
21C7
  8
RÁM
  0
POLYLINE
  5
1E2A
  8
RÁM
 66
     1
 10
0.0
 20
0.0
 30
0.0
 70
    64
 71
     4
 72
     2
  0
VERTEX
  5
1E2B
  8
RÁM
 10
-41.00000000000006
 20
190.5
 30
7.999999999999974
 70
   192
  0
VERTEX
  5
1E2C
  8
RÁM
 10
-5.5
 20
190.5
 30
7.999999999999974
 70
   192
  0
VERTEX
  5
1E2D
  8
RÁM
 10
-5.5
 20
246.5
 30
7.999999999999962
 70
   192
  0
VERTEX
  5
1E2E
  8
RÁM
 10
-41.00000000000006
 20
246.5
 30
7.999999999999962
 70
   192
  0
VERTEX
  5
1E2F
  8
RÁM
 10
0.0
 20
0.0
 30
0.0
 70
   128
 71
     3
 72
     4
 73
    -1
  0
VERTEX
  5
1E30
  8
RÁM
 10
0.0
 20
0.0
 30
0.0
 70
   128
 71
     2
 72
    -3
 73
     1
  0
SEQEND
  5
21C8
  8
RÁM
  0
POLYLINE
  5
1E31
  8
RÁM
 66
     1
 10
0.0
 20
0.0
 30
0.0
 70
    64
 71
     4
 72
     2
  0
VERTEX
  5
1E32
  8
RÁM
 10
-5.499999999999999
 20
190.5
 30
7.999999999999974
 70
   192
  0
VERTEX
  5
1E33
  8
RÁM
 10
-5.5
 20
190.5
 30
10.49999999999997
 70
   192
  0
VERTEX
  5
1E34
  8
RÁM
 10
-5.5
 20
246.5
 30
10.49999999999996
 70
   192
  0
VERTEX
  5
1E35
  8
RÁM
 10
-5.499999999999999
 20
246.5
 30
7.999999999999962
 70
   192
  0
VERTEX
  5
1E36
  8
RÁM
 10
0.0
 20
0.0
 30
0.0
 70
   128
 71
     3
 72
     4
 73
    -1
  0
VERTEX
  5
1E37
  8
RÁM
 10
0.0
 20
0.0
 30
0.0
 70
   128
 71
     2
 72
    -3
 73
     1
  0
SEQEND
  5
21C9
  8
RÁM
  0
POLYLINE
  5
1E38
  8
RÁM
 66
     1
 10
0.0
 20
0.0
 30
0.0
 70
    64
 71
     8
 72
     6
  0
VERTEX
  5
1E39
  8
RÁM
 10
-2.750000000000002
 20
190.5
 30
15.26313972081438
 70
   192
  0
VERTEX
  5
1E3A
  8
RÁM
 10
-2.750000000000002
 20
246.5
 30
15.26313972081437
 70
   192
  0
VERTEX
  5
1E3B
  8
RÁM
 10
-4.763139720814413
 20
246.5
 30
13.24999999999996
 70
   192
  0
VERTEX
  5
1E3C
  8
RÁM
 10
-4.763139720814413
 20
190.5
 30
13.24999999999997
 70
   192
  0
VERTEX
  5
1E3D
  8
RÁM
 10
-0.0000000000000007
 20
190.5
 30
15.99999999999997
 70
   192
  0
VERTEX
  5
1E3E
  8
RÁM
 10
0.0
 20
246.5
 30
15.99999999999996
 70
   192
  0
VERTEX
  5
1E3F
  8
RÁM
 10
-5.5
 20
246.5
 30
10.49999999999996
 70
   192
  0
VERTEX
  5
1E40
  8
RÁM
 10
-5.5
 20
190.5
 30
10.49999999999997
 70
   192
  0
VERTEX
  5
1E41
  8
RÁM
 10
0.0
 20
0.0
 30
0.0
 70
   128
 71
     1
 72
     2
 73
    -3
  0
VERTEX
  5
1E42
  8
RÁM
 10
0.0
 20
0.0
 30
0.0
 70
   128
 71
    -1
 72
     3
 73
     4
  0
VERTEX
  5
1E43
  8
RÁM
 10
0.0
 20
0.0
 30
0.0
 70
   128
 71
     5
 72
     6
 73
    -2
  0
VERTEX
  5
1E44
  8
RÁM
 10
0.0
 20
0.0
 30
0.0
 70
   128
 71
    -5
 72
     2
 73
     1
  0
VERTEX
  5
1E45
  8
RÁM
 10
0.0
 20
0.0
 30
0.0
 70
   128
 71
     4
 72
     3
 73
    -7
  0
VERTEX
  5
1E46
  8
RÁM
 10
0.0
 20
0.0
 30
0.0
 70
   128
 71
    -4
 72
     7
 73
     8
  0
SEQEND
  5
21CA
  8
RÁM
  0
POLYLINE
  5
1E47
  8
RÁM
 66
     1
 10
0.0
 20
0.0
 30
0.0
 70
    64
 71
     4
 72
     2
  0
VERTEX
  5
1E48
  8
RÁM
 10
5.5
 20
190.5
 30
10.49999999999997
 70
   192
  0
VERTEX
  5
1E49
  8
RÁM
 10
5.5
 20
246.5
 30
10.49999999999996
 70
   192
  0
VERTEX
  5
1E4A
  8
RÁM
 10
5.5
 20
246.5
 30
7.999999999999962
 70
   192
  0
VERTEX
  5
1E4B
  8
RÁM
 10
5.499999999999999
 20
190.5
 30
7.999999999999974
 70
   192
  0
VERTEX
  5
1E4C
  8
RÁM
 10
0.0
 20
0.0
 30
0.0
 70
   128
 71
     1
 72
     4
 73
    -3
  0
VERTEX
  5
1E4D
  8
RÁM
 10
0.0
 20
0.0
 30
0.0
 70
   128
 71
    -1
 72
     3
 73
     2
  0
SEQEND
  5
21CB
  8
RÁM
  0
POLYLINE
  5
1E4E
  8
RÁM
 66
     1
 10
0.0
 20
0.0
 30
0.0
 70
    64
 71
     4
 72
     2
  0
VERTEX
  5
1E4F
  8
RÁM
 10
5.5
 20
190.5
 30
7.999999999999974
 70
   192
  0
VERTEX
  5
1E50
  8
RÁM
 10
40.99999999999994
 20
190.5
 30
7.999999999999974
 70
   192
  0
VERTEX
  5
1E51
  8
RÁM
 10
40.99999999999994
 20
246.5
 30
7.999999999999962
 70
   192
  0
VERTEX
  5
1E52
  8
RÁM
 10
5.5
 20
246.5
 30
7.999999999999962
 70
   192
  0
VERTEX
  5
1E53
  8
RÁM
 10
0.0
 20
0.0
 30
0.0
 70
   128
 71
     3
 72
     4
 73
    -1
  0
VERTEX
  5
1E54
  8
RÁM
 10
0.0
 20
0.0
 30
0.0
 70
   128
 71
     2
 72
    -3
 73
     1
  0
SEQEND
  5
21CC
  8
RÁM
  0
POLYLINE
  5
1E55
  8
RÁM
 66
     1
 10
0.0
 20
0.0
 30
0.0
 70
    64
 71
     4
 72
     2
  0
VERTEX
  5
1E56
  8
RÁM
 10
40.99999999999994
 20
190.5
 30
7.999999999999974
 70
   192
  0
VERTEX
  5
1E57
  8
RÁM
 10
40.99999999999994
 20
190.5
 30
2.999999999999975
 70
   192
  0
VERTEX
  5
1E58
  8
RÁM
 10
40.99999999999994
 20
246.5
 30
2.999999999999961
 70
   192
  0
VERTEX
  5
1E59
  8
RÁM
 10
40.99999999999994
 20
246.5
 30
7.999999999999962
 70
   192
  0
VERTEX
  5
1E5A
  8
RÁM
 10
0.0
 20
0.0
 30
0.0
 70
   128
 71
     3
 72
     4
 73
    -1
  0
VERTEX
  5
1E5B
  8
RÁM
 10
0.0
 20
0.0
 30
0.0
 70
   128
 71
     2
 72
    -3
 73
     1
  0
SEQEND
  5
21CD
  8
RÁM
  0
POLYLINE
  5
1E5C
  8
RÁM
 66
     1
 10
0.0
 20
0.0
 30
0.0
 70
    64
 71
     4
 72
     2
  0
VERTEX
  5
1E5D
  8
RÁM
 10
40.99999999999994
 20
190.5
 30
2.999999999999974
 70
   192
  0
VERTEX
  5
1E5E
  8
RÁM
 10
40.99999999999994
 20
246.5
 30
2.999999999999961
 70
   192
  0
VERTEX
  5
1E5F
  8
RÁM
 10
15.99999999999994
 20
246.5
 30
2.999999999999961
 70
   192
  0
VERTEX
  5
1E60
  8
RÁM
 10
15.99999999999994
 20
190.5
 30
2.999999999999974
 70
   192
  0
VERTEX
  5
1E61
  8
RÁM
 10
0.0
 20
0.0
 30
0.0
 70
   128
 71
     1
 72
     4
 73
    -3
  0
VERTEX
  5
1E62
  8
RÁM
 10
0.0
 20
0.0
 30
0.0
 70
   128
 71
    -1
 72
     3
 73
     2
  0
SEQEND
  5
21CE
  8
RÁM
  0
POLYLINE
  5
1E63
  8
RÁM
 66
     1
 10
0.0
 20
0.0
 30
0.0
 70
    64
 71
     4
 72
     2
  0
VERTEX
  5
1E64
  8
RÁM
 10
15.99999999999994
 20
190.5
 30
2.999999999999974
 70
   192
  0
VERTEX
  5
1E65
  8
RÁM
 10
15.99999999999994
 20
246.5
 30
2.999999999999961
 70
   192
  0
VERTEX
  5
1E66
  8
RÁM
 10
15.99999999999994
 20
246.5
 30
4.999999999999962
 70
   192
  0
VERTEX
  5
1E67
  8
RÁM
 10
15.99999999999994
 20
190.5
 30
4.999999999999974
 70
   192
  0
VERTEX
  5
1E68
  8
RÁM
 10
0.0
 20
0.0
 30
0.0
 70
   128
 71
     1
 72
     4
 73
    -3
  0
VERTEX
  5
1E69
  8
RÁM
 10
0.0
 20
0.0
 30
0.0
 70
   128
 71
    -1
 72
     3
 73
     2
  0
SEQEND
  5
21CF
  8
RÁM
  0
POLYLINE
  5
1E6A
  8
RÁM
 66
     1
 10
0.0
 20
0.0
 30
0.0
 70
    64
 71
     4
 72
     2
  0
VERTEX
  5
1E6B
  8
RÁM
 10
15.99999999999994
 20
190.5
 30
4.999999999999974
 70
   192
  0
VERTEX
  5
1E6C
  8
RÁM
 10
15.99999999999994
 20
246.5
 30
4.999999999999962
 70
   192
  0
VERTEX
  5
1E6D
  8
RÁM
 10
-15.99999999999994
 20
246.5
 30
4.999999999999962
 70
   192
  0
VERTEX
  5
1E6E
  8
RÁM
 10
-15.99999999999994
 20
190.5
 30
4.999999999999974
 70
   192
  0
VERTEX
  5
1E6F
  8
RÁM
 10
0.0
 20
0.0
 30
0.0
 70
   128
 71
     1
 72
     4
 73
    -3
  0
VERTEX
  5
1E70
  8
RÁM
 10
0.0
 20
0.0
 30
0.0
 70
   128
 71
    -1
 72
     3
 73
     2
  0
SEQEND
  5
21D0
  8
RÁM
  0
POLYLINE
  5
1E71
  8
RÁM
 66
     1
 10
0.0
 20
0.0
 30
0.0
 70
    64
 71
     4
 72
     2
  0
VERTEX
  5
1E72
  8
RÁM
 10
-15.99999999999994
 20
190.5
 30
4.999999999999974
 70
   192
  0
VERTEX
  5
1E73
  8
RÁM
 10
-15.99999999999994
 20
246.5
 30
4.999999999999962
 70
   192
  0
VERTEX
  5
1E74
  8
RÁM
 10
-15.99999999999994
 20
246.5
 30
2.999999999999961
 70
   192
  0
VERTEX
  5
1E75
  8
RÁM
 10
-15.99999999999994
 20
190.5
 30
2.999999999999974
 70
   192
  0
VERTEX
  5
1E76
  8
RÁM
 10
0.0
 20
0.0
 30
0.0
 70
   128
 71
     1
 72
     4
 73
    -3
  0
VERTEX
  5
1E77
  8
RÁM
 10
0.0
 20
0.0
 30
0.0
 70
   128
 71
    -1
 72
     3
 73
     2
  0
SEQEND
  5
21D1
  8
RÁM
  0
POLYLINE
  5
1E78
  8
RÁM
 66
     1
 10
0.0
 20
0.0
 30
0.0
 70
    64
 71
     4
 72
     2
  0
VERTEX
  5
1E79
  8
RÁM
 10
-15.99999999999994
 20
190.5
 30
2.999999999999974
 70
   192
  0
VERTEX
  5
1E7A
  8
RÁM
 10
-15.99999999999994
 20
246.5
 30
2.999999999999961
 70
   192
  0
VERTEX
  5
1E7B
  8
RÁM
 10
-41.00000000000006
 20
246.5
 30
2.999999999999961
 70
   192
  0
VERTEX
  5
1E7C
  8
RÁM
 10
-41.00000000000006
 20
190.5
 30
2.999999999999974
 70
   192
  0
VERTEX
  5
1E7D
  8
RÁM
 10
0.0
 20
0.0
 30
0.0
 70
   128
 71
     1
 72
     4
 73
    -3
  0
VERTEX
  5
1E7E
  8
RÁM
 10
0.0
 20
0.0
 30
0.0
 70
   128
 71
    -1
 72
     3
 73
     2
  0
SEQEND
  5
21D2
  8
RÁM
  0
POLYLINE
  5
1E7F
  8
RÁM
 66
     1
 10
0.0
 20
0.0
 30
0.0
 70
    64
 71
     4
 72
     2
  0
VERTEX
  5
1E80
  8
RÁM
 10
-41.00000000000006
 20
190.5
 30
2.999999999999974
 70
   192
  0
VERTEX
  5
1E81
  8
RÁM
 10
-41.00000000000006
 20
246.5
 30
2.999999999999961
 70
   192
  0
VERTEX
  5
1E82
  8
RÁM
 10
-41.00000000000006
 20
246.5
 30
7.999999999999962
 70
   192
  0
VERTEX
  5
1E83
  8
RÁM
 10
-41.00000000000006
 20
190.5
 30
7.999999999999974
 70
   192
  0
VERTEX
  5
1E84
  8
RÁM
 10
0.0
 20
0.0
 30
0.0
 70
   128
 71
     1
 72
     4
 73
    -3
  0
VERTEX
  5
1E85
  8
RÁM
 10
0.0
 20
0.0
 30
0.0
 70
   128
 71
    -1
 72
     3
 73
     2
  0
SEQEND
  5
21D3
  8
RÁM
  0
POLYLINE
  5
1E86
  8
RÁM
 66
     1
 10
0.0
 20
0.0
 30
0.0
 70
    64
 71
    17
 72
    15
  0
VERTEX
  5
1E87
  8
RÁM
 10
-41.00000000000006
 20
246.5
 30
7.999999999999962
 70
   192
  0
VERTEX
  5
1E88
  8
RÁM
 10
-5.5
 20
246.5
 30
7.999999999999962
 70
   192
  0
VERTEX
  5
1E89
  8
RÁM
 10
-5.5
 20
246.5
 30
10.49999999999996
 70
   192
  0
VERTEX
  5
1E8A
  8
RÁM
 10
-4.763139720814413
 20
246.5
 30
13.24999999999996
 70
   192
  0
VERTEX
  5
1E8B
  8
RÁM
 10
-2.750000000000002
 20
246.5
 30
15.26313972081437
 70
   192
  0
VERTEX
  5
1E8C
  8
RÁM
 10
-0.0000000000000007
 20
246.5
 30
15.99999999999996
 70
   192
  0
VERTEX
  5
1E8D
  8
RÁM
 10
2.749999999999999
 20
246.5
 30
15.26313972081437
 70
   192
  0
VERTEX
  5
1E8E
  8
RÁM
 10
4.763139720814412
 20
246.5
 30
13.24999999999996
 70
   192
  0
VERTEX
  5
1E8F
  8
RÁM
 10
5.5
 20
246.5
 30
10.49999999999996
 70
   192
  0
VERTEX
  5
1E90
  8
RÁM
 10
5.499999999999999
 20
246.5
 30
7.999999999999962
 70
   192
  0
VERTEX
  5
1E91
  8
RÁM
 10
40.99999999999994
 20
246.5
 30
7.999999999999962
 70
   192
  0
VERTEX
  5
1E92
  8
RÁM
 10
40.99999999999994
 20
246.5
 30
2.999999999999961
 70
   192
  0
VERTEX
  5
1E93
  8
RÁM
 10
15.99999999999994
 20
246.5
 30
2.999999999999961
 70
   192
  0
VERTEX
  5
1E94
  8
RÁM
 10
15.99999999999994
 20
246.5
 30
4.999999999999962
 70
   192
  0
VERTEX
  5
1E95
  8
RÁM
 10
-15.99999999999994
 20
246.5
 30
4.999999999999962
 70
   192
  0
VERTEX
  5
1E96
  8
RÁM
 10
-15.99999999999994
 20
246.5
 30
2.999999999999961
 70
   192
  0
VERTEX
  5
1E97
  8
RÁM
 10
-41.00000000000006
 20
246.5
 30
2.999999999999961
 70
   192
  0
VERTEX
  5
1E98
  8
RÁM
 10
0.0
 20
0.0
 30
0.0
 70
   128
 71
    12
 72
    13
 73
   -14
  0
VERTEX
  5
1E99
  8
RÁM
 10
0.0
 20
0.0
 30
0.0
 70
   128
 71
     8
 72
     9
 73
   -10
  0
VERTEX
  5
1E9A
  8
RÁM
 10
0.0
 20
0.0
 30
0.0
 70
   128
 71
     7
 72
    -8
 73
   -10
  0
VERTEX
  5
1E9B
  8
RÁM
 10
0.0
 20
0.0
 30
0.0
 70
   128
 71
     6
 72
    -7
 73
   -10
  0
VERTEX
  5
1E9C
  8
RÁM
 10
0.0
 20
0.0
 30
0.0
 70
   128
 71
     5
 72
    -6
 73
   -10
  0
VERTEX
  5
1E9D
  8
RÁM
 10
0.0
 20
0.0
 30
0.0
 70
   128
 71
     4
 72
    -5
 73
   -10
  0
VERTEX
  5
1E9E
  8
RÁM
 10
0.0
 20
0.0
 30
0.0
 70
   128
 71
     3
 72
    -4
 73
   -10
  0
VERTEX
  5
1E9F
  8
RÁM
 10
0.0
 20
0.0
 30
0.0
 70
   128
 71
     2
 72
    -3
 73
   -10
  0
VERTEX
  5
1EA0
  8
RÁM
 10
0.0
 20
0.0
 30
0.0
 70
   128
 71
    11
 72
   -12
 73
   -14
  0
VERTEX
  5
1EA1
  8
RÁM
 10
0.0
 20
0.0
 30
0.0
 70
   128
 71
    10
 72
   -11
 73
   -14
  0
VERTEX
  5
1EA2
  8
RÁM
 10
0.0
 20
0.0
 30
0.0
 70
   128
 71
   -15
 72
    -2
 73
   -10
  0
VERTEX
  5
1EA3
  8
RÁM
 10
0.0
 20
0.0
 30
0.0
 70
   128
 71
    14
 72
   -15
 73
   -10
  0
VERTEX
  5
1EA4
  8
RÁM
 10
0.0
 20
0.0
 30
0.0
 70
   128
 71
    17
 72
     1
 73
    -2
  0
VERTEX
  5
1EA5
  8
RÁM
 10
0.0
 20
0.0
 30
0.0
 70
   128
 71
   -15
 72
   -17
 73
    -2
  0
VERTEX
  5
1EA6
  8
RÁM
 10
0.0
 20
0.0
 30
0.0
 70
   128
 71
    15
 72
    16
 73
   -17
  0
SEQEND
  5
21D4
  8
RÁM
  0
POLYLINE
  5
1EA7
  8
RÁM
 66
     1
 10
0.0
 20
0.0
 30
0.0
 70
    64
 71
    17
 72
    15
  0
VERTEX
  5
1EA8
  8
RÁM
 10
-5.499999999999999
 20
190.5
 30
7.999999999999974
 70
   192
  0
VERTEX
  5
1EA9
  8
RÁM
 10
-5.5
 20
190.5
 30
10.49999999999997
 70
   192
  0
VERTEX
  5
1EAA
  8
RÁM
 10
-4.763139720814413
 20
190.5
 30
13.24999999999997
 70
   192
  0
VERTEX
  5
1EAB
  8
RÁM
 10
-2.750000000000002
 20
190.5
 30
15.26313972081438
 70
   192
  0
VERTEX
  5
1EAC
  8
RÁM
 10
-0.0000000000000007
 20
190.5
 30
15.99999999999997
 70
   192
  0
VERTEX
  5
1EAD
  8
RÁM
 10
2.749999999999999
 20
190.5
 30
15.26313972081439
 70
   192
  0
VERTEX
  5
1EAE
  8
RÁM
 10
4.763139720814412
 20
190.5
 30
13.24999999999998
 70
   192
  0
VERTEX
  5
1EAF
  8
RÁM
 10
5.5
 20
190.5
 30
10.49999999999997
 70
   192
  0
VERTEX
  5
1EB0
  8
RÁM
 10
5.5
 20
190.5
 30
7.999999999999974
 70
   192
  0
VERTEX
  5
1EB1
  8
RÁM
 10
40.99999999999994
 20
190.5
 30
7.999999999999974
 70
   192
  0
VERTEX
  5
1EB2
  8
RÁM
 10
40.99999999999994
 20
190.5
 30
2.999999999999974
 70
   192
  0
VERTEX
  5
1EB3
  8
RÁM
 10
15.99999999999994
 20
190.5
 30
2.999999999999974
 70
   192
  0
VERTEX
  5
1EB4
  8
RÁM
 10
15.99999999999994
 20
190.5
 30
4.999999999999974
 70
   192
  0
VERTEX
  5
1EB5
  8
RÁM
 10
-15.99999999999994
 20
190.5
 30
4.999999999999974
 70
   192
  0
VERTEX
  5
1EB6
  8
RÁM
 10
-15.99999999999994
 20
190.5
 30
2.999999999999974
 70
   192
  0
VERTEX
  5
1EB7
  8
RÁM
 10
-41.00000000000006
 20
190.5
 30
2.999999999999975
 70
   192
  0
VERTEX
  5
1EB8
  8
RÁM
 10
-41.00000000000006
 20
190.5
 30
7.999999999999974
 70
   192
  0
VERTEX
  5
1EB9
  8
RÁM
 10
0.0
 20
0.0
 30
0.0
 70
   128
 71
    13
 72
    12
 73
   -11
  0
VERTEX
  5
1EBA
  8
RÁM
 10
0.0
 20
0.0
 30
0.0
 70
   128
 71
   -11
 72
    -1
 73
   -13
  0
VERTEX
  5
1EBB
  8
RÁM
 10
0.0
 20
0.0
 30
0.0
 70
   128
 71
    -1
 72
    14
 73
   -13
  0
VERTEX
  5
1EBC
  8
RÁM
 10
0.0
 20
0.0
 30
0.0
 70
   128
 71
     1
 72
    17
 73
   -16
  0
VERTEX
  5
1EBD
  8
RÁM
 10
0.0
 20
0.0
 30
0.0
 70
   128
 71
    -1
 72
   -16
 73
   -14
  0
VERTEX
  5
1EBE
  8
RÁM
 10
0.0
 20
0.0
 30
0.0
 70
   128
 71
    16
 72
    15
 73
   -14
  0
VERTEX
  5
1EBF
  8
RÁM
 10
0.0
 20
0.0
 30
0.0
 70
   128
 71
     9
 72
     8
 73
    -7
  0
VERTEX
  5
1EC0
  8
RÁM
 10
0.0
 20
0.0
 30
0.0
 70
   128
 71
    -9
 72
     7
 73
    -6
  0
VERTEX
  5
1EC1
  8
RÁM
 10
0.0
 20
0.0
 30
0.0
 70
   128
 71
    -9
 72
     6
 73
    -5
  0
VERTEX
  5
1EC2
  8
RÁM
 10
0.0
 20
0.0
 30
0.0
 70
   128
 71
    -9
 72
     5
 73
    -4
  0
VERTEX
  5
1EC3
  8
RÁM
 10
0.0
 20
0.0
 30
0.0
 70
   128
 71
    -9
 72
     4
 73
    -3
  0
VERTEX
  5
1EC4
  8
RÁM
 10
0.0
 20
0.0
 30
0.0
 70
   128
 71
    -9
 72
     3
 73
    -2
  0
VERTEX
  5
1EC5
  8
RÁM
 10
0.0
 20
0.0
 30
0.0
 70
   128
 71
    -9
 72
     2
 73
    -1
  0
VERTEX
  5
1EC6
  8
RÁM
 10
0.0
 20
0.0
 30
0.0
 70
   128
 71
    -9
 72
    -1
 73
   -11
  0
VERTEX
  5
1EC7
  8
RÁM
 10
0.0
 20
0.0
 30
0.0
 70
   128
 71
    11
 72
    10
 73
    -9
  0
SEQEND
  5
21D5
  8
RÁM
  0
ENDBLK
  5
21C6
  8
0
  0
BLOCK
  8
0
  2
*X10
 70
     1
 10
0.0
 20
0.0
 30
0.0
  3
*X10
  1

  0
POLYLINE
  5
1EC9
  8
RÁM
 66
     1
 10
0.0
 20
0.0
 30
0.0
 70
    64
 71
    10
 72
     8
  0
VERTEX
  5
1ECA
  8
RÁM
 10
28.49999999999995
 20
1815.5
 30
-8.300000000000033
 70
   192
  0
VERTEX
  5
1ECB
  8
RÁM
 10
22.49999999999995
 20
1815.5
 30
-7.500000000000036
 70
   192
  0
VERTEX
  5
1ECC
  8
RÁM
 10
34.49999999999978
 20
1815.5
 30
-7.500000000000031
 70
   192
  0
VERTEX
  5
1ECD
  8
RÁM
 10
28.49999999999986
 20
1821.5
 30
-7.500000000000031
 70
   192
  0
VERTEX
  5
1ECE
  8
RÁM
 10
32.74264068711909
 20
1819.742640687119
 30
-7.500000000000031
 70
   192
  0
VERTEX
  5
1ECF
  8
RÁM
 10
24.25735931288063
 20
1819.742640687119
 30
-7.500000000000031
 70
   192
  0
VERTEX
  5
1ED0
  8
RÁM
 10
30.52362508080062
 20
1815.5
 30
-8.23668543457389
 70
   192
  0
VERTEX
  5
1ED1
  8
RÁM
 10
32.53048027605868
 20
1815.5
 30
-7.969104741872805
 70
   192
  0
VERTEX
  5
1ED2
  8
RÁM
 10
24.46951972394112
 20
1815.5
 30
-7.969104741872822
 70
   192
  0
VERTEX
  5
1ED3
  8
RÁM
 10
26.47637491919922
 20
1815.5
 30
-8.2366854345739
 70
   192
  0
VERTEX
  5
1ED4
  8
RÁM
 10
0.0
 20
0.0
 30
0.0
 70
   128
 71
     1
 72
     5
 73
     8
  0
VERTEX
  5
1ED5
  8
RÁM
 10
0.0
 20
0.0
 30
0.0
 70
   128
 71
     1
 72
     8
 73
     7
  0
VERTEX
  5
1ED6
  8
RÁM
 10
0.0
 20
0.0
 30
0.0
 70
   128
 71
     5
 72
     3
 73
     8
  0
VERTEX
  5
1ED7
  8
RÁM
 10
0.0
 20
0.0
 30
0.0
 70
   128
 71
     1
 72
     4
 73
     5
  0
VERTEX
  5
1ED8
  8
RÁM
 10
0.0
 20
0.0
 30
0.0
 70
   128
 71
     1
 72
     6
 73
     4
  0
VERTEX
  5
1ED9
  8
RÁM
 10
0.0
 20
0.0
 30
0.0
 70
   128
 71
     9
 72
     2
 73
     6
  0
VERTEX
  5
1EDA
  8
RÁM
 10
0.0
 20
0.0
 30
0.0
 70
   128
 71
    10
 72
     9
 73
     6
  0
VERTEX
  5
1EDB
  8
RÁM
 10
0.0
 20
0.0
 30
0.0
 70
   128
 71
    10
 72
     6
 73
     1
  0
SEQEND
  5
21D8
  8
RÁM
  0
POLYLINE
  5
1EDC
  8
RÁM
 66
     1
 10
0.0
 20
0.0
 30
0.0
 70
    64
 71
    10
 72
     8
  0
VERTEX
  5
1EDD
  8
RÁM
 10
28.49999999999995
 20
1783.5
 30
-8.300000000000026
 70
   192
  0
VERTEX
  5
1EDE
  8
RÁM
 10
22.49999999999995
 20
1783.5
 30
-7.500000000000028
 70
   192
  0
VERTEX
  5
1EDF
  8
RÁM
 10
34.49999999999978
 20
1783.5
 30
-7.500000000000024
 70
   192
  0
VERTEX
  5
1EE0
  8
RÁM
 10
28.49999999999986
 20
1789.5
 30
-7.500000000000024
 70
   192
  0
VERTEX
  5
1EE1
  8
RÁM
 10
32.74264068711909
 20
1787.742640687119
 30
-7.500000000000024
 70
   192
  0
VERTEX
  5
1EE2
  8
RÁM
 10
24.25735931288063
 20
1787.742640687119
 30
-7.500000000000024
 70
   192
  0
VERTEX
  5
1EE3
  8
RÁM
 10
30.52362508080062
 20
1783.5
 30
-8.236685434573882
 70
   192
  0
VERTEX
  5
1EE4
  8
RÁM
 10
32.53048027605868
 20
1783.5
 30
-7.969104741872798
 70
   192
  0
VERTEX
  5
1EE5
  8
RÁM
 10
24.46951972394112
 20
1783.5
 30
-7.969104741872815
 70
   192
  0
VERTEX
  5
1EE6
  8
RÁM
 10
26.47637491919922
 20
1783.5
 30
-8.236685434573893
 70
   192
  0
VERTEX
  5
1EE7
  8
RÁM
 10
0.0
 20
0.0
 30
0.0
 70
   128
 71
     1
 72
     5
 73
     8
  0
VERTEX
  5
1EE8
  8
RÁM
 10
0.0
 20
0.0
 30
0.0
 70
   128
 71
     1
 72
     8
 73
     7
  0
VERTEX
  5
1EE9
  8
RÁM
 10
0.0
 20
0.0
 30
0.0
 70
   128
 71
     5
 72
     3
 73
     8
  0
VERTEX
  5
1EEA
  8
RÁM
 10
0.0
 20
0.0
 30
0.0
 70
   128
 71
     1
 72
     4
 73
     5
  0
VERTEX
  5
1EEB
  8
RÁM
 10
0.0
 20
0.0
 30
0.0
 70
   128
 71
     1
 72
     6
 73
     4
  0
VERTEX
  5
1EEC
  8
RÁM
 10
0.0
 20
0.0
 30
0.0
 70
   128
 71
     9
 72
     2
 73
     6
  0
VERTEX
  5
1EED
  8
RÁM
 10
0.0
 20
0.0
 30
0.0
 70
   128
 71
    10
 72
     9
 73
     6
  0
VERTEX
  5
1EEE
  8
RÁM
 10
0.0
 20
0.0
 30
0.0
 70
   128
 71
    10
 72
     6
 73
     1
  0
SEQEND
  5
21D9
  8
RÁM
  0
POLYLINE
  5
1EEF
  8
RÁM
 66
     1
 10
0.0
 20
0.0
 30
0.0
 70
    64
 71
    20
 72
    22
  0
VERTEX
  5
1EF0
  8
RÁM
 10
40.99999999999994
 20
1771.5
 30
-7.500000000000019
 70
   192
  0
VERTEX
  5
1EF1
  8
RÁM
 10
40.99999999999994
 20
1827.5
 30
-7.500000000000031
 70
   192
  0
VERTEX
  5
1EF2
  8
RÁM
 10
15.99999999999994
 20
1827.5
 30
-7.500000000000031
 70
   192
  0
VERTEX
  5
1EF3
  8
RÁM
 10
15.99999999999994
 20
1771.5
 30
-7.500000000000019
 70
   192
  0
VERTEX
  5
1EF4
  8
RÁM
 10
22.49999999999994
 20
1783.5
 30
-7.500000000000024
 70
   192
  0
VERTEX
  5
1EF5
  8
RÁM
 10
24.25735931288063
 20
1787.742640687119
 30
-7.500000000000024
 70
   192
  0
VERTEX
  5
1EF6
  8
RÁM
 10
28.49999999999986
 20
1789.5
 30
-7.500000000000024
 70
   192
  0
VERTEX
  5
1EF7
  8
RÁM
 10
32.74264068711909
 20
1787.742640687119
 30
-7.500000000000024
 70
   192
  0
VERTEX
  5
1EF8
  8
RÁM
 10
34.49999999999978
 20
1783.5
 30
-7.500000000000024
 70
   192
  0
VERTEX
  5
1EF9
  8
RÁM
 10
32.74264068711909
 20
1779.257359312881
 30
-7.500000000000024
 70
   192
  0
VERTEX
  5
1EFA
  8
RÁM
 10
28.49999999999986
 20
1777.5
 30
-7.500000000000024
 70
   192
  0
VERTEX
  5
1EFB
  8
RÁM
 10
24.25735931288063
 20
1779.257359312881
 30
-7.500000000000024
 70
   192
  0
VERTEX
  5
1EFC
  8
RÁM
 10
22.49999999999994
 20
1815.5
 30
-7.500000000000031
 70
   192
  0
VERTEX
  5
1EFD
  8
RÁM
 10
24.25735931288063
 20
1819.742640687119
 30
-7.500000000000031
 70
   192
  0
VERTEX
  5
1EFE
  8
RÁM
 10
28.49999999999986
 20
1821.5
 30
-7.500000000000031
 70
   192
  0
VERTEX
  5
1EFF
  8
RÁM
 10
32.74264068711909
 20
1819.742640687119
 30
-7.500000000000031
 70
   192
  0
VERTEX
  5
1F00
  8
RÁM
 10
34.49999999999978
 20
1815.5
 30
-7.500000000000031
 70
   192
  0
VERTEX
  5
1F01
  8
RÁM
 10
32.74264068711909
 20
1811.257359312881
 30
-7.500000000000031
 70
   192
  0
VERTEX
  5
1F02
  8
RÁM
 10
28.49999999999986
 20
1809.5
 30
-7.500000000000031
 70
   192
  0
VERTEX
  5
1F03
  8
RÁM
 10
24.25735931288063
 20
1811.257359312881
 30
-7.500000000000031
 70
   192
  0
VERTEX
  5
1F04
  8
RÁM
 10
0.0
 20
0.0
 30
0.0
 70
   128
 71
     6
 72
    -5
 73
    -4
  0
VERTEX
  5
1F05
  8
RÁM
 10
0.0
 20
0.0
 30
0.0
 70
   128
 71
    20
 72
   -19
 73
    -7
  0
VERTEX
  5
1F06
  8
RÁM
 10
0.0
 20
0.0
 30
0.0
 70
   128
 71
    -6
 72
     4
 73
    -3
  0
VERTEX
  5
1F07
  8
RÁM
 10
0.0
 20
0.0
 30
0.0
 70
   128
 71
    -6
 72
    -3
 73
   -20
  0
VERTEX
  5
1F08
  8
RÁM
 10
0.0
 20
0.0
 30
0.0
 70
   128
 71
   -20
 72
     7
 73
    -6
  0
VERTEX
  5
1F09
  8
RÁM
 10
0.0
 20
0.0
 30
0.0
 70
   128
 71
    -3
 72
    13
 73
   -20
  0
VERTEX
  5
1F0A
  8
RÁM
 10
0.0
 20
0.0
 30
0.0
 70
   128
 71
   -19
 72
     8
 73
    -7
  0
VERTEX
  5
1F0B
  8
RÁM
 10
0.0
 20
0.0
 30
0.0
 70
   128
 71
    14
 72
   -13
 73
    -3
  0
VERTEX
  5
1F0C
  8
RÁM
 10
0.0
 20
0.0
 30
0.0
 70
   128
 71
    -3
 72
    15
 73
   -14
  0
VERTEX
  5
1F0D
  8
RÁM
 10
0.0
 20
0.0
 30
0.0
 70
   128
 71
   -15
 72
     3
 73
    -2
  0
VERTEX
  5
1F0E
  8
RÁM
 10
0.0
 20
0.0
 30
0.0
 70
   128
 71
    -2
 72
    16
 73
   -15
  0
VERTEX
  5
1F0F
  8
RÁM
 10
0.0
 20
0.0
 30
0.0
 70
   128
 71
    -2
 72
    17
 73
   -16
  0
VERTEX
  5
1F10
  8
RÁM
 10
0.0
 20
0.0
 30
0.0
 70
   128
 71
    -2
 72
    18
 73
   -17
  0
VERTEX
  5
1F11
  8
RÁM
 10
0.0
 20
0.0
 30
0.0
 70
   128
 71
   -18
 72
     2
 73
    -1
  0
VERTEX
  5
1F12
  8
RÁM
 10
0.0
 20
0.0
 30
0.0
 70
   128
 71
   -18
 72
    -1
 73
    -8
  0
VERTEX
  5
1F13
  8
RÁM
 10
0.0
 20
0.0
 30
0.0
 70
   128
 71
    -8
 72
    19
 73
   -18
  0
VERTEX
  5
1F14
  8
RÁM
 10
0.0
 20
0.0
 30
0.0
 70
   128
 71
    -1
 72
     9
 73
    -8
  0
VERTEX
  5
1F15
  8
RÁM
 10
0.0
 20
0.0
 30
0.0
 70
   128
 71
    -1
 72
    10
 73
    -9
  0
VERTEX
  5
1F16
  8
RÁM
 10
0.0
 20
0.0
 30
0.0
 70
   128
 71
    -1
 72
    11
 73
   -10
  0
VERTEX
  5
1F17
  8
RÁM
 10
0.0
 20
0.0
 30
0.0
 70
   128
 71
     1
 72
    -4
 73
   -11
  0
VERTEX
  5
1F18
  8
RÁM
 10
0.0
 20
0.0
 30
0.0
 70
   128
 71
    -4
 72
    12
 73
   -11
  0
VERTEX
  5
1F19
  8
RÁM
 10
0.0
 20
0.0
 30
0.0
 70
   128
 71
    -4
 72
     5
 73
   -12
  0
SEQEND
  5
21DA
  8
RÁM
  0
POLYLINE
  5
1F1A
  8
RÁM
 66
     1
 10
0.0
 20
0.0
 30
0.0
 70
    64
 71
     4
 72
     2
  0
VERTEX
  5
1F1B
  8
RÁM
 10
15.99999999999994
 20
1771.5
 30
-7.500000000000019
 70
   192
  0
VERTEX
  5
1F1C
  8
RÁM
 10
15.99999999999994
 20
1827.5
 30
-7.500000000000031
 70
   192
  0
VERTEX
  5
1F1D
  8
RÁM
 10
15.99999999999994
 20
1827.5
 30
-3.000000000000031
 70
   192
  0
VERTEX
  5
1F1E
  8
RÁM
 10
15.99999999999994
 20
1771.5
 30
-3.000000000000019
 70
   192
  0
VERTEX
  5
1F1F
  8
RÁM
 10
0.0
 20
0.0
 30
0.0
 70
   128
 71
     1
 72
     4
 73
    -3
  0
VERTEX
  5
1F20
  8
RÁM
 10
0.0
 20
0.0
 30
0.0
 70
   128
 71
    -1
 72
     3
 73
     2
  0
SEQEND
  5
21DB
  8
RÁM
  0
POLYLINE
  5
1F21
  8
RÁM
 66
     1
 10
0.0
 20
0.0
 30
0.0
 70
    64
 71
     4
 72
     2
  0
VERTEX
  5
1F22
  8
RÁM
 10
15.99999999999994
 20
1771.5
 30
-3.000000000000019
 70
   192
  0
VERTEX
  5
1F23
  8
RÁM
 10
40.99999999999994
 20
1771.5
 30
-3.000000000000019
 70
   192
  0
VERTEX
  5
1F24
  8
RÁM
 10
40.99999999999994
 20
1827.5
 30
-3.000000000000031
 70
   192
  0
VERTEX
  5
1F25
  8
RÁM
 10
15.99999999999994
 20
1827.5
 30
-3.000000000000031
 70
   192
  0
VERTEX
  5
1F26
  8
RÁM
 10
0.0
 20
0.0
 30
0.0
 70
   128
 71
     3
 72
     4
 73
    -1
  0
VERTEX
  5
1F27
  8
RÁM
 10
0.0
 20
0.0
 30
0.0
 70
   128
 71
     2
 72
    -3
 73
     1
  0
SEQEND
  5
21DC
  8
RÁM
  0
POLYLINE
  5
1F28
  8
RÁM
 66
     1
 10
0.0
 20
0.0
 30
0.0
 70
    64
 71
     4
 72
     2
  0
VERTEX
  5
1F29
  8
RÁM
 10
40.99999999999994
 20
1771.5
 30
-3.000000000000019
 70
   192
  0
VERTEX
  5
1F2A
  8
RÁM
 10
40.99999999999994
 20
1771.5
 30
-7.500000000000019
 70
   192
  0
VERTEX
  5
1F2B
  8
RÁM
 10
40.99999999999994
 20
1827.5
 30
-7.500000000000031
 70
   192
  0
VERTEX
  5
1F2C
  8
RÁM
 10
40.99999999999994
 20
1827.5
 30
-3.000000000000031
 70
   192
  0
VERTEX
  5
1F2D
  8
RÁM
 10
0.0
 20
0.0
 30
0.0
 70
   128
 71
     3
 72
     4
 73
    -1
  0
VERTEX
  5
1F2E
  8
RÁM
 10
0.0
 20
0.0
 30
0.0
 70
   128
 71
     2
 72
    -3
 73
     1
  0
SEQEND
  5
21DD
  8
RÁM
  0
POLYLINE
  5
1F2F
  8
RÁM
 66
     1
 10
0.0
 20
0.0
 30
0.0
 70
    64
 71
     4
 72
     2
  0
VERTEX
  5
1F30
  8
RÁM
 10
40.99999999999994
 20
1827.5
 30
-7.500000000000031
 70
   192
  0
VERTEX
  5
1F31
  8
RÁM
 10
15.99999999999994
 20
1827.5
 30
-7.500000000000031
 70
   192
  0
VERTEX
  5
1F32
  8
RÁM
 10
15.99999999999994
 20
1827.5
 30
-3.000000000000031
 70
   192
  0
VERTEX
  5
1F33
  8
RÁM
 10
40.99999999999994
 20
1827.5
 30
-3.000000000000031
 70
   192
  0
VERTEX
  5
1F34
  8
RÁM
 10
0.0
 20
0.0
 30
0.0
 70
   128
 71
     3
 72
     4
 73
    -1
  0
VERTEX
  5
1F35
  8
RÁM
 10
0.0
 20
0.0
 30
0.0
 70
   128
 71
     2
 72
    -3
 73
     1
  0
SEQEND
  5
21DE
  8
RÁM
  0
POLYLINE
  5
1F36
  8
RÁM
 66
     1
 10
0.0
 20
0.0
 30
0.0
 70
    64
 71
     4
 72
     2
  0
VERTEX
  5
1F37
  8
RÁM
 10
15.99999999999994
 20
1771.5
 30
-7.500000000000019
 70
   192
  0
VERTEX
  5
1F38
  8
RÁM
 10
15.99999999999994
 20
1771.5
 30
-3.000000000000019
 70
   192
  0
VERTEX
  5
1F39
  8
RÁM
 10
40.99999999999994
 20
1771.5
 30
-3.000000000000019
 70
   192
  0
VERTEX
  5
1F3A
  8
RÁM
 10
40.99999999999994
 20
1771.5
 30
-7.500000000000019
 70
   192
  0
VERTEX
  5
1F3B
  8
RÁM
 10
0.0
 20
0.0
 30
0.0
 70
   128
 71
     1
 72
     4
 73
    -3
  0
VERTEX
  5
1F3C
  8
RÁM
 10
0.0
 20
0.0
 30
0.0
 70
   128
 71
    -1
 72
     3
 73
     2
  0
SEQEND
  5
21DF
  8
RÁM
  0
POLYLINE
  5
1F3D
  8
RÁM
 66
     1
 10
0.0
 20
0.0
 30
0.0
 70
    64
 71
    10
 72
     8
  0
VERTEX
  5
1F3E
  8
RÁM
 10
28.49999999999995
 20
1783.5
 30
-8.300000000000026
 70
   192
  0
VERTEX
  5
1F3F
  8
RÁM
 10
34.49999999999979
 20
1783.5
 30
-7.500000000000021
 70
   192
  0
VERTEX
  5
1F40
  8
RÁM
 10
22.49999999999994
 20
1783.5
 30
-7.500000000000024
 70
   192
  0
VERTEX
  5
1F41
  8
RÁM
 10
28.49999999999986
 20
1777.5
 30
-7.500000000000024
 70
   192
  0
VERTEX
  5
1F42
  8
RÁM
 10
24.25735931288063
 20
1779.257359312881
 30
-7.500000000000024
 70
   192
  0
VERTEX
  5
1F43
  8
RÁM
 10
32.74264068711909
 20
1779.257359312881
 30
-7.500000000000024
 70
   192
  0
VERTEX
  5
1F44
  8
RÁM
 10
26.47637491919922
 20
1783.5
 30
-8.236685434573893
 70
   192
  0
VERTEX
  5
1F45
  8
RÁM
 10
24.46951972394112
 20
1783.5
 30
-7.969104741872815
 70
   192
  0
VERTEX
  5
1F46
  8
RÁM
 10
32.53048027605868
 20
1783.5
 30
-7.969104741872798
 70
   192
  0
VERTEX
  5
1F47
  8
RÁM
 10
30.52362508080062
 20
1783.5
 30
-8.236685434573882
 70
   192
  0
VERTEX
  5
1F48
  8
RÁM
 10
0.0
 20
0.0
 30
0.0
 70
   128
 71
     1
 72
     5
 73
     8
  0
VERTEX
  5
1F49
  8
RÁM
 10
0.0
 20
0.0
 30
0.0
 70
   128
 71
     1
 72
     8
 73
     7
  0
VERTEX
  5
1F4A
  8
RÁM
 10
0.0
 20
0.0
 30
0.0
 70
   128
 71
     5
 72
     3
 73
     8
  0
VERTEX
  5
1F4B
  8
RÁM
 10
0.0
 20
0.0
 30
0.0
 70
   128
 71
     1
 72
     4
 73
     5
  0
VERTEX
  5
1F4C
  8
RÁM
 10
0.0
 20
0.0
 30
0.0
 70
   128
 71
     1
 72
     6
 73
     4
  0
VERTEX
  5
1F4D
  8
RÁM
 10
0.0
 20
0.0
 30
0.0
 70
   128
 71
     9
 72
     2
 73
     6
  0
VERTEX
  5
1F4E
  8
RÁM
 10
0.0
 20
0.0
 30
0.0
 70
   128
 71
    10
 72
     9
 73
     6
  0
VERTEX
  5
1F4F
  8
RÁM
 10
0.0
 20
0.0
 30
0.0
 70
   128
 71
    10
 72
     6
 73
     1
  0
SEQEND
  5
21E0
  8
RÁM
  0
POLYLINE
  5
1F50
  8
RÁM
 66
     1
 10
0.0
 20
0.0
 30
0.0
 70
    64
 71
    10
 72
     8
  0
VERTEX
  5
1F51
  8
RÁM
 10
28.49999999999995
 20
1815.5
 30
-8.300000000000033
 70
   192
  0
VERTEX
  5
1F52
  8
RÁM
 10
34.49999999999979
 20
1815.5
 30
-7.500000000000028
 70
   192
  0
VERTEX
  5
1F53
  8
RÁM
 10
22.49999999999994
 20
1815.5
 30
-7.500000000000031
 70
   192
  0
VERTEX
  5
1F54
  8
RÁM
 10
28.49999999999986
 20
1809.5
 30
-7.500000000000031
 70
   192
  0
VERTEX
  5
1F55
  8
RÁM
 10
24.25735931288063
 20
1811.257359312881
 30
-7.500000000000031
 70
   192
  0
VERTEX
  5
1F56
  8
RÁM
 10
32.74264068711909
 20
1811.257359312881
 30
-7.500000000000031
 70
   192
  0
VERTEX
  5
1F57
  8
RÁM
 10
26.47637491919922
 20
1815.5
 30
-8.2366854345739
 70
   192
  0
VERTEX
  5
1F58
  8
RÁM
 10
24.46951972394112
 20
1815.5
 30
-7.969104741872822
 70
   192
  0
VERTEX
  5
1F59
  8
RÁM
 10
32.53048027605868
 20
1815.5
 30
-7.969104741872805
 70
   192
  0
VERTEX
  5
1F5A
  8
RÁM
 10
30.52362508080062
 20
1815.5
 30
-8.23668543457389
 70
   192
  0
VERTEX
  5
1F5B
  8
RÁM
 10
0.0
 20
0.0
 30
0.0
 70
   128
 71
     1
 72
     5
 73
     8
  0
VERTEX
  5
1F5C
  8
RÁM
 10
0.0
 20
0.0
 30
0.0
 70
   128
 71
     1
 72
     8
 73
     7
  0
VERTEX
  5
1F5D
  8
RÁM
 10
0.0
 20
0.0
 30
0.0
 70
   128
 71
     5
 72
     3
 73
     8
  0
VERTEX
  5
1F5E
  8
RÁM
 10
0.0
 20
0.0
 30
0.0
 70
   128
 71
     1
 72
     4
 73
     5
  0
VERTEX
  5
1F5F
  8
RÁM
 10
0.0
 20
0.0
 30
0.0
 70
   128
 71
     1
 72
     6
 73
     4
  0
VERTEX
  5
1F60
  8
RÁM
 10
0.0
 20
0.0
 30
0.0
 70
   128
 71
     9
 72
     2
 73
     6
  0
VERTEX
  5
1F61
  8
RÁM
 10
0.0
 20
0.0
 30
0.0
 70
   128
 71
    10
 72
     9
 73
     6
  0
VERTEX
  5
1F62
  8
RÁM
 10
0.0
 20
0.0
 30
0.0
 70
   128
 71
    10
 72
     6
 73
     1
  0
SEQEND
  5
21E1
  8
RÁM
  0
ENDBLK
  5
21D7
  8
0
  0
BLOCK
  8
0
  2
*X11
 70
     1
 10
0.0
 20
0.0
 30
0.0
  3
*X11
  1

  0
POLYLINE
  5
1F64
  8
RÁM
 66
     1
 10
0.0
 20
0.0
 30
0.0
 70
    64
 71
    10
 72
     8
  0
VERTEX
  5
1F65
  8
RÁM
 10
28.49999999999995
 20
234.5
 30
-8.30000000000004
 70
   192
  0
VERTEX
  5
1F66
  8
RÁM
 10
22.49999999999995
 20
234.5
 30
-7.500000000000043
 70
   192
  0
VERTEX
  5
1F67
  8
RÁM
 10
34.49999999999978
 20
234.5
 30
-7.500000000000038
 70
   192
  0
VERTEX
  5
1F68
  8
RÁM
 10
28.49999999999986
 20
240.4999999999999
 30
-7.500000000000038
 70
   192
  0
VERTEX
  5
1F69
  8
RÁM
 10
32.74264068711909
 20
238.7426406871192
 30
-7.500000000000038
 70
   192
  0
VERTEX
  5
1F6A
  8
RÁM
 10
24.25735931288063
 20
238.7426406871192
 30
-7.500000000000038
 70
   192
  0
VERTEX
  5
1F6B
  8
RÁM
 10
30.52362508080062
 20
234.5
 30
-8.236685434573896
 70
   192
  0
VERTEX
  5
1F6C
  8
RÁM
 10
32.53048027605868
 20
234.5
 30
-7.969104741872812
 70
   192
  0
VERTEX
  5
1F6D
  8
RÁM
 10
24.46951972394112
 20
234.5
 30
-7.96910474187283
 70
   192
  0
VERTEX
  5
1F6E
  8
RÁM
 10
26.47637491919922
 20
234.5
 30
-8.236685434573907
 70
   192
  0
VERTEX
  5
1F6F
  8
RÁM
 10
0.0
 20
0.0
 30
0.0
 70
   128
 71
     1
 72
     5
 73
     8
  0
VERTEX
  5
1F70
  8
RÁM
 10
0.0
 20
0.0
 30
0.0
 70
   128
 71
     1
 72
     8
 73
     7
  0
VERTEX
  5
1F71
  8
RÁM
 10
0.0
 20
0.0
 30
0.0
 70
   128
 71
     5
 72
     3
 73
     8
  0
VERTEX
  5
1F72
  8
RÁM
 10
0.0
 20
0.0
 30
0.0
 70
   128
 71
     1
 72
     4
 73
     5
  0
VERTEX
  5
1F73
  8
RÁM
 10
0.0
 20
0.0
 30
0.0
 70
   128
 71
     1
 72
     6
 73
     4
  0
VERTEX
  5
1F74
  8
RÁM
 10
0.0
 20
0.0
 30
0.0
 70
   128
 71
     9
 72
     2
 73
     6
  0
VERTEX
  5
1F75
  8
RÁM
 10
0.0
 20
0.0
 30
0.0
 70
   128
 71
    10
 72
     9
 73
     6
  0
VERTEX
  5
1F76
  8
RÁM
 10
0.0
 20
0.0
 30
0.0
 70
   128
 71
    10
 72
     6
 73
     1
  0
SEQEND
  5
21E4
  8
RÁM
  0
POLYLINE
  5
1F77
  8
RÁM
 66
     1
 10
0.0
 20
0.0
 30
0.0
 70
    64
 71
    10
 72
     8
  0
VERTEX
  5
1F78
  8
RÁM
 10
28.49999999999995
 20
202.5
 30
-8.300000000000033
 70
   192
  0
VERTEX
  5
1F79
  8
RÁM
 10
22.49999999999995
 20
202.5
 30
-7.500000000000036
 70
   192
  0
VERTEX
  5
1F7A
  8
RÁM
 10
34.49999999999978
 20
202.5
 30
-7.500000000000031
 70
   192
  0
VERTEX
  5
1F7B
  8
RÁM
 10
28.49999999999986
 20
208.4999999999999
 30
-7.500000000000031
 70
   192
  0
VERTEX
  5
1F7C
  8
RÁM
 10
32.74264068711909
 20
206.7426406871192
 30
-7.500000000000031
 70
   192
  0
VERTEX
  5
1F7D
  8
RÁM
 10
24.25735931288063
 20
206.7426406871192
 30
-7.500000000000031
 70
   192
  0
VERTEX
  5
1F7E
  8
RÁM
 10
30.52362508080062
 20
202.5
 30
-8.23668543457389
 70
   192
  0
VERTEX
  5
1F7F
  8
RÁM
 10
32.53048027605868
 20
202.5
 30
-7.969104741872805
 70
   192
  0
VERTEX
  5
1F80
  8
RÁM
 10
24.46951972394112
 20
202.5
 30
-7.969104741872822
 70
   192
  0
VERTEX
  5
1F81
  8
RÁM
 10
26.47637491919922
 20
202.5
 30
-8.2366854345739
 70
   192
  0
VERTEX
  5
1F82
  8
RÁM
 10
0.0
 20
0.0
 30
0.0
 70
   128
 71
     1
 72
     5
 73
     8
  0
VERTEX
  5
1F83
  8
RÁM
 10
0.0
 20
0.0
 30
0.0
 70
   128
 71
     1
 72
     8
 73
     7
  0
VERTEX
  5
1F84
  8
RÁM
 10
0.0
 20
0.0
 30
0.0
 70
   128
 71
     5
 72
     3
 73
     8
  0
VERTEX
  5
1F85
  8
RÁM
 10
0.0
 20
0.0
 30
0.0
 70
   128
 71
     1
 72
     4
 73
     5
  0
VERTEX
  5
1F86
  8
RÁM
 10
0.0
 20
0.0
 30
0.0
 70
   128
 71
     1
 72
     6
 73
     4
  0
VERTEX
  5
1F87
  8
RÁM
 10
0.0
 20
0.0
 30
0.0
 70
   128
 71
     9
 72
     2
 73
     6
  0
VERTEX
  5
1F88
  8
RÁM
 10
0.0
 20
0.0
 30
0.0
 70
   128
 71
    10
 72
     9
 73
     6
  0
VERTEX
  5
1F89
  8
RÁM
 10
0.0
 20
0.0
 30
0.0
 70
   128
 71
    10
 72
     6
 73
     1
  0
SEQEND
  5
21E5
  8
RÁM
  0
POLYLINE
  5
1F8A
  8
RÁM
 66
     1
 10
0.0
 20
0.0
 30
0.0
 70
    64
 71
    20
 72
    22
  0
VERTEX
  5
1F8B
  8
RÁM
 10
40.99999999999994
 20
190.5
 30
-7.500000000000026
 70
   192
  0
VERTEX
  5
1F8C
  8
RÁM
 10
40.99999999999994
 20
246.5
 30
-7.500000000000038
 70
   192
  0
VERTEX
  5
1F8D
  8
RÁM
 10
15.99999999999994
 20
246.5
 30
-7.500000000000038
 70
   192
  0
VERTEX
  5
1F8E
  8
RÁM
 10
15.99999999999994
 20
190.5
 30
-7.500000000000026
 70
   192
  0
VERTEX
  5
1F8F
  8
RÁM
 10
22.49999999999994
 20
202.5
 30
-7.500000000000031
 70
   192
  0
VERTEX
  5
1F90
  8
RÁM
 10
24.25735931288063
 20
206.7426406871192
 30
-7.500000000000031
 70
   192
  0
VERTEX
  5
1F91
  8
RÁM
 10
28.49999999999986
 20
208.4999999999999
 30
-7.500000000000031
 70
   192
  0
VERTEX
  5
1F92
  8
RÁM
 10
32.74264068711909
 20
206.7426406871192
 30
-7.500000000000031
 70
   192
  0
VERTEX
  5
1F93
  8
RÁM
 10
34.49999999999978
 20
202.5
 30
-7.500000000000031
 70
   192
  0
VERTEX
  5
1F94
  8
RÁM
 10
32.74264068711909
 20
198.2573593128808
 30
-7.500000000000031
 70
   192
  0
VERTEX
  5
1F95
  8
RÁM
 10
28.49999999999986
 20
196.5000000000001
 30
-7.500000000000031
 70
   192
  0
VERTEX
  5
1F96
  8
RÁM
 10
24.25735931288063
 20
198.2573593128808
 30
-7.500000000000031
 70
   192
  0
VERTEX
  5
1F97
  8
RÁM
 10
22.49999999999994
 20
234.5
 30
-7.500000000000038
 70
   192
  0
VERTEX
  5
1F98
  8
RÁM
 10
24.25735931288063
 20
238.7426406871192
 30
-7.500000000000038
 70
   192
  0
VERTEX
  5
1F99
  8
RÁM
 10
28.49999999999986
 20
240.4999999999999
 30
-7.500000000000038
 70
   192
  0
VERTEX
  5
1F9A
  8
RÁM
 10
32.74264068711909
 20
238.7426406871192
 30
-7.500000000000038
 70
   192
  0
VERTEX
  5
1F9B
  8
RÁM
 10
34.49999999999978
 20
234.5
 30
-7.500000000000038
 70
   192
  0
VERTEX
  5
1F9C
  8
RÁM
 10
32.74264068711909
 20
230.2573593128808
 30
-7.500000000000038
 70
   192
  0
VERTEX
  5
1F9D
  8
RÁM
 10
28.49999999999986
 20
228.5000000000001
 30
-7.500000000000038
 70
   192
  0
VERTEX
  5
1F9E
  8
RÁM
 10
24.25735931288063
 20
230.2573593128808
 30
-7.500000000000038
 70
   192
  0
VERTEX
  5
1F9F
  8
RÁM
 10
0.0
 20
0.0
 30
0.0
 70
   128
 71
     6
 72
    -5
 73
    -4
  0
VERTEX
  5
1FA0
  8
RÁM
 10
0.0
 20
0.0
 30
0.0
 70
   128
 71
    20
 72
   -19
 73
    -7
  0
VERTEX
  5
1FA1
  8
RÁM
 10
0.0
 20
0.0
 30
0.0
 70
   128
 71
    -6
 72
     4
 73
    -3
  0
VERTEX
  5
1FA2
  8
RÁM
 10
0.0
 20
0.0
 30
0.0
 70
   128
 71
    -6
 72
    -3
 73
   -20
  0
VERTEX
  5
1FA3
  8
RÁM
 10
0.0
 20
0.0
 30
0.0
 70
   128
 71
   -20
 72
     7
 73
    -6
  0
VERTEX
  5
1FA4
  8
RÁM
 10
0.0
 20
0.0
 30
0.0
 70
   128
 71
    -3
 72
    13
 73
   -20
  0
VERTEX
  5
1FA5
  8
RÁM
 10
0.0
 20
0.0
 30
0.0
 70
   128
 71
   -19
 72
     8
 73
    -7
  0
VERTEX
  5
1FA6
  8
RÁM
 10
0.0
 20
0.0
 30
0.0
 70
   128
 71
    14
 72
   -13
 73
    -3
  0
VERTEX
  5
1FA7
  8
RÁM
 10
0.0
 20
0.0
 30
0.0
 70
   128
 71
    -3
 72
    15
 73
   -14
  0
VERTEX
  5
1FA8
  8
RÁM
 10
0.0
 20
0.0
 30
0.0
 70
   128
 71
   -15
 72
     3
 73
    -2
  0
VERTEX
  5
1FA9
  8
RÁM
 10
0.0
 20
0.0
 30
0.0
 70
   128
 71
    -2
 72
    16
 73
   -15
  0
VERTEX
  5
1FAA
  8
RÁM
 10
0.0
 20
0.0
 30
0.0
 70
   128
 71
    -2
 72
    17
 73
   -16
  0
VERTEX
  5
1FAB
  8
RÁM
 10
0.0
 20
0.0
 30
0.0
 70
   128
 71
    -2
 72
    18
 73
   -17
  0
VERTEX
  5
1FAC
  8
RÁM
 10
0.0
 20
0.0
 30
0.0
 70
   128
 71
   -18
 72
     2
 73
    -1
  0
VERTEX
  5
1FAD
  8
RÁM
 10
0.0
 20
0.0
 30
0.0
 70
   128
 71
   -18
 72
    -1
 73
    -8
  0
VERTEX
  5
1FAE
  8
RÁM
 10
0.0
 20
0.0
 30
0.0
 70
   128
 71
    -8
 72
    19
 73
   -18
  0
VERTEX
  5
1FAF
  8
RÁM
 10
0.0
 20
0.0
 30
0.0
 70
   128
 71
    -1
 72
     9
 73
    -8
  0
VERTEX
  5
1FB0
  8
RÁM
 10
0.0
 20
0.0
 30
0.0
 70
   128
 71
    -1
 72
    10
 73
    -9
  0
VERTEX
  5
1FB1
  8
RÁM
 10
0.0
 20
0.0
 30
0.0
 70
   128
 71
    -1
 72
    11
 73
   -10
  0
VERTEX
  5
1FB2
  8
RÁM
 10
0.0
 20
0.0
 30
0.0
 70
   128
 71
     1
 72
    -4
 73
   -11
  0
VERTEX
  5
1FB3
  8
RÁM
 10
0.0
 20
0.0
 30
0.0
 70
   128
 71
    -4
 72
    12
 73
   -11
  0
VERTEX
  5
1FB4
  8
RÁM
 10
0.0
 20
0.0
 30
0.0
 70
   128
 71
    -4
 72
     5
 73
   -12
  0
SEQEND
  5
21E6
  8
RÁM
  0
POLYLINE
  5
1FB5
  8
RÁM
 66
     1
 10
0.0
 20
0.0
 30
0.0
 70
    64
 71
     4
 72
     2
  0
VERTEX
  5
1FB6
  8
RÁM
 10
15.99999999999994
 20
190.5
 30
-7.500000000000026
 70
   192
  0
VERTEX
  5
1FB7
  8
RÁM
 10
15.99999999999994
 20
246.5
 30
-7.500000000000038
 70
   192
  0
VERTEX
  5
1FB8
  8
RÁM
 10
15.99999999999994
 20
246.5
 30
-3.000000000000038
 70
   192
  0
VERTEX
  5
1FB9
  8
RÁM
 10
15.99999999999994
 20
190.5
 30
-3.000000000000026
 70
   192
  0
VERTEX
  5
1FBA
  8
RÁM
 10
0.0
 20
0.0
 30
0.0
 70
   128
 71
     1
 72
     4
 73
    -3
  0
VERTEX
  5
1FBB
  8
RÁM
 10
0.0
 20
0.0
 30
0.0
 70
   128
 71
    -1
 72
     3
 73
     2
  0
SEQEND
  5
21E7
  8
RÁM
  0
POLYLINE
  5
1FBC
  8
RÁM
 66
     1
 10
0.0
 20
0.0
 30
0.0
 70
    64
 71
     4
 72
     2
  0
VERTEX
  5
1FBD
  8
RÁM
 10
15.99999999999994
 20
190.5
 30
-3.000000000000026
 70
   192
  0
VERTEX
  5
1FBE
  8
RÁM
 10
40.99999999999994
 20
190.5
 30
-3.000000000000026
 70
   192
  0
VERTEX
  5
1FBF
  8
RÁM
 10
40.99999999999994
 20
246.5
 30
-3.000000000000038
 70
   192
  0
VERTEX
  5
1FC0
  8
RÁM
 10
15.99999999999994
 20
246.5
 30
-3.000000000000038
 70
   192
  0
VERTEX
  5
1FC1
  8
RÁM
 10
0.0
 20
0.0
 30
0.0
 70
   128
 71
     3
 72
     4
 73
    -1
  0
VERTEX
  5
1FC2
  8
RÁM
 10
0.0
 20
0.0
 30
0.0
 70
   128
 71
     2
 72
    -3
 73
     1
  0
SEQEND
  5
21E8
  8
RÁM
  0
POLYLINE
  5
1FC3
  8
RÁM
 66
     1
 10
0.0
 20
0.0
 30
0.0
 70
    64
 71
     4
 72
     2
  0
VERTEX
  5
1FC4
  8
RÁM
 10
40.99999999999994
 20
190.5
 30
-3.000000000000026
 70
   192
  0
VERTEX
  5
1FC5
  8
RÁM
 10
40.99999999999994
 20
190.5
 30
-7.500000000000026
 70
   192
  0
VERTEX
  5
1FC6
  8
RÁM
 10
40.99999999999994
 20
246.5
 30
-7.500000000000038
 70
   192
  0
VERTEX
  5
1FC7
  8
RÁM
 10
40.99999999999994
 20
246.5
 30
-3.000000000000038
 70
   192
  0
VERTEX
  5
1FC8
  8
RÁM
 10
0.0
 20
0.0
 30
0.0
 70
   128
 71
     3
 72
     4
 73
    -1
  0
VERTEX
  5
1FC9
  8
RÁM
 10
0.0
 20
0.0
 30
0.0
 70
   128
 71
     2
 72
    -3
 73
     1
  0
SEQEND
  5
21E9
  8
RÁM
  0
POLYLINE
  5
1FCA
  8
RÁM
 66
     1
 10
0.0
 20
0.0
 30
0.0
 70
    64
 71
     4
 72
     2
  0
VERTEX
  5
1FCB
  8
RÁM
 10
40.99999999999994
 20
246.5
 30
-7.500000000000038
 70
   192
  0
VERTEX
  5
1FCC
  8
RÁM
 10
15.99999999999994
 20
246.5
 30
-7.500000000000038
 70
   192
  0
VERTEX
  5
1FCD
  8
RÁM
 10
15.99999999999994
 20
246.5
 30
-3.000000000000038
 70
   192
  0
VERTEX
  5
1FCE
  8
RÁM
 10
40.99999999999994
 20
246.5
 30
-3.000000000000038
 70
   192
  0
VERTEX
  5
1FCF
  8
RÁM
 10
0.0
 20
0.0
 30
0.0
 70
   128
 71
     3
 72
     4
 73
    -1
  0
VERTEX
  5
1FD0
  8
RÁM
 10
0.0
 20
0.0
 30
0.0
 70
   128
 71
     2
 72
    -3
 73
     1
  0
SEQEND
  5
21EA
  8
RÁM
  0
POLYLINE
  5
1FD1
  8
RÁM
 66
     1
 10
0.0
 20
0.0
 30
0.0
 70
    64
 71
     4
 72
     2
  0
VERTEX
  5
1FD2
  8
RÁM
 10
15.99999999999994
 20
190.5
 30
-7.500000000000026
 70
   192
  0
VERTEX
  5
1FD3
  8
RÁM
 10
15.99999999999994
 20
190.5
 30
-3.000000000000026
 70
   192
  0
VERTEX
  5
1FD4
  8
RÁM
 10
40.99999999999994
 20
190.5
 30
-3.000000000000026
 70
   192
  0
VERTEX
  5
1FD5
  8
RÁM
 10
40.99999999999994
 20
190.5
 30
-7.500000000000026
 70
   192
  0
VERTEX
  5
1FD6
  8
RÁM
 10
0.0
 20
0.0
 30
0.0
 70
   128
 71
     1
 72
     4
 73
    -3
  0
VERTEX
  5
1FD7
  8
RÁM
 10
0.0
 20
0.0
 30
0.0
 70
   128
 71
    -1
 72
     3
 73
     2
  0
SEQEND
  5
21EB
  8
RÁM
  0
POLYLINE
  5
1FD8
  8
RÁM
 66
     1
 10
0.0
 20
0.0
 30
0.0
 70
    64
 71
    10
 72
     8
  0
VERTEX
  5
1FD9
  8
RÁM
 10
28.49999999999995
 20
202.5
 30
-8.300000000000033
 70
   192
  0
VERTEX
  5
1FDA
  8
RÁM
 10
34.49999999999979
 20
202.5
 30
-7.500000000000028
 70
   192
  0
VERTEX
  5
1FDB
  8
RÁM
 10
22.49999999999994
 20
202.5
 30
-7.500000000000031
 70
   192
  0
VERTEX
  5
1FDC
  8
RÁM
 10
28.49999999999986
 20
196.5000000000001
 30
-7.500000000000031
 70
   192
  0
VERTEX
  5
1FDD
  8
RÁM
 10
24.25735931288063
 20
198.2573593128808
 30
-7.500000000000031
 70
   192
  0
VERTEX
  5
1FDE
  8
RÁM
 10
32.74264068711909
 20
198.2573593128808
 30
-7.500000000000031
 70
   192
  0
VERTEX
  5
1FDF
  8
RÁM
 10
26.47637491919922
 20
202.5
 30
-8.2366854345739
 70
   192
  0
VERTEX
  5
1FE0
  8
RÁM
 10
24.46951972394112
 20
202.5
 30
-7.969104741872822
 70
   192
  0
VERTEX
  5
1FE1
  8
RÁM
 10
32.53048027605868
 20
202.5
 30
-7.969104741872805
 70
   192
  0
VERTEX
  5
1FE2
  8
RÁM
 10
30.52362508080062
 20
202.5
 30
-8.23668543457389
 70
   192
  0
VERTEX
  5
1FE3
  8
RÁM
 10
0.0
 20
0.0
 30
0.0
 70
   128
 71
     1
 72
     5
 73
     8
  0
VERTEX
  5
1FE4
  8
RÁM
 10
0.0
 20
0.0
 30
0.0
 70
   128
 71
     1
 72
     8
 73
     7
  0
VERTEX
  5
1FE5
  8
RÁM
 10
0.0
 20
0.0
 30
0.0
 70
   128
 71
     5
 72
     3
 73
     8
  0
VERTEX
  5
1FE6
  8
RÁM
 10
0.0
 20
0.0
 30
0.0
 70
   128
 71
     1
 72
     4
 73
     5
  0
VERTEX
  5
1FE7
  8
RÁM
 10
0.0
 20
0.0
 30
0.0
 70
   128
 71
     1
 72
     6
 73
     4
  0
VERTEX
  5
1FE8
  8
RÁM
 10
0.0
 20
0.0
 30
0.0
 70
   128
 71
     9
 72
     2
 73
     6
  0
VERTEX
  5
1FE9
  8
RÁM
 10
0.0
 20
0.0
 30
0.0
 70
   128
 71
    10
 72
     9
 73
     6
  0
VERTEX
  5
1FEA
  8
RÁM
 10
0.0
 20
0.0
 30
0.0
 70
   128
 71
    10
 72
     6
 73
     1
  0
SEQEND
  5
21EC
  8
RÁM
  0
POLYLINE
  5
1FEB
  8
RÁM
 66
     1
 10
0.0
 20
0.0
 30
0.0
 70
    64
 71
    10
 72
     8
  0
VERTEX
  5
1FEC
  8
RÁM
 10
28.49999999999995
 20
234.5
 30
-8.30000000000004
 70
   192
  0
VERTEX
  5
1FED
  8
RÁM
 10
34.49999999999979
 20
234.5
 30
-7.500000000000036
 70
   192
  0
VERTEX
  5
1FEE
  8
RÁM
 10
22.49999999999994
 20
234.5
 30
-7.500000000000038
 70
   192
  0
VERTEX
  5
1FEF
  8
RÁM
 10
28.49999999999986
 20
228.5000000000001
 30
-7.500000000000038
 70
   192
  0
VERTEX
  5
1FF0
  8
RÁM
 10
24.25735931288063
 20
230.2573593128808
 30
-7.500000000000038
 70
   192
  0
VERTEX
  5
1FF1
  8
RÁM
 10
32.74264068711909
 20
230.2573593128808
 30
-7.500000000000038
 70
   192
  0
VERTEX
  5
1FF2
  8
RÁM
 10
26.47637491919922
 20
234.5
 30
-8.236685434573907
 70
   192
  0
VERTEX
  5
1FF3
  8
RÁM
 10
24.46951972394112
 20
234.5
 30
-7.96910474187283
 70
   192
  0
VERTEX
  5
1FF4
  8
RÁM
 10
32.53048027605868
 20
234.5
 30
-7.969104741872812
 70
   192
  0
VERTEX
  5
1FF5
  8
RÁM
 10
30.52362508080062
 20
234.5
 30
-8.236685434573896
 70
   192
  0
VERTEX
  5
1FF6
  8
RÁM
 10
0.0
 20
0.0
 30
0.0
 70
   128
 71
     1
 72
     5
 73
     8
  0
VERTEX
  5
1FF7
  8
RÁM
 10
0.0
 20
0.0
 30
0.0
 70
   128
 71
     1
 72
     8
 73
     7
  0
VERTEX
  5
1FF8
  8
RÁM
 10
0.0
 20
0.0
 30
0.0
 70
   128
 71
     5
 72
     3
 73
     8
  0
VERTEX
  5
1FF9
  8
RÁM
 10
0.0
 20
0.0
 30
0.0
 70
   128
 71
     1
 72
     4
 73
     5
  0
VERTEX
  5
1FFA
  8
RÁM
 10
0.0
 20
0.0
 30
0.0
 70
   128
 71
     1
 72
     6
 73
     4
  0
VERTEX
  5
1FFB
  8
RÁM
 10
0.0
 20
0.0
 30
0.0
 70
   128
 71
     9
 72
     2
 73
     6
  0
VERTEX
  5
1FFC
  8
RÁM
 10
0.0
 20
0.0
 30
0.0
 70
   128
 71
    10
 72
     9
 73
     6
  0
VERTEX
  5
1FFD
  8
RÁM
 10
0.0
 20
0.0
 30
0.0
 70
   128
 71
    10
 72
     6
 73
     1
  0
SEQEND
  5
21ED
  8
RÁM
  0
ENDBLK
  5
21E3
  8
0
  0
BLOCK
  8
0
  2
*X12
 70
     1
 10
0.0
 20
0.0
 30
0.0
  3
*X12
  1

  0
POLYLINE
  5
1FFF
  8
RÁM
 66
     1
 10
0.0
 20
0.0
 30
0.0
 70
    64
 71
    10
 72
     8
  0
VERTEX
  5
2000
  8
RÁM
 10
-28.50000000000005
 20
1815.5
 30
-8.30000000000003
 70
   192
  0
VERTEX
  5
2001
  8
RÁM
 10
-34.50000000000006
 20
1815.5
 30
-7.500000000000028
 70
   192
  0
VERTEX
  5
2002
  8
RÁM
 10
-22.50000000000022
 20
1815.5
 30
-7.500000000000031
 70
   192
  0
VERTEX
  5
2003
  8
RÁM
 10
-28.50000000000014
 20
1821.5
 30
-7.500000000000031
 70
   192
  0
VERTEX
  5
2004
  8
RÁM
 10
-24.25735931288092
 20
1819.742640687119
 30
-7.500000000000031
 70
   192
  0
VERTEX
  5
2005
  8
RÁM
 10
-32.74264068711936
 20
1819.742640687119
 30
-7.500000000000031
 70
   192
  0
VERTEX
  5
2006
  8
RÁM
 10
-26.47637491919939
 20
1815.5
 30
-8.23668543457389
 70
   192
  0
VERTEX
  5
2007
  8
RÁM
 10
-24.46951972394133
 20
1815.5
 30
-7.969104741872805
 70
   192
  0
VERTEX
  5
2008
  8
RÁM
 10
-32.53048027605888
 20
1815.5
 30
-7.969104741872815
 70
   192
  0
VERTEX
  5
2009
  8
RÁM
 10
-30.52362508080078
 20
1815.5
 30
-8.236685434573896
 70
   192
  0
VERTEX
  5
200A
  8
RÁM
 10
0.0
 20
0.0
 30
0.0
 70
   128
 71
     1
 72
     5
 73
     8
  0
VERTEX
  5
200B
  8
RÁM
 10
0.0
 20
0.0
 30
0.0
 70
   128
 71
     1
 72
     8
 73
     7
  0
VERTEX
  5
200C
  8
RÁM
 10
0.0
 20
0.0
 30
0.0
 70
   128
 71
     5
 72
     3
 73
     8
  0
VERTEX
  5
200D
  8
RÁM
 10
0.0
 20
0.0
 30
0.0
 70
   128
 71
     1
 72
     4
 73
     5
  0
VERTEX
  5
200E
  8
RÁM
 10
0.0
 20
0.0
 30
0.0
 70
   128
 71
     1
 72
     6
 73
     4
  0
VERTEX
  5
200F
  8
RÁM
 10
0.0
 20
0.0
 30
0.0
 70
   128
 71
     9
 72
     2
 73
     6
  0
VERTEX
  5
2010
  8
RÁM
 10
0.0
 20
0.0
 30
0.0
 70
   128
 71
    10
 72
     9
 73
     6
  0
VERTEX
  5
2011
  8
RÁM
 10
0.0
 20
0.0
 30
0.0
 70
   128
 71
    10
 72
     6
 73
     1
  0
SEQEND
  5
21F0
  8
RÁM
  0
POLYLINE
  5
2012
  8
RÁM
 66
     1
 10
0.0
 20
0.0
 30
0.0
 70
    64
 71
    10
 72
     8
  0
VERTEX
  5
2013
  8
RÁM
 10
-28.50000000000005
 20
1783.5
 30
-8.300000000000022
 70
   192
  0
VERTEX
  5
2014
  8
RÁM
 10
-34.50000000000006
 20
1783.5
 30
-7.500000000000021
 70
   192
  0
VERTEX
  5
2015
  8
RÁM
 10
-22.50000000000022
 20
1783.5
 30
-7.500000000000024
 70
   192
  0
VERTEX
  5
2016
  8
RÁM
 10
-28.50000000000014
 20
1789.5
 30
-7.500000000000024
 70
   192
  0
VERTEX
  5
2017
  8
RÁM
 10
-24.25735931288092
 20
1787.742640687119
 30
-7.500000000000024
 70
   192
  0
VERTEX
  5
2018
  8
RÁM
 10
-32.74264068711936
 20
1787.742640687119
 30
-7.500000000000024
 70
   192
  0
VERTEX
  5
2019
  8
RÁM
 10
-26.47637491919939
 20
1783.5
 30
-8.236685434573882
 70
   192
  0
VERTEX
  5
201A
  8
RÁM
 10
-24.46951972394133
 20
1783.5
 30
-7.969104741872798
 70
   192
  0
VERTEX
  5
201B
  8
RÁM
 10
-32.53048027605888
 20
1783.5
 30
-7.969104741872808
 70
   192
  0
VERTEX
  5
201C
  8
RÁM
 10
-30.52362508080078
 20
1783.5
 30
-8.23668543457389
 70
   192
  0
VERTEX
  5
201D
  8
RÁM
 10
0.0
 20
0.0
 30
0.0
 70
   128
 71
     1
 72
     5
 73
     8
  0
VERTEX
  5
201E
  8
RÁM
 10
0.0
 20
0.0
 30
0.0
 70
   128
 71
     1
 72
     8
 73
     7
  0
VERTEX
  5
201F
  8
RÁM
 10
0.0
 20
0.0
 30
0.0
 70
   128
 71
     5
 72
     3
 73
     8
  0
VERTEX
  5
2020
  8
RÁM
 10
0.0
 20
0.0
 30
0.0
 70
   128
 71
     1
 72
     4
 73
     5
  0
VERTEX
  5
2021
  8
RÁM
 10
0.0
 20
0.0
 30
0.0
 70
   128
 71
     1
 72
     6
 73
     4
  0
VERTEX
  5
2022
  8
RÁM
 10
0.0
 20
0.0
 30
0.0
 70
   128
 71
     9
 72
     2
 73
     6
  0
VERTEX
  5
2023
  8
RÁM
 10
0.0
 20
0.0
 30
0.0
 70
   128
 71
    10
 72
     9
 73
     6
  0
VERTEX
  5
2024
  8
RÁM
 10
0.0
 20
0.0
 30
0.0
 70
   128
 71
    10
 72
     6
 73
     1
  0
SEQEND
  5
21F1
  8
RÁM
  0
POLYLINE
  5
2025
  8
RÁM
 66
     1
 10
0.0
 20
0.0
 30
0.0
 70
    64
 71
     4
 72
     2
  0
VERTEX
  5
2026
  8
RÁM
 10
-41.00000000000006
 20
1771.5
 30
-7.500000000000019
 70
   192
  0
VERTEX
  5
2027
  8
RÁM
 10
-41.00000000000006
 20
1771.5
 30
-3.000000000000019
 70
   192
  0
VERTEX
  5
2028
  8
RÁM
 10
-41.00000000000006
 20
1827.5
 30
-3.000000000000031
 70
   192
  0
VERTEX
  5
2029
  8
RÁM
 10
-41.00000000000006
 20
1827.5
 30
-7.500000000000031
 70
   192
  0
VERTEX
  5
202A
  8
RÁM
 10
0.0
 20
0.0
 30
0.0
 70
   128
 71
     3
 72
     4
 73
    -1
  0
VERTEX
  5
202B
  8
RÁM
 10
0.0
 20
0.0
 30
0.0
 70
   128
 71
     2
 72
    -3
 73
     1
  0
SEQEND
  5
21F2
  8
RÁM
  0
POLYLINE
  5
202C
  8
RÁM
 66
     1
 10
0.0
 20
0.0
 30
0.0
 70
    64
 71
     4
 72
     2
  0
VERTEX
  5
202D
  8
RÁM
 10
-41.00000000000006
 20
1771.5
 30
-3.000000000000019
 70
   192
  0
VERTEX
  5
202E
  8
RÁM
 10
-15.99999999999994
 20
1771.5
 30
-3.000000000000019
 70
   192
  0
VERTEX
  5
202F
  8
RÁM
 10
-15.99999999999994
 20
1827.5
 30
-3.000000000000031
 70
   192
  0
VERTEX
  5
2030
  8
RÁM
 10
-41.00000000000006
 20
1827.5
 30
-3.000000000000031
 70
   192
  0
VERTEX
  5
2031
  8
RÁM
 10
0.0
 20
0.0
 30
0.0
 70
   128
 71
     3
 72
     4
 73
    -1
  0
VERTEX
  5
2032
  8
RÁM
 10
0.0
 20
0.0
 30
0.0
 70
   128
 71
     2
 72
    -3
 73
     1
  0
SEQEND
  5
21F3
  8
RÁM
  0
POLYLINE
  5
2033
  8
RÁM
 66
     1
 10
0.0
 20
0.0
 30
0.0
 70
    64
 71
     4
 72
     2
  0
VERTEX
  5
2034
  8
RÁM
 10
-15.99999999999994
 20
1771.5
 30
-3.000000000000019
 70
   192
  0
VERTEX
  5
2035
  8
RÁM
 10
-15.99999999999994
 20
1827.5
 30
-3.000000000000031
 70
   192
  0
VERTEX
  5
2036
  8
RÁM
 10
-15.99999999999994
 20
1827.5
 30
-7.500000000000031
 70
   192
  0
VERTEX
  5
2037
  8
RÁM
 10
-15.99999999999994
 20
1771.5
 30
-7.500000000000019
 70
   192
  0
VERTEX
  5
2038
  8
RÁM
 10
0.0
 20
0.0
 30
0.0
 70
   128
 71
     1
 72
     4
 73
    -3
  0
VERTEX
  5
2039
  8
RÁM
 10
0.0
 20
0.0
 30
0.0
 70
   128
 71
    -1
 72
     3
 73
     2
  0
SEQEND
  5
21F4
  8
RÁM
  0
POLYLINE
  5
203A
  8
RÁM
 66
     1
 10
0.0
 20
0.0
 30
0.0
 70
    64
 71
    20
 72
    22
  0
VERTEX
  5
203B
  8
RÁM
 10
-15.99999999999994
 20
1771.5
 30
-7.500000000000019
 70
   192
  0
VERTEX
  5
203C
  8
RÁM
 10
-15.99999999999994
 20
1827.5
 30
-7.500000000000031
 70
   192
  0
VERTEX
  5
203D
  8
RÁM
 10
-41.00000000000006
 20
1827.5
 30
-7.500000000000031
 70
   192
  0
VERTEX
  5
203E
  8
RÁM
 10
-41.00000000000006
 20
1771.5
 30
-7.500000000000019
 70
   192
  0
VERTEX
  5
203F
  8
RÁM
 10
-34.50000000000006
 20
1783.5
 30
-7.500000000000024
 70
   192
  0
VERTEX
  5
2040
  8
RÁM
 10
-32.74264068711936
 20
1787.742640687119
 30
-7.500000000000024
 70
   192
  0
VERTEX
  5
2041
  8
RÁM
 10
-28.50000000000014
 20
1789.5
 30
-7.500000000000024
 70
   192
  0
VERTEX
  5
2042
  8
RÁM
 10
-24.25735931288092
 20
1787.742640687119
 30
-7.500000000000024
 70
   192
  0
VERTEX
  5
2043
  8
RÁM
 10
-22.50000000000022
 20
1783.5
 30
-7.500000000000024
 70
   192
  0
VERTEX
  5
2044
  8
RÁM
 10
-24.25735931288092
 20
1779.257359312881
 30
-7.500000000000024
 70
   192
  0
VERTEX
  5
2045
  8
RÁM
 10
-28.50000000000014
 20
1777.5
 30
-7.500000000000024
 70
   192
  0
VERTEX
  5
2046
  8
RÁM
 10
-32.74264068711936
 20
1779.257359312881
 30
-7.500000000000024
 70
   192
  0
VERTEX
  5
2047
  8
RÁM
 10
-34.50000000000006
 20
1815.5
 30
-7.500000000000031
 70
   192
  0
VERTEX
  5
2048
  8
RÁM
 10
-32.74264068711936
 20
1819.742640687119
 30
-7.500000000000031
 70
   192
  0
VERTEX
  5
2049
  8
RÁM
 10
-28.50000000000014
 20
1821.5
 30
-7.500000000000031
 70
   192
  0
VERTEX
  5
204A
  8
RÁM
 10
-24.25735931288092
 20
1819.742640687119
 30
-7.500000000000031
 70
   192
  0
VERTEX
  5
204B
  8
RÁM
 10
-22.50000000000022
 20
1815.5
 30
-7.500000000000031
 70
   192
  0
VERTEX
  5
204C
  8
RÁM
 10
-24.25735931288092
 20
1811.257359312881
 30
-7.500000000000031
 70
   192
  0
VERTEX
  5
204D
  8
RÁM
 10
-28.50000000000014
 20
1809.5
 30
-7.500000000000031
 70
   192
  0
VERTEX
  5
204E
  8
RÁM
 10
-32.74264068711936
 20
1811.257359312881
 30
-7.500000000000031
 70
   192
  0
VERTEX
  5
204F
  8
RÁM
 10
0.0
 20
0.0
 30
0.0
 70
   128
 71
     6
 72
    -5
 73
    -4
  0
VERTEX
  5
2050
  8
RÁM
 10
0.0
 20
0.0
 30
0.0
 70
   128
 71
    20
 72
   -19
 73
    -7
  0
VERTEX
  5
2051
  8
RÁM
 10
0.0
 20
0.0
 30
0.0
 70
   128
 71
    -6
 72
     4
 73
    -3
  0
VERTEX
  5
2052
  8
RÁM
 10
0.0
 20
0.0
 30
0.0
 70
   128
 71
    -6
 72
    -3
 73
   -20
  0
VERTEX
  5
2053
  8
RÁM
 10
0.0
 20
0.0
 30
0.0
 70
   128
 71
   -20
 72
     7
 73
    -6
  0
VERTEX
  5
2054
  8
RÁM
 10
0.0
 20
0.0
 30
0.0
 70
   128
 71
    -3
 72
    13
 73
   -20
  0
VERTEX
  5
2055
  8
RÁM
 10
0.0
 20
0.0
 30
0.0
 70
   128
 71
   -19
 72
     8
 73
    -7
  0
VERTEX
  5
2056
  8
RÁM
 10
0.0
 20
0.0
 30
0.0
 70
   128
 71
    14
 72
   -13
 73
    -3
  0
VERTEX
  5
2057
  8
RÁM
 10
0.0
 20
0.0
 30
0.0
 70
   128
 71
    -3
 72
    15
 73
   -14
  0
VERTEX
  5
2058
  8
RÁM
 10
0.0
 20
0.0
 30
0.0
 70
   128
 71
   -15
 72
     3
 73
    -2
  0
VERTEX
  5
2059
  8
RÁM
 10
0.0
 20
0.0
 30
0.0
 70
   128
 71
    -2
 72
    16
 73
   -15
  0
VERTEX
  5
205A
  8
RÁM
 10
0.0
 20
0.0
 30
0.0
 70
   128
 71
    -2
 72
    17
 73
   -16
  0
VERTEX
  5
205B
  8
RÁM
 10
0.0
 20
0.0
 30
0.0
 70
   128
 71
    -2
 72
    18
 73
   -17
  0
VERTEX
  5
205C
  8
RÁM
 10
0.0
 20
0.0
 30
0.0
 70
   128
 71
   -18
 72
     2
 73
    -1
  0
VERTEX
  5
205D
  8
RÁM
 10
0.0
 20
0.0
 30
0.0
 70
   128
 71
   -18
 72
    -1
 73
    -8
  0
VERTEX
  5
205E
  8
RÁM
 10
0.0
 20
0.0
 30
0.0
 70
   128
 71
    -8
 72
    19
 73
   -18
  0
VERTEX
  5
205F
  8
RÁM
 10
0.0
 20
0.0
 30
0.0
 70
   128
 71
    -1
 72
     9
 73
    -8
  0
VERTEX
  5
2060
  8
RÁM
 10
0.0
 20
0.0
 30
0.0
 70
   128
 71
    -1
 72
    10
 73
    -9
  0
VERTEX
  5
2061
  8
RÁM
 10
0.0
 20
0.0
 30
0.0
 70
   128
 71
    -1
 72
    11
 73
   -10
  0
VERTEX
  5
2062
  8
RÁM
 10
0.0
 20
0.0
 30
0.0
 70
   128
 71
     1
 72
    -4
 73
   -11
  0
VERTEX
  5
2063
  8
RÁM
 10
0.0
 20
0.0
 30
0.0
 70
   128
 71
    -4
 72
    12
 73
   -11
  0
VERTEX
  5
2064
  8
RÁM
 10
0.0
 20
0.0
 30
0.0
 70
   128
 71
    -4
 72
     5
 73
   -12
  0
SEQEND
  5
21F5
  8
RÁM
  0
POLYLINE
  5
2065
  8
RÁM
 66
     1
 10
0.0
 20
0.0
 30
0.0
 70
    64
 71
     4
 72
     2
  0
VERTEX
  5
2066
  8
RÁM
 10
-41.00000000000006
 20
1827.5
 30
-7.500000000000031
 70
   192
  0
VERTEX
  5
2067
  8
RÁM
 10
-41.00000000000006
 20
1827.5
 30
-3.000000000000031
 70
   192
  0
VERTEX
  5
2068
  8
RÁM
 10
-15.99999999999994
 20
1827.5
 30
-3.000000000000031
 70
   192
  0
VERTEX
  5
2069
  8
RÁM
 10
-15.99999999999994
 20
1827.5
 30
-7.500000000000031
 70
   192
  0
VERTEX
  5
206A
  8
RÁM
 10
0.0
 20
0.0
 30
0.0
 70
   128
 71
     3
 72
     4
 73
    -1
  0
VERTEX
  5
206B
  8
RÁM
 10
0.0
 20
0.0
 30
0.0
 70
   128
 71
     2
 72
    -3
 73
     1
  0
SEQEND
  5
21F6
  8
RÁM
  0
POLYLINE
  5
206C
  8
RÁM
 66
     1
 10
0.0
 20
0.0
 30
0.0
 70
    64
 71
     4
 72
     2
  0
VERTEX
  5
206D
  8
RÁM
 10
-41.00000000000006
 20
1771.5
 30
-3.000000000000019
 70
   192
  0
VERTEX
  5
206E
  8
RÁM
 10
-15.99999999999994
 20
1771.5
 30
-3.000000000000019
 70
   192
  0
VERTEX
  5
206F
  8
RÁM
 10
-15.99999999999994
 20
1771.5
 30
-7.500000000000019
 70
   192
  0
VERTEX
  5
2070
  8
RÁM
 10
-41.00000000000006
 20
1771.5
 30
-7.500000000000019
 70
   192
  0
VERTEX
  5
2071
  8
RÁM
 10
0.0
 20
0.0
 30
0.0
 70
   128
 71
     1
 72
     4
 73
    -3
  0
VERTEX
  5
2072
  8
RÁM
 10
0.0
 20
0.0
 30
0.0
 70
   128
 71
    -1
 72
     3
 73
     2
  0
SEQEND
  5
21F7
  8
RÁM
  0
POLYLINE
  5
2073
  8
RÁM
 66
     1
 10
0.0
 20
0.0
 30
0.0
 70
    64
 71
    10
 72
     8
  0
VERTEX
  5
2074
  8
RÁM
 10
-28.50000000000005
 20
1783.5
 30
-8.300000000000026
 70
   192
  0
VERTEX
  5
2075
  8
RÁM
 10
-22.50000000000022
 20
1783.5
 30
-7.500000000000021
 70
   192
  0
VERTEX
  5
2076
  8
RÁM
 10
-34.50000000000006
 20
1783.5
 30
-7.500000000000024
 70
   192
  0
VERTEX
  5
2077
  8
RÁM
 10
-28.50000000000014
 20
1777.5
 30
-7.500000000000024
 70
   192
  0
VERTEX
  5
2078
  8
RÁM
 10
-32.74264068711936
 20
1779.257359312881
 30
-7.500000000000024
 70
   192
  0
VERTEX
  5
2079
  8
RÁM
 10
-24.25735931288092
 20
1779.257359312881
 30
-7.500000000000024
 70
   192
  0
VERTEX
  5
207A
  8
RÁM
 10
-30.52362508080078
 20
1783.5
 30
-8.23668543457389
 70
   192
  0
VERTEX
  5
207B
  8
RÁM
 10
-32.53048027605888
 20
1783.5
 30
-7.969104741872808
 70
   192
  0
VERTEX
  5
207C
  8
RÁM
 10
-24.46951972394133
 20
1783.5
 30
-7.969104741872798
 70
   192
  0
VERTEX
  5
207D
  8
RÁM
 10
-26.47637491919939
 20
1783.5
 30
-8.236685434573882
 70
   192
  0
VERTEX
  5
207E
  8
RÁM
 10
0.0
 20
0.0
 30
0.0
 70
   128
 71
     1
 72
     5
 73
     8
  0
VERTEX
  5
207F
  8
RÁM
 10
0.0
 20
0.0
 30
0.0
 70
   128
 71
     1
 72
     8
 73
     7
  0
VERTEX
  5
2080
  8
RÁM
 10
0.0
 20
0.0
 30
0.0
 70
   128
 71
     5
 72
     3
 73
     8
  0
VERTEX
  5
2081
  8
RÁM
 10
0.0
 20
0.0
 30
0.0
 70
   128
 71
     1
 72
     4
 73
     5
  0
VERTEX
  5
2082
  8
RÁM
 10
0.0
 20
0.0
 30
0.0
 70
   128
 71
     1
 72
     6
 73
     4
  0
VERTEX
  5
2083
  8
RÁM
 10
0.0
 20
0.0
 30
0.0
 70
   128
 71
     9
 72
     2
 73
     6
  0
VERTEX
  5
2084
  8
RÁM
 10
0.0
 20
0.0
 30
0.0
 70
   128
 71
    10
 72
     9
 73
     6
  0
VERTEX
  5
2085
  8
RÁM
 10
0.0
 20
0.0
 30
0.0
 70
   128
 71
    10
 72
     6
 73
     1
  0
SEQEND
  5
21F8
  8
RÁM
  0
POLYLINE
  5
2086
  8
RÁM
 66
     1
 10
0.0
 20
0.0
 30
0.0
 70
    64
 71
    10
 72
     8
  0
VERTEX
  5
2087
  8
RÁM
 10
-28.50000000000005
 20
1815.5
 30
-8.300000000000033
 70
   192
  0
VERTEX
  5
2088
  8
RÁM
 10
-22.50000000000022
 20
1815.5
 30
-7.500000000000028
 70
   192
  0
VERTEX
  5
2089
  8
RÁM
 10
-34.50000000000006
 20
1815.5
 30
-7.500000000000031
 70
   192
  0
VERTEX
  5
208A
  8
RÁM
 10
-28.50000000000014
 20
1809.5
 30
-7.500000000000031
 70
   192
  0
VERTEX
  5
208B
  8
RÁM
 10
-32.74264068711936
 20
1811.257359312881
 30
-7.500000000000031
 70
   192
  0
VERTEX
  5
208C
  8
RÁM
 10
-24.25735931288092
 20
1811.257359312881
 30
-7.500000000000031
 70
   192
  0
VERTEX
  5
208D
  8
RÁM
 10
-30.52362508080078
 20
1815.5
 30
-8.236685434573896
 70
   192
  0
VERTEX
  5
208E
  8
RÁM
 10
-32.53048027605888
 20
1815.5
 30
-7.969104741872815
 70
   192
  0
VERTEX
  5
208F
  8
RÁM
 10
-24.46951972394133
 20
1815.5
 30
-7.969104741872805
 70
   192
  0
VERTEX
  5
2090
  8
RÁM
 10
-26.47637491919939
 20
1815.5
 30
-8.23668543457389
 70
   192
  0
VERTEX
  5
2091
  8
RÁM
 10
0.0
 20
0.0
 30
0.0
 70
   128
 71
     1
 72
     5
 73
     8
  0
VERTEX
  5
2092
  8
RÁM
 10
0.0
 20
0.0
 30
0.0
 70
   128
 71
     1
 72
     8
 73
     7
  0
VERTEX
  5
2093
  8
RÁM
 10
0.0
 20
0.0
 30
0.0
 70
   128
 71
     5
 72
     3
 73
     8
  0
VERTEX
  5
2094
  8
RÁM
 10
0.0
 20
0.0
 30
0.0
 70
   128
 71
     1
 72
     4
 73
     5
  0
VERTEX
  5
2095
  8
RÁM
 10
0.0
 20
0.0
 30
0.0
 70
   128
 71
     1
 72
     6
 73
     4
  0
VERTEX
  5
2096
  8
RÁM
 10
0.0
 20
0.0
 30
0.0
 70
   128
 71
     9
 72
     2
 73
     6
  0
VERTEX
  5
2097
  8
RÁM
 10
0.0
 20
0.0
 30
0.0
 70
   128
 71
    10
 72
     9
 73
     6
  0
VERTEX
  5
2098
  8
RÁM
 10
0.0
 20
0.0
 30
0.0
 70
   128
 71
    10
 72
     6
 73
     1
  0
SEQEND
  5
21F9
  8
RÁM
  0
ENDBLK
  5
21EF
  8
0
  0
BLOCK
  8
0
  2
*X13
 70
     1
 10
0.0
 20
0.0
 30
0.0
  3
*X13
  1

  0
POLYLINE
  5
209A
  8
RÁM
 66
     1
 10
0.0
 20
0.0
 30
0.0
 70
    64
 71
    10
 72
     8
  0
VERTEX
  5
209B
  8
RÁM
 10
-28.50000000000005
 20
234.5
 30
-8.300000000000036
 70
   192
  0
VERTEX
  5
209C
  8
RÁM
 10
-34.50000000000006
 20
234.5
 30
-7.500000000000036
 70
   192
  0
VERTEX
  5
209D
  8
RÁM
 10
-22.50000000000022
 20
234.5
 30
-7.500000000000038
 70
   192
  0
VERTEX
  5
209E
  8
RÁM
 10
-28.50000000000014
 20
240.4999999999999
 30
-7.500000000000038
 70
   192
  0
VERTEX
  5
209F
  8
RÁM
 10
-24.25735931288092
 20
238.7426406871192
 30
-7.500000000000038
 70
   192
  0
VERTEX
  5
20A0
  8
RÁM
 10
-32.74264068711936
 20
238.7426406871192
 30
-7.500000000000038
 70
   192
  0
VERTEX
  5
20A1
  8
RÁM
 10
-26.47637491919939
 20
234.5
 30
-8.236685434573896
 70
   192
  0
VERTEX
  5
20A2
  8
RÁM
 10
-24.46951972394133
 20
234.5
 30
-7.969104741872812
 70
   192
  0
VERTEX
  5
20A3
  8
RÁM
 10
-32.53048027605888
 20
234.5
 30
-7.969104741872822
 70
   192
  0
VERTEX
  5
20A4
  8
RÁM
 10
-30.52362508080078
 20
234.5
 30
-8.236685434573904
 70
   192
  0
VERTEX
  5
20A5
  8
RÁM
 10
0.0
 20
0.0
 30
0.0
 70
   128
 71
     1
 72
     5
 73
     8
  0
VERTEX
  5
20A6
  8
RÁM
 10
0.0
 20
0.0
 30
0.0
 70
   128
 71
     1
 72
     8
 73
     7
  0
VERTEX
  5
20A7
  8
RÁM
 10
0.0
 20
0.0
 30
0.0
 70
   128
 71
     5
 72
     3
 73
     8
  0
VERTEX
  5
20A8
  8
RÁM
 10
0.0
 20
0.0
 30
0.0
 70
   128
 71
     1
 72
     4
 73
     5
  0
VERTEX
  5
20A9
  8
RÁM
 10
0.0
 20
0.0
 30
0.0
 70
   128
 71
     1
 72
     6
 73
     4
  0
VERTEX
  5
20AA
  8
RÁM
 10
0.0
 20
0.0
 30
0.0
 70
   128
 71
     9
 72
     2
 73
     6
  0
VERTEX
  5
20AB
  8
RÁM
 10
0.0
 20
0.0
 30
0.0
 70
   128
 71
    10
 72
     9
 73
     6
  0
VERTEX
  5
20AC
  8
RÁM
 10
0.0
 20
0.0
 30
0.0
 70
   128
 71
    10
 72
     6
 73
     1
  0
SEQEND
  5
21FC
  8
RÁM
  0
POLYLINE
  5
20AD
  8
RÁM
 66
     1
 10
0.0
 20
0.0
 30
0.0
 70
    64
 71
    10
 72
     8
  0
VERTEX
  5
20AE
  8
RÁM
 10
-28.50000000000005
 20
202.5
 30
-8.30000000000003
 70
   192
  0
VERTEX
  5
20AF
  8
RÁM
 10
-34.50000000000006
 20
202.5
 30
-7.500000000000028
 70
   192
  0
VERTEX
  5
20B0
  8
RÁM
 10
-22.50000000000022
 20
202.5
 30
-7.500000000000031
 70
   192
  0
VERTEX
  5
20B1
  8
RÁM
 10
-28.50000000000014
 20
208.4999999999999
 30
-7.500000000000031
 70
   192
  0
VERTEX
  5
20B2
  8
RÁM
 10
-24.25735931288092
 20
206.7426406871192
 30
-7.500000000000031
 70
   192
  0
VERTEX
  5
20B3
  8
RÁM
 10
-32.74264068711936
 20
206.7426406871192
 30
-7.500000000000031
 70
   192
  0
VERTEX
  5
20B4
  8
RÁM
 10
-26.47637491919939
 20
202.5
 30
-8.23668543457389
 70
   192
  0
VERTEX
  5
20B5
  8
RÁM
 10
-24.46951972394133
 20
202.5
 30
-7.969104741872805
 70
   192
  0
VERTEX
  5
20B6
  8
RÁM
 10
-32.53048027605888
 20
202.5
 30
-7.969104741872815
 70
   192
  0
VERTEX
  5
20B7
  8
RÁM
 10
-30.52362508080078
 20
202.5
 30
-8.236685434573896
 70
   192
  0
VERTEX
  5
20B8
  8
RÁM
 10
0.0
 20
0.0
 30
0.0
 70
   128
 71
     1
 72
     5
 73
     8
  0
VERTEX
  5
20B9
  8
RÁM
 10
0.0
 20
0.0
 30
0.0
 70
   128
 71
     1
 72
     8
 73
     7
  0
VERTEX
  5
20BA
  8
RÁM
 10
0.0
 20
0.0
 30
0.0
 70
   128
 71
     5
 72
     3
 73
     8
  0
VERTEX
  5
20BB
  8
RÁM
 10
0.0
 20
0.0
 30
0.0
 70
   128
 71
     1
 72
     4
 73
     5
  0
VERTEX
  5
20BC
  8
RÁM
 10
0.0
 20
0.0
 30
0.0
 70
   128
 71
     1
 72
     6
 73
     4
  0
VERTEX
  5
20BD
  8
RÁM
 10
0.0
 20
0.0
 30
0.0
 70
   128
 71
     9
 72
     2
 73
     6
  0
VERTEX
  5
20BE
  8
RÁM
 10
0.0
 20
0.0
 30
0.0
 70
   128
 71
    10
 72
     9
 73
     6
  0
VERTEX
  5
20BF
  8
RÁM
 10
0.0
 20
0.0
 30
0.0
 70
   128
 71
    10
 72
     6
 73
     1
  0
SEQEND
  5
21FD
  8
RÁM
  0
POLYLINE
  5
20C0
  8
RÁM
 66
     1
 10
0.0
 20
0.0
 30
0.0
 70
    64
 71
     4
 72
     2
  0
VERTEX
  5
20C1
  8
RÁM
 10
-41.00000000000006
 20
190.5
 30
-7.500000000000026
 70
   192
  0
VERTEX
  5
20C2
  8
RÁM
 10
-41.00000000000006
 20
190.5
 30
-3.000000000000026
 70
   192
  0
VERTEX
  5
20C3
  8
RÁM
 10
-41.00000000000006
 20
246.5
 30
-3.000000000000038
 70
   192
  0
VERTEX
  5
20C4
  8
RÁM
 10
-41.00000000000006
 20
246.5
 30
-7.500000000000038
 70
   192
  0
VERTEX
  5
20C5
  8
RÁM
 10
0.0
 20
0.0
 30
0.0
 70
   128
 71
     3
 72
     4
 73
    -1
  0
VERTEX
  5
20C6
  8
RÁM
 10
0.0
 20
0.0
 30
0.0
 70
   128
 71
     2
 72
    -3
 73
     1
  0
SEQEND
  5
21FE
  8
RÁM
  0
POLYLINE
  5
20C7
  8
RÁM
 66
     1
 10
0.0
 20
0.0
 30
0.0
 70
    64
 71
     4
 72
     2
  0
VERTEX
  5
20C8
  8
RÁM
 10
-41.00000000000006
 20
190.5
 30
-3.000000000000026
 70
   192
  0
VERTEX
  5
20C9
  8
RÁM
 10
-15.99999999999994
 20
190.5
 30
-3.000000000000026
 70
   192
  0
VERTEX
  5
20CA
  8
RÁM
 10
-15.99999999999994
 20
246.5
 30
-3.000000000000038
 70
   192
  0
VERTEX
  5
20CB
  8
RÁM
 10
-41.00000000000006
 20
246.5
 30
-3.000000000000038
 70
   192
  0
VERTEX
  5
20CC
  8
RÁM
 10
0.0
 20
0.0
 30
0.0
 70
   128
 71
     3
 72
     4
 73
    -1
  0
VERTEX
  5
20CD
  8
RÁM
 10
0.0
 20
0.0
 30
0.0
 70
   128
 71
     2
 72
    -3
 73
     1
  0
SEQEND
  5
21FF
  8
RÁM
  0
POLYLINE
  5
20CE
  8
RÁM
 66
     1
 10
0.0
 20
0.0
 30
0.0
 70
    64
 71
     4
 72
     2
  0
VERTEX
  5
20CF
  8
RÁM
 10
-15.99999999999994
 20
190.5
 30
-3.000000000000026
 70
   192
  0
VERTEX
  5
20D0
  8
RÁM
 10
-15.99999999999994
 20
246.5
 30
-3.000000000000038
 70
   192
  0
VERTEX
  5
20D1
  8
RÁM
 10
-15.99999999999994
 20
246.5
 30
-7.500000000000038
 70
   192
  0
VERTEX
  5
20D2
  8
RÁM
 10
-15.99999999999994
 20
190.5
 30
-7.500000000000026
 70
   192
  0
VERTEX
  5
20D3
  8
RÁM
 10
0.0
 20
0.0
 30
0.0
 70
   128
 71
     1
 72
     4
 73
    -3
  0
VERTEX
  5
20D4
  8
RÁM
 10
0.0
 20
0.0
 30
0.0
 70
   128
 71
    -1
 72
     3
 73
     2
  0
SEQEND
  5
2200
  8
RÁM
  0
POLYLINE
  5
20D5
  8
RÁM
 66
     1
 10
0.0
 20
0.0
 30
0.0
 70
    64
 71
    20
 72
    22
  0
VERTEX
  5
20D6
  8
RÁM
 10
-15.99999999999994
 20
190.5
 30
-7.500000000000026
 70
   192
  0
VERTEX
  5
20D7
  8
RÁM
 10
-15.99999999999994
 20
246.5
 30
-7.500000000000038
 70
   192
  0
VERTEX
  5
20D8
  8
RÁM
 10
-41.00000000000006
 20
246.5
 30
-7.500000000000038
 70
   192
  0
VERTEX
  5
20D9
  8
RÁM
 10
-41.00000000000006
 20
190.5
 30
-7.500000000000026
 70
   192
  0
VERTEX
  5
20DA
  8
RÁM
 10
-34.50000000000006
 20
202.5
 30
-7.500000000000031
 70
   192
  0
VERTEX
  5
20DB
  8
RÁM
 10
-32.74264068711936
 20
206.7426406871192
 30
-7.500000000000031
 70
   192
  0
VERTEX
  5
20DC
  8
RÁM
 10
-28.50000000000014
 20
208.4999999999999
 30
-7.500000000000031
 70
   192
  0
VERTEX
  5
20DD
  8
RÁM
 10
-24.25735931288092
 20
206.7426406871192
 30
-7.500000000000031
 70
   192
  0
VERTEX
  5
20DE
  8
RÁM
 10
-22.50000000000022
 20
202.5
 30
-7.500000000000031
 70
   192
  0
VERTEX
  5
20DF
  8
RÁM
 10
-24.25735931288092
 20
198.2573593128808
 30
-7.500000000000031
 70
   192
  0
VERTEX
  5
20E0
  8
RÁM
 10
-28.50000000000014
 20
196.5000000000001
 30
-7.500000000000031
 70
   192
  0
VERTEX
  5
20E1
  8
RÁM
 10
-32.74264068711936
 20
198.2573593128808
 30
-7.500000000000031
 70
   192
  0
VERTEX
  5
20E2
  8
RÁM
 10
-34.50000000000006
 20
234.5
 30
-7.500000000000038
 70
   192
  0
VERTEX
  5
20E3
  8
RÁM
 10
-32.74264068711936
 20
238.7426406871192
 30
-7.500000000000038
 70
   192
  0
VERTEX
  5
20E4
  8
RÁM
 10
-28.50000000000014
 20
240.4999999999999
 30
-7.500000000000038
 70
   192
  0
VERTEX
  5
20E5
  8
RÁM
 10
-24.25735931288092
 20
238.7426406871192
 30
-7.500000000000038
 70
   192
  0
VERTEX
  5
20E6
  8
RÁM
 10
-22.50000000000022
 20
234.5
 30
-7.500000000000038
 70
   192
  0
VERTEX
  5
20E7
  8
RÁM
 10
-24.25735931288092
 20
230.2573593128808
 30
-7.500000000000038
 70
   192
  0
VERTEX
  5
20E8
  8
RÁM
 10
-28.50000000000014
 20
228.5000000000001
 30
-7.500000000000038
 70
   192
  0
VERTEX
  5
20E9
  8
RÁM
 10
-32.74264068711936
 20
230.2573593128808
 30
-7.500000000000038
 70
   192
  0
VERTEX
  5
20EA
  8
RÁM
 10
0.0
 20
0.0
 30
0.0
 70
   128
 71
     6
 72
    -5
 73
    -4
  0
VERTEX
  5
20EB
  8
RÁM
 10
0.0
 20
0.0
 30
0.0
 70
   128
 71
    20
 72
   -19
 73
    -7
  0
VERTEX
  5
20EC
  8
RÁM
 10
0.0
 20
0.0
 30
0.0
 70
   128
 71
    -6
 72
     4
 73
    -3
  0
VERTEX
  5
20ED
  8
RÁM
 10
0.0
 20
0.0
 30
0.0
 70
   128
 71
    -6
 72
    -3
 73
   -20
  0
VERTEX
  5
20EE
  8
RÁM
 10
0.0
 20
0.0
 30
0.0
 70
   128
 71
   -20
 72
     7
 73
    -6
  0
VERTEX
  5
20EF
  8
RÁM
 10
0.0
 20
0.0
 30
0.0
 70
   128
 71
    -3
 72
    13
 73
   -20
  0
VERTEX
  5
20F0
  8
RÁM
 10
0.0
 20
0.0
 30
0.0
 70
   128
 71
   -19
 72
     8
 73
    -7
  0
VERTEX
  5
20F1
  8
RÁM
 10
0.0
 20
0.0
 30
0.0
 70
   128
 71
    14
 72
   -13
 73
    -3
  0
VERTEX
  5
20F2
  8
RÁM
 10
0.0
 20
0.0
 30
0.0
 70
   128
 71
    -3
 72
    15
 73
   -14
  0
VERTEX
  5
20F3
  8
RÁM
 10
0.0
 20
0.0
 30
0.0
 70
   128
 71
   -15
 72
     3
 73
    -2
  0
VERTEX
  5
20F4
  8
RÁM
 10
0.0
 20
0.0
 30
0.0
 70
   128
 71
    -2
 72
    16
 73
   -15
  0
VERTEX
  5
20F5
  8
RÁM
 10
0.0
 20
0.0
 30
0.0
 70
   128
 71
    -2
 72
    17
 73
   -16
  0
VERTEX
  5
20F6
  8
RÁM
 10
0.0
 20
0.0
 30
0.0
 70
   128
 71
    -2
 72
    18
 73
   -17
  0
VERTEX
  5
20F7
  8
RÁM
 10
0.0
 20
0.0
 30
0.0
 70
   128
 71
   -18
 72
     2
 73
    -1
  0
VERTEX
  5
20F8
  8
RÁM
 10
0.0
 20
0.0
 30
0.0
 70
   128
 71
   -18
 72
    -1
 73
    -8
  0
VERTEX
  5
20F9
  8
RÁM
 10
0.0
 20
0.0
 30
0.0
 70
   128
 71
    -8
 72
    19
 73
   -18
  0
VERTEX
  5
20FA
  8
RÁM
 10
0.0
 20
0.0
 30
0.0
 70
   128
 71
    -1
 72
     9
 73
    -8
  0
VERTEX
  5
20FB
  8
RÁM
 10
0.0
 20
0.0
 30
0.0
 70
   128
 71
    -1
 72
    10
 73
    -9
  0
VERTEX
  5
20FC
  8
RÁM
 10
0.0
 20
0.0
 30
0.0
 70
   128
 71
    -1
 72
    11
 73
   -10
  0
VERTEX
  5
20FD
  8
RÁM
 10
0.0
 20
0.0
 30
0.0
 70
   128
 71
     1
 72
    -4
 73
   -11
  0
VERTEX
  5
20FE
  8
RÁM
 10
0.0
 20
0.0
 30
0.0
 70
   128
 71
    -4
 72
    12
 73
   -11
  0
VERTEX
  5
20FF
  8
RÁM
 10
0.0
 20
0.0
 30
0.0
 70
   128
 71
    -4
 72
     5
 73
   -12
  0
SEQEND
  5
2201
  8
RÁM
  0
POLYLINE
  5
2100
  8
RÁM
 66
     1
 10
0.0
 20
0.0
 30
0.0
 70
    64
 71
     4
 72
     2
  0
VERTEX
  5
2101
  8
RÁM
 10
-41.00000000000006
 20
246.5
 30
-7.500000000000038
 70
   192
  0
VERTEX
  5
2102
  8
RÁM
 10
-41.00000000000006
 20
246.5
 30
-3.000000000000038
 70
   192
  0
VERTEX
  5
2103
  8
RÁM
 10
-15.99999999999994
 20
246.5
 30
-3.000000000000038
 70
   192
  0
VERTEX
  5
2104
  8
RÁM
 10
-15.99999999999994
 20
246.5
 30
-7.500000000000038
 70
   192
  0
VERTEX
  5
2105
  8
RÁM
 10
0.0
 20
0.0
 30
0.0
 70
   128
 71
     3
 72
     4
 73
    -1
  0
VERTEX
  5
2106
  8
RÁM
 10
0.0
 20
0.0
 30
0.0
 70
   128
 71
     2
 72
    -3
 73
     1
  0
SEQEND
  5
2202
  8
RÁM
  0
POLYLINE
  5
2107
  8
RÁM
 66
     1
 10
0.0
 20
0.0
 30
0.0
 70
    64
 71
     4
 72
     2
  0
VERTEX
  5
2108
  8
RÁM
 10
-41.00000000000006
 20
190.5
 30
-3.000000000000026
 70
   192
  0
VERTEX
  5
2109
  8
RÁM
 10
-15.99999999999994
 20
190.5
 30
-3.000000000000026
 70
   192
  0
VERTEX
  5
210A
  8
RÁM
 10
-15.99999999999994
 20
190.5
 30
-7.500000000000026
 70
   192
  0
VERTEX
  5
210B
  8
RÁM
 10
-41.00000000000006
 20
190.5
 30
-7.500000000000026
 70
   192
  0
VERTEX
  5
210C
  8
RÁM
 10
0.0
 20
0.0
 30
0.0
 70
   128
 71
     1
 72
     4
 73
    -3
  0
VERTEX
  5
210D
  8
RÁM
 10
0.0
 20
0.0
 30
0.0
 70
   128
 71
    -1
 72
     3
 73
     2
  0
SEQEND
  5
2203
  8
RÁM
  0
POLYLINE
  5
210E
  8
RÁM
 66
     1
 10
0.0
 20
0.0
 30
0.0
 70
    64
 71
    10
 72
     8
  0
VERTEX
  5
210F
  8
RÁM
 10
-28.50000000000005
 20
202.5
 30
-8.300000000000033
 70
   192
  0
VERTEX
  5
2110
  8
RÁM
 10
-22.50000000000022
 20
202.5
 30
-7.500000000000028
 70
   192
  0
VERTEX
  5
2111
  8
RÁM
 10
-34.50000000000006
 20
202.5
 30
-7.500000000000031
 70
   192
  0
VERTEX
  5
2112
  8
RÁM
 10
-28.50000000000014
 20
196.5000000000001
 30
-7.500000000000031
 70
   192
  0
VERTEX
  5
2113
  8
RÁM
 10
-32.74264068711936
 20
198.2573593128808
 30
-7.500000000000031
 70
   192
  0
VERTEX
  5
2114
  8
RÁM
 10
-24.25735931288092
 20
198.2573593128808
 30
-7.500000000000031
 70
   192
  0
VERTEX
  5
2115
  8
RÁM
 10
-30.52362508080078
 20
202.5
 30
-8.236685434573896
 70
   192
  0
VERTEX
  5
2116
  8
RÁM
 10
-32.53048027605888
 20
202.5
 30
-7.969104741872815
 70
   192
  0
VERTEX
  5
2117
  8
RÁM
 10
-24.46951972394133
 20
202.5
 30
-7.969104741872805
 70
   192
  0
VERTEX
  5
2118
  8
RÁM
 10
-26.47637491919939
 20
202.5
 30
-8.23668543457389
 70
   192
  0
VERTEX
  5
2119
  8
RÁM
 10
0.0
 20
0.0
 30
0.0
 70
   128
 71
     1
 72
     5
 73
     8
  0
VERTEX
  5
211A
  8
RÁM
 10
0.0
 20
0.0
 30
0.0
 70
   128
 71
     1
 72
     8
 73
     7
  0
VERTEX
  5
211B
  8
RÁM
 10
0.0
 20
0.0
 30
0.0
 70
   128
 71
     5
 72
     3
 73
     8
  0
VERTEX
  5
211C
  8
RÁM
 10
0.0
 20
0.0
 30
0.0
 70
   128
 71
     1
 72
     4
 73
     5
  0
VERTEX
  5
211D
  8
RÁM
 10
0.0
 20
0.0
 30
0.0
 70
   128
 71
     1
 72
     6
 73
     4
  0
VERTEX
  5
211E
  8
RÁM
 10
0.0
 20
0.0
 30
0.0
 70
   128
 71
     9
 72
     2
 73
     6
  0
VERTEX
  5
211F
  8
RÁM
 10
0.0
 20
0.0
 30
0.0
 70
   128
 71
    10
 72
     9
 73
     6
  0
VERTEX
  5
2120
  8
RÁM
 10
0.0
 20
0.0
 30
0.0
 70
   128
 71
    10
 72
     6
 73
     1
  0
SEQEND
  5
2204
  8
RÁM
  0
POLYLINE
  5
2121
  8
RÁM
 66
     1
 10
0.0
 20
0.0
 30
0.0
 70
    64
 71
    10
 72
     8
  0
VERTEX
  5
2122
  8
RÁM
 10
-28.50000000000005
 20
234.5
 30
-8.30000000000004
 70
   192
  0
VERTEX
  5
2123
  8
RÁM
 10
-22.50000000000022
 20
234.5
 30
-7.500000000000036
 70
   192
  0
VERTEX
  5
2124
  8
RÁM
 10
-34.50000000000006
 20
234.5
 30
-7.500000000000038
 70
   192
  0
VERTEX
  5
2125
  8
RÁM
 10
-28.50000000000014
 20
228.5000000000001
 30
-7.500000000000038
 70
   192
  0
VERTEX
  5
2126
  8
RÁM
 10
-32.74264068711936
 20
230.2573593128808
 30
-7.500000000000038
 70
   192
  0
VERTEX
  5
2127
  8
RÁM
 10
-24.25735931288092
 20
230.2573593128808
 30
-7.500000000000038
 70
   192
  0
VERTEX
  5
2128
  8
RÁM
 10
-30.52362508080078
 20
234.5
 30
-8.236685434573904
 70
   192
  0
VERTEX
  5
2129
  8
RÁM
 10
-32.53048027605888
 20
234.5
 30
-7.969104741872822
 70
   192
  0
VERTEX
  5
212A
  8
RÁM
 10
-24.46951972394133
 20
234.5
 30
-7.969104741872812
 70
   192
  0
VERTEX
  5
212B
  8
RÁM
 10
-26.47637491919939
 20
234.5
 30
-8.236685434573896
 70
   192
  0
VERTEX
  5
212C
  8
RÁM
 10
0.0
 20
0.0
 30
0.0
 70
   128
 71
     1
 72
     5
 73
     8
  0
VERTEX
  5
212D
  8
RÁM
 10
0.0
 20
0.0
 30
0.0
 70
   128
 71
     1
 72
     8
 73
     7
  0
VERTEX
  5
212E
  8
RÁM
 10
0.0
 20
0.0
 30
0.0
 70
   128
 71
     5
 72
     3
 73
     8
  0
VERTEX
  5
212F
  8
RÁM
 10
0.0
 20
0.0
 30
0.0
 70
   128
 71
     1
 72
     4
 73
     5
  0
VERTEX
  5
2130
  8
RÁM
 10
0.0
 20
0.0
 30
0.0
 70
   128
 71
     1
 72
     6
 73
     4
  0
VERTEX
  5
2131
  8
RÁM
 10
0.0
 20
0.0
 30
0.0
 70
   128
 71
     9
 72
     2
 73
     6
  0
VERTEX
  5
2132
  8
RÁM
 10
0.0
 20
0.0
 30
0.0
 70
   128
 71
    10
 72
     9
 73
     6
  0
VERTEX
  5
2133
  8
RÁM
 10
0.0
 20
0.0
 30
0.0
 70
   128
 71
    10
 72
     6
 73
     1
  0
SEQEND
  5
2205
  8
RÁM
  0
ENDBLK
  5
21FB
  8
0
  0
ENDSEC
  0
SECTION
  2
ENTITIES
  0
INSERT
  5
BE
  8
RÁM
  2
*X1
 10
0.0
 20
0.0
 30
0.0
  0
INSERT
  5
BF
  8
RÁM
  2
*X2
 10
0.0
 20
0.0
 30
0.0
  0
INSERT
  5
C0
  8
SKLO
  2
*X3
 10
0.0
 20
0.0
 30
0.0
  0
INSERT
  5
C1
  8
SKLO
  2
*X4
 10
0.0
 20
0.0
 30
0.0
  0
INSERT
  5
C2
  8
MADLA
  2
*X5
 10
0.0
 20
0.0
 30
0.0
  0
INSERT
  5
C3
  8
MADLA
  2
*X6
 10
0.0
 20
0.0
 30
0.0
  0
INSERT
  5
C4
  8
GUMA
  2
*X7
 10
0.0
 20
0.0
 30
0.0
  0
INSERT
  5
C5
  8
RÁM
  2
*X8
 10
0.0
 20
0.0
 30
0.0
  0
INSERT
  5
C6
  8
RÁM
  2
*X9
 10
0.0
 20
0.0
 30
0.0
  0
INSERT
  5
C7
  8
RÁM
  2
*X10
 10
0.0
 20
0.0
 30
0.0
  0
INSERT
  5
C8
  8
RÁM
  2
*X11
 10
0.0
 20
0.0
 30
0.0
  0
INSERT
  5
C9
  8
RÁM
  2
*X12
 10
0.0
 20
0.0
 30
0.0
  0
INSERT
  5
CA
  8
RÁM
  2
*X13
 10
0.0
 20
0.0
 30
0.0
  0
ENDSEC
  0
EOF
