  0
SECTION
  2
HEADER
  9
$ACADVER
  1
AC1009
  9
$DWGCODEPAGE
  3
ansi_1250
  9
$INSBASE
 10
0.0
 20
0.0
 30
0.0
  9
$EXTMIN
 10
-1700.874814798112
 20
-1.047436862768137
 30
-466.0000004464489
  9
$EXTMAX
 10
1.047436862768109
 20
899.7337733083041
 30
-0.0088491935999855
  9
$LIMMIN
 10
0.0
 20
0.0
  9
$LIMMAX
 10
420.0
 20
297.0
  9
$ORTHOMODE
 70
     0
  9
$REGENMODE
 70
     1
  9
$FILLMODE
 70
     1
  9
$QTEXTMODE
 70
     0
  9
$MIRRTEXT
 70
     0
  9
$DRAGMODE
 70
     2
  9
$LTSCALE
 40
1.0
  9
$OSMODE
 70
   511
  9
$ATTMODE
 70
     1
  9
$TEXTSIZE
 40
2.5
  9
$TRACEWID
 40
1.0
  9
$TEXTSTYLE
  7
STANDARD
  9
$CLAYER
  8
0
  9
$CELTYPE
  6
BYLAYER
  9
$CECOLOR
 62
   256
  9
$DIMSCALE
 40
1.0
  9
$DIMASZ
 40
2.5
  9
$DIMEXO
 40
0.625
  9
$DIMDLI
 40
3.75
  9
$DIMRND
 40
0.0
  9
$DIMDLE
 40
0.0
  9
$DIMEXE
 40
1.25
  9
$DIMTP
 40
0.0
  9
$DIMTM
 40
0.0
  9
$DIMTXT
 40
2.5
  9
$DIMCEN
 40
-2.5
  9
$DIMTSZ
 40
0.0
  9
$DIMTOL
 70
     0
  9
$DIMLIM
 70
     0
  9
$DIMTIH
 70
     0
  9
$DIMTOH
 70
     0
  9
$DIMSE1
 70
     0
  9
$DIMSE2
 70
     0
  9
$DIMTAD
 70
     1
  9
$DIMZIN
 70
     8
  9
$DIMBLK
  1

  9
$DIMASO
 70
     1
  9
$DIMSHO
 70
     1
  9
$DIMPOST
  1

  9
$DIMAPOST
  1

  9
$DIMALT
 70
     0
  9
$DIMALTD
 70
     3
  9
$DIMALTF
 40
0.03937007874016
  9
$DIMLFAC
 40
1.0
  9
$DIMTOFL
 70
     1
  9
$DIMTVP
 40
0.0
  9
$DIMTIX
 70
     0
  9
$DIMSOXD
 70
     0
  9
$DIMSAH
 70
     0
  9
$DIMBLK1
  1

  9
$DIMBLK2
  1

  9
$DIMSTYLE
  2
ISO-25
  9
$DIMCLRD
 70
     0
  9
$DIMCLRE
 70
     0
  9
$DIMCLRT
 70
     0
  9
$DIMTFAC
 40
1.0
  9
$DIMGAP
 40
0.625
  9
$LUNITS
 70
     2
  9
$LUPREC
 70
     3
  9
$SKETCHINC
 40
1.0
  9
$FILLETRAD
 40
10.0
  9
$AUNITS
 70
     0
  9
$AUPREC
 70
     0
  9
$MENU
  1
.
  9
$ELEVATION
 40
0.0
  9
$PELEVATION
 40
0.0
  9
$THICKNESS
 40
0.0
  9
$LIMCHECK
 70
     0
  9
$CHAMFERA
 40
10.0
  9
$CHAMFERB
 40
10.0
  9
$SKPOLY
 70
     0
  9
$TDCREATE
 40
2455022.720692848
  9
$TDUPDATE
 40
2460437.411047384
  9
$TDINDWG
 40
0.0001817477
  9
$TDUSRTIMER
 40
0.0101559722
  9
$USRTIMER
 70
     1
  9
$ANGBASE
 50
0.0
  9
$ANGDIR
 70
     0
  9
$PDMODE
 70
     0
  9
$PDSIZE
 40
0.0
  9
$PLINEWID
 40
0.0
  9
$COORDS
 70
     1
  9
$SPLFRAME
 70
     0
  9
$SPLINETYPE
 70
     6
  9
$SPLINESEGS
 70
     8
  9
$ATTDIA
 70
     0
  9
$ATTREQ
 70
     1
  9
$HANDLING
 70
     1
  9
$HANDSEED
  5
17D6
  9
$SURFTAB1
 70
     6
  9
$SURFTAB2
 70
     6
  9
$SURFTYPE
 70
     6
  9
$SURFU
 70
     6
  9
$SURFV
 70
     6
  9
$UCSNAME
  2

  9
$UCSORG
 10
0.0
 20
0.0
 30
0.0
  9
$UCSXDIR
 10
1.0
 20
0.0
 30
0.0
  9
$UCSYDIR
 10
0.0
 20
1.0
 30
0.0
  9
$PUCSNAME
  2

  9
$PUCSORG
 10
0.0
 20
0.0
 30
0.0
  9
$PUCSXDIR
 10
1.0
 20
0.0
 30
0.0
  9
$PUCSYDIR
 10
0.0
 20
1.0
 30
0.0
  9
$USERI1
 70
     0
  9
$USERI2
 70
     0
  9
$USERI3
 70
     0
  9
$USERI4
 70
     0
  9
$USERI5
 70
     0
  9
$USERR1
 40
0.0
  9
$USERR2
 40
0.0
  9
$USERR3
 40
0.0
  9
$USERR4
 40
0.0
  9
$USERR5
 40
0.0
  9
$WORLDVIEW
 70
     1
  9
$SHADEDGE
 70
     3
  9
$SHADEDIF
 70
    70
  9
$TILEMODE
 70
     1
  9
$MAXACTVP
 70
    64
  9
$PLIMCHECK
 70
     0
  9
$PEXTMIN
 10
1.000000000000000E+20
 20
1.000000000000000E+20
 30
1.000000000000000E+20
  9
$PEXTMAX
 10
-1.000000000000000E+20
 20
-1.000000000000000E+20
 30
-1.000000000000000E+20
  9
$PLIMMIN
 10
0.0
 20
0.0
  9
$PLIMMAX
 10
0.0
 20
0.0
  9
$UNITMODE
 70
     0
  9
$VISRETAIN
 70
     1
  9
$PLINEGEN
 70
     0
  9
$PSLTSCALE
 70
     1
  0
ENDSEC
  0
SECTION
  2
TABLES
  0
TABLE
  2
VPORT
 70
     1
  0
VPORT
  2
*ACTIVE
 70
     0
 10
0.0
 20
0.0
 11
1.0
 21
1.0
 12
823.8499645440859
 22
-81.50885190986457
 13
0.0
 23
0.0
 14
10.0
 24
10.0
 15
10.0
 25
10.0
 16
0.577350269189651
 26
0.577350269189651
 36
0.5773502691896226
 17
-134.1869158878505
 27
0.0000000000002274
 37
0.0000000000000568
 40
1471.914870497458
 41
1.89041095890411
 42
50.0
 43
0.0
 44
0.0
 50
0.0
 51
360.0
 71
    16
 72
  1000
 73
     1
 74
     3
 75
     0
 76
     0
 77
     0
 78
     0
  0
ENDTAB
  0
TABLE
  2
LTYPE
 70
     1
  0
LTYPE
  2
CONTINUOUS
 70
     0
  3
Solid line
 72
    65
 73
     0
 40
0.0
  0
ENDTAB
  0
TABLE
  2
LAYER
 70
     1
  0
LAYER
  2
0
 70
     0
 62
     7
  6
CONTINUOUS
  0
ENDTAB
  0
TABLE
  2
STYLE
 70
     2
  0
STYLE
  2
STANDARD
 70
     0
 40
0.0
 41
1.0
 50
0.0
 71
     0
 42
2.5
  3
arial.ttf
  4

  0
STYLE
  2
ANNOTATIVE
 70
     0
 40
0.0
 41
1.0
 50
0.0
 71
     0
 42
2.5
  3
arial.ttf
  4

  0
ENDTAB
  0
TABLE
  2
VIEW
 70
     0
  0
ENDTAB
  0
TABLE
  2
UCS
 70
     0
  0
ENDTAB
  0
TABLE
  2
APPID
 70
     2
  0
APPID
  2
ACAD
 70
     0
  0
APPID
  2
ACADANNOTATIVE
 70
     0
  0
ENDTAB
  0
TABLE
  2
DIMSTYLE
 70
     2
  0
DIMSTYLE
  2
ISO-25
 70
     0
  3

  4

  5

  6

  7

 40
1.0
 41
2.5
 42
0.625
 43
3.75
 44
1.25
 45
0.0
 46
0.0
 47
0.0
 48
0.0
140
2.5
141
-2.5
142
0.0
143
0.03937007874016
144
1.0
145
0.0
146
1.0
147
0.625
 71
     0
 72
     0
 73
     0
 74
     0
 75
     0
 76
     0
 77
     1
 78
     8
170
     0
171
     3
172
     1
173
     0
174
     0
175
     0
176
     0
177
     0
178
     0
  0
DIMSTYLE
  2
ANNOTATIVE
 70
     0
  3

  4

  5

  6

  7

 40
0.0
 41
2.5
 42
0.625
 43
3.75
 44
1.25
 45
0.0
 46
0.0
 47
0.0
 48
0.0
140
2.5
141
-2.5
142
0.0
143
0.03937007874016
144
1.0
145
0.0
146
1.0
147
0.625
 71
     0
 72
     0
 73
     0
 74
     0
 75
     0
 76
     0
 77
     1
 78
     8
170
     0
171
     3
172
     1
173
     0
174
     0
175
     0
176
     0
177
     0
178
     0
  0
ENDTAB
  0
ENDSEC
  0
SECTION
  2
BLOCKS
  0
BLOCK
  8
0
  2
$MODEL_SPACE
 70
     0
 10
0.0
 20
0.0
 30
0.0
  3
$MODEL_SPACE
  1

  0
ENDBLK
  5
21
  8
0
  0
BLOCK
 67
     1
  8
0
  2
$PAPER_SPACE
 70
     0
 10
0.0
 20
0.0
 30
0.0
  3
$PAPER_SPACE
  1

  0
ENDBLK
  5
1D
 67
     1
  8
0
  0
BLOCK
  8
0
  2
*X1
 70
     1
 10
0.0
 20
0.0
 30
0.0
  3
*X1
  1

  0
POLYLINE
  5
C54
  8
0
 66
     1
 10
0.0
 20
0.0
 30
0.0
 70
    64
 71
    13
 72
    11
  0
VERTEX
  5
C55
  8
0
 10
-2.423245772216007
 20
3.902375936497317
 30
-1.396034614047524
 70
   192
  0
VERTEX
  5
C56
  8
0
 10
-2.419123135027906
 20
3.89638382952
 30
-1.398232218079603
 70
   192
  0
VERTEX
  5
C57
  8
0
 10
-3.89638382478
 20
3.89638382952
 30
-1.00930495826
 70
   192
  0
VERTEX
  5
C58
  8
0
 10
-1.326198326282692
 20
3.899825891495833
 30
-2.462239103260539
 70
   192
  0
VERTEX
  5
C59
  8
0
 10
-1.324893746678812
 20
3.89638382952
 30
-2.46417105525122
 70
   192
  0
VERTEX
  5
C5A
  8
0
 10
-0.8974127512869413
 20
3.89638413966481
 30
-3.930739689052097
 70
   192
  0
VERTEX
  5
C5B
  8
0
 10
-0.897412751482511
 20
3.89638382952
 30
-3.93073968905722
 70
   192
  0
VERTEX
  5
C5C
  8
0
 10
-3.898714796275376
 20
3.89638382952
 30
-1.009305863831488
 70
   192
  0
VERTEX
  5
C5D
  8
0
 10
-3.901045766363511
 20
3.89638382952
 30
-1.009308580545408
 70
   192
  0
VERTEX
  5
C5E
  8
0
 10
-3.903376733637165
 20
3.89638382952
 30
-1.009313108400118
 70
   192
  0
VERTEX
  5
C5F
  8
0
 10
-3.903376749878721
 20
3.898712002847243
 30
-1.009314051023581
 70
   192
  0
VERTEX
  5
C60
  8
0
 10
-3.903376761572074
 20
3.901040179657173
 30
-1.009316730844362
 70
   192
  0
VERTEX
  5
C61
  8
0
 10
-3.903376768503443
 20
3.903368358583931
 30
-1.009321239122205
 70
   192
  0
VERTEX
  5
C62
  8
0
 10
0.0
 20
0.0
 30
0.0
 70
   128
 71
     1
 72
     2
 73
     3
  0
VERTEX
  5
C63
  8
0
 10
0.0
 20
0.0
 30
0.0
 70
   128
 71
     4
 72
     5
 73
     2
  0
VERTEX
  5
C64
  8
0
 10
0.0
 20
0.0
 30
0.0
 70
   128
 71
     1
 72
     4
 73
     2
  0
VERTEX
  5
C65
  8
0
 10
0.0
 20
0.0
 30
0.0
 70
   128
 71
     6
 72
     7
 73
     5
  0
VERTEX
  5
C66
  8
0
 10
0.0
 20
0.0
 30
0.0
 70
   128
 71
     4
 72
     6
 73
     5
  0
VERTEX
  5
C67
  8
0
 10
0.0
 20
0.0
 30
0.0
 70
   128
 71
     8
 72
     9
 73
     3
  0
VERTEX
  5
C68
  8
0
 10
0.0
 20
0.0
 30
0.0
 70
   128
 71
     9
 72
    10
 73
    11
  0
VERTEX
  5
C69
  8
0
 10
0.0
 20
0.0
 30
0.0
 70
   128
 71
    11
 72
    12
 73
     9
  0
VERTEX
  5
C6A
  8
0
 10
0.0
 20
0.0
 30
0.0
 70
   128
 71
    12
 72
     3
 73
     9
  0
VERTEX
  5
C6B
  8
0
 10
0.0
 20
0.0
 30
0.0
 70
   128
 71
    12
 72
    13
 73
     3
  0
VERTEX
  5
C6C
  8
0
 10
0.0
 20
0.0
 30
0.0
 70
   128
 71
    13
 72
     1
 73
     3
  0
SEQEND
  5
1766
  8
0
  0
POLYLINE
  5
C6D
  8
0
 66
     1
 10
0.0
 20
0.0
 30
0.0
 70
    64
 71
    13
 72
    11
  0
VERTEX
  5
C6E
  8
0
 10
-1.391764512263181
 20
897.0029590122275
 30
-3.891852669852955
 70
   192
  0
VERTEX
  5
C6F
  8
0
 10
-0.8974237845066129
 20
895.3557996804512
 30
-3.93031834735699
 70
   192
  0
VERTEX
  5
C70
  8
0
 10
-0.8974238384989395
 20
895.3557996
 30
-3.930316285548627
 70
   192
  0
VERTEX
  5
C71
  8
0
 10
-1.324894565929669
 20
895.3557996
 30
-2.463733789502084
 70
   192
  0
VERTEX
  5
C72
  8
0
 10
-2.419125677846486
 20
895.3557996
 30
-1.397781767020044
 70
   192
  0
VERTEX
  5
C73
  8
0
 10
-3.8963957594
 20
895.3557996
 30
-1.0088491936
 70
   192
  0
VERTEX
  5
C74
  8
0
 10
-4.158716889059913
 20
896.810205542535
 30
-1.398282411388735
 70
   192
  0
VERTEX
  5
C75
  8
0
 10
-4.346451096052942
 20
897.8876983389434
 30
-2.464141821168705
 70
   192
  0
VERTEX
  5
C76
  8
0
 10
-3.898597266239815
 20
895.3557996
 30
-1.00885000137217
 70
   192
  0
VERTEX
  5
C77
  8
0
 10
-3.900798771894086
 20
895.3557996
 30
-1.008852424688244
 70
   192
  0
VERTEX
  5
C78
  8
0
 10
-3.903000275177269
 20
895.3557996
 30
-1.008856463546917
 70
   192
  0
VERTEX
  5
C79
  8
0
 10
-2.709568502875858
 20
898.1085714533874
 30
-3.891852670790788
 70
   192
  0
VERTEX
  5
C7A
  8
0
 10
-4.417573105129247
 20
898.3091378931309
 30
-3.93031834991368
 70
   192
  0
VERTEX
  5
C7B
  8
0
 10
0.0
 20
0.0
 30
0.0
 70
   128
 71
     1
 72
     2
 73
     3
  0
VERTEX
  5
C7C
  8
0
 10
0.0
 20
0.0
 30
0.0
 70
   128
 71
     3
 72
     4
 73
     1
  0
VERTEX
  5
C7D
  8
0
 10
0.0
 20
0.0
 30
0.0
 70
   128
 71
     5
 72
     6
 73
     1
  0
VERTEX
  5
C7E
  8
0
 10
0.0
 20
0.0
 30
0.0
 70
   128
 71
     4
 72
     5
 73
     1
  0
VERTEX
  5
C7F
  8
0
 10
0.0
 20
0.0
 30
0.0
 70
   128
 71
     7
 72
     8
 73
     6
  0
VERTEX
  5
C80
  8
0
 10
0.0
 20
0.0
 30
0.0
 70
   128
 71
     9
 72
   -10
 73
     6
  0
VERTEX
  5
C81
  8
0
 10
0.0
 20
0.0
 30
0.0
 70
   128
 71
    10
 72
    11
 73
    -6
  0
VERTEX
  5
C82
  8
0
 10
0.0
 20
0.0
 30
0.0
 70
   128
 71
     6
 72
    12
 73
     1
  0
VERTEX
  5
C83
  8
0
 10
0.0
 20
0.0
 30
0.0
 70
   128
 71
     8
 72
    13
 73
    12
  0
VERTEX
  5
C84
  8
0
 10
0.0
 20
0.0
 30
0.0
 70
   128
 71
     6
 72
     8
 73
    12
  0
VERTEX
  5
C85
  8
0
 10
0.0
 20
0.0
 30
0.0
 70
   128
 71
     6
 72
    11
 73
     7
  0
SEQEND
  5
1767
  8
0
  0
POLYLINE
  5
C86
  8
0
 66
     1
 10
0.0
 20
0.0
 30
0.0
 70
    64
 71
    13
 72
    11
  0
VERTEX
  5
C87
  8
0
 10
-1696.09633682877
 20
3.901254888978727
 30
-1.009814695374023
 70
   192
  0
VERTEX
  5
C88
  8
0
 10
-1696.096336842268
 20
3.898812852673953
 30
-1.009811746134434
 70
   192
  0
VERTEX
  5
C89
  8
0
 10
-1696.10362919
 20
3.89637082012
 30
-1.009801847809999
 70
   192
  0
VERTEX
  5
C8A
  8
0
 10
-1696.09633686127
 20
3.89637082012
 30
-1.00981080825482
 70
   192
  0
VERTEX
  5
C8B
  8
0
 10
-1696.098767634696
 20
3.89637082012
 30
-1.009805786932582
 70
   192
  0
VERTEX
  5
C8C
  8
0
 10
-1696.10119841155
 20
3.89637082012
 30
-1.009802832590807
 70
   192
  0
VERTEX
  5
C8D
  8
0
 10
-1697.580890195824
 20
3.89637082012
 30
-1.398729286452887
 70
   192
  0
VERTEX
  5
C8E
  8
0
 10
-1698.67511964218
 20
3.89637082012
 30
-2.464668567362003
 70
   192
  0
VERTEX
  5
C8F
  8
0
 10
-1697.774249048816
 20
3.902348790143778
 30
-1.517389759205308
 70
   192
  0
VERTEX
  5
C90
  8
0
 10
-1698.888709378543
 20
3.898685327265302
 30
-2.89439469821554
 70
   192
  0
VERTEX
  5
C91
  8
0
 10
-1699.102600291828
 20
3.89637082012
 30
-3.9312376676888
 70
   192
  0
VERTEX
  5
C92
  8
0
 10
-1699.102600288521
 20
3.896370951212924
 30
-3.931237667775436
 70
   192
  0
VERTEX
  5
C93
  8
0
 10
-1696.09633682078
 20
3.903696927458084
 30
-1.009819656279118
 70
   192
  0
VERTEX
  5
C94
  8
0
 10
0.0
 20
0.0
 30
0.0
 70
   128
 71
     1
 72
     2
 73
     3
  0
VERTEX
  5
C95
  8
0
 10
0.0
 20
0.0
 30
0.0
 70
   128
 71
     2
 72
     4
 73
     5
  0
VERTEX
  5
C96
  8
0
 10
0.0
 20
0.0
 30
0.0
 70
   128
 71
     5
 72
     6
 73
     2
  0
VERTEX
  5
C97
  8
0
 10
0.0
 20
0.0
 30
0.0
 70
   128
 71
     6
 72
     3
 73
     2
  0
VERTEX
  5
C98
  8
0
 10
0.0
 20
0.0
 30
0.0
 70
   128
 71
     7
 72
     8
 73
     9
  0
VERTEX
  5
C99
  8
0
 10
0.0
 20
0.0
 30
0.0
 70
   128
 71
     8
 72
    10
 73
     9
  0
VERTEX
  5
C9A
  8
0
 10
0.0
 20
0.0
 30
0.0
 70
   128
 71
    11
 72
    12
 73
    10
  0
VERTEX
  5
C9B
  8
0
 10
0.0
 20
0.0
 30
0.0
 70
   128
 71
    10
 72
     8
 73
    11
  0
VERTEX
  5
C9C
  8
0
 10
0.0
 20
0.0
 30
0.0
 70
   128
 71
     3
 72
    13
 73
     1
  0
VERTEX
  5
C9D
  8
0
 10
0.0
 20
0.0
 30
0.0
 70
   128
 71
     9
 72
    13
 73
     3
  0
VERTEX
  5
C9E
  8
0
 10
0.0
 20
0.0
 30
0.0
 70
   128
 71
     3
 72
     7
 73
     9
  0
SEQEND
  5
1768
  8
0
  0
POLYLINE
  5
C9F
  8
0
 66
     1
 10
0.0
 20
0.0
 30
0.0
 70
    64
 71
    14
 72
    12
  0
VERTEX
  5
CA0
  8
0
 10
-0.1829110377245753
 20
3.899325770559547
 30
-2.522176434806099
 70
   192
  0
VERTEX
  5
CA1
  8
0
 10
-0.4677264477140186
 20
3.89638382952
 30
-1.949132977407181
 70
   192
  0
VERTEX
  5
CA2
  8
0
 10
0.1022445734085125
 20
3.89638382952
 30
-3.904562735635256
 70
   192
  0
VERTEX
  5
CA3
  8
0
 10
0.102244573408511
 20
3.896383944282445
 30
-3.904562735635255
 70
   192
  0
VERTEX
  5
CA4
  8
0
 10
-1.668517976750332
 20
3.903980333699127
 30
-0.687127724583916
 70
   192
  0
VERTEX
  5
CA5
  8
0
 10
-1.926699576405563
 20
3.89638382952
 30
-0.5278765212954211
 70
   192
  0
VERTEX
  5
CA6
  8
0
 10
-3.902617008766928
 20
3.89638382952
 30
-0.0093098148357749
 70
   192
  0
VERTEX
  5
CA7
  8
0
 10
-3.899500417719462
 20
3.89638382952
 30
-0.0093061724041275
 70
   192
  0
VERTEX
  5
CA8
  8
0
 10
-3.905733783689941
 20
3.899488066891486
 30
-0.0093167343291354
 70
   192
  0
VERTEX
  5
CA9
  8
0
 10
-3.905733596862737
 20
3.89638382952
 30
-0.0093155294666354
 70
   192
  0
VERTEX
  5
CAA
  8
0
 10
-3.905733964885677
 20
3.902592302393477
 30
-0.0093203482570265
 70
   192
  0
VERTEX
  5
CAB
  8
0
 10
-3.896383824779999
 20
3.89638382952
 30
-0.0093049582599996
 70
   192
  0
VERTEX
  5
CAC
  8
0
 10
-3.905734140449835
 20
3.905696534156392
 30
-0.0093263712481324
 70
   192
  0
VERTEX
  5
CAD
  8
0
 10
-3.90570774974459
 20
3.905696534938575
 30
-0.0093266660762736
 70
   192
  0
VERTEX
  5
CAE
  8
0
 10
0.0
 20
0.0
 30
0.0
 70
   128
 71
     1
 72
     2
 73
     3
  0
VERTEX
  5
CAF
  8
0
 10
0.0
 20
0.0
 30
0.0
 70
   128
 71
     3
 72
     4
 73
     1
  0
VERTEX
  5
CB0
  8
0
 10
0.0
 20
0.0
 30
0.0
 70
   128
 71
     5
 72
     6
 73
     2
  0
VERTEX
  5
CB1
  8
0
 10
0.0
 20
0.0
 30
0.0
 70
   128
 71
     2
 72
     1
 73
     5
  0
VERTEX
  5
CB2
  8
0
 10
0.0
 20
0.0
 30
0.0
 70
   128
 71
     7
 72
     8
 73
     9
  0
VERTEX
  5
CB3
  8
0
 10
0.0
 20
0.0
 30
0.0
 70
   128
 71
     9
 72
    10
 73
     7
  0
VERTEX
  5
CB4
  8
0
 10
0.0
 20
0.0
 30
0.0
 70
   128
 71
     8
 72
    11
 73
     9
  0
VERTEX
  5
CB5
  8
0
 10
0.0
 20
0.0
 30
0.0
 70
   128
 71
     8
 72
    12
 73
    11
  0
VERTEX
  5
CB6
  8
0
 10
0.0
 20
0.0
 30
0.0
 70
   128
 71
    12
 72
    13
 73
    11
  0
VERTEX
  5
CB7
  8
0
 10
0.0
 20
0.0
 30
0.0
 70
   128
 71
    12
 72
    14
 73
    13
  0
VERTEX
  5
CB8
  8
0
 10
0.0
 20
0.0
 30
0.0
 70
   128
 71
     6
 72
     5
 73
    12
  0
VERTEX
  5
CB9
  8
0
 10
0.0
 20
0.0
 30
0.0
 70
   128
 71
    12
 72
     5
 73
    14
  0
SEQEND
  5
1769
  8
0
  0
POLYLINE
  5
CBA
  8
0
 66
     1
 10
0.0
 20
0.0
 30
0.0
 70
    64
 71
    13
 72
    11
  0
VERTEX
  5
CBB
  8
0
 10
0.1022334864549013
 20
895.3557996
 30
-3.904139336404672
 70
   192
  0
VERTEX
  5
CBC
  8
0
 10
0.1022335404446238
 20
895.3557997072572
 30
-3.904141398213103
 70
   192
  0
VERTEX
  5
CBD
  8
0
 10
-0.5568874299146995
 20
897.5520121496189
 30
-3.852853828208381
 70
   192
  0
VERTEX
  5
CBE
  8
0
 10
-0.4677272655146627
 20
895.3557996
 30
-1.948695714114053
 70
   192
  0
VERTEX
  5
CBF
  8
0
 10
-3.896395759399999
 20
895.3557996
 30
-0.0088491935999997
 70
   192
  0
VERTEX
  5
CC0
  8
0
 10
-4.496499778849581
 20
898.731813219013
 30
-1.94913873041785
 70
   192
  0
VERTEX
  5
CC1
  8
0
 10
-4.246175838117821
 20
897.2951044846876
 30
-0.5279368958858965
 70
   192
  0
VERTEX
  5
CC2
  8
0
 10
-3.902266442391793
 20
895.3557996
 30
-0.0088535017171685
 70
   192
  0
VERTEX
  5
CC3
  8
0
 10
-3.899331101686259
 20
895.3557996
 30
-0.0088502706294369
 70
   192
  0
VERTEX
  5
CC4
  8
0
 10
-3.905201779922056
 20
895.3557996
 30
-0.0088588931431377
 70
   192
  0
VERTEX
  5
CC5
  8
0
 10
-1.926702117985652
 20
895.3557996
 30
-0.5274260709428464
 70
   192
  0
VERTEX
  5
CC6
  8
0
 10
-2.313959417408457
 20
899.0261620711511
 30
-3.85285382945954
 70
   192
  0
VERTEX
  5
CC7
  8
0
 10
-4.591298887358398
 20
899.2935839923643
 30
-3.90414140155523
 70
   192
  0
VERTEX
  5
CC8
  8
0
 10
0.0
 20
0.0
 30
0.0
 70
   128
 71
     1
 72
     2
 73
     3
  0
VERTEX
  5
CC9
  8
0
 10
0.0
 20
0.0
 30
0.0
 70
   128
 71
     4
 72
     1
 73
     3
  0
VERTEX
  5
CCA
  8
0
 10
0.0
 20
0.0
 30
0.0
 70
   128
 71
     5
 72
     6
 73
     7
  0
VERTEX
  5
CCB
  8
0
 10
0.0
 20
0.0
 30
0.0
 70
   128
 71
     8
 72
     9
 73
    -5
  0
VERTEX
  5
CCC
  8
0
 10
0.0
 20
0.0
 30
0.0
 70
   128
 71
     5
 72
    10
 73
    -8
  0
VERTEX
  5
CCD
  8
0
 10
0.0
 20
0.0
 30
0.0
 70
   128
 71
    11
 72
     4
 73
     3
  0
VERTEX
  5
CCE
  8
0
 10
0.0
 20
0.0
 30
0.0
 70
   128
 71
    11
 72
     3
 73
    12
  0
VERTEX
  5
CCF
  8
0
 10
0.0
 20
0.0
 30
0.0
 70
   128
 71
    11
 72
    12
 73
     5
  0
VERTEX
  5
CD0
  8
0
 10
0.0
 20
0.0
 30
0.0
 70
   128
 71
    12
 72
    13
 73
     6
  0
VERTEX
  5
CD1
  8
0
 10
0.0
 20
0.0
 30
0.0
 70
   128
 71
    12
 72
     6
 73
     5
  0
VERTEX
  5
CD2
  8
0
 10
0.0
 20
0.0
 30
0.0
 70
   128
 71
     7
 72
    10
 73
     5
  0
SEQEND
  5
176A
  8
0
  0
POLYLINE
  5
CD3
  8
0
 66
     1
 10
0.0
 20
0.0
 30
0.0
 70
    64
 71
    14
 72
    12
  0
VERTEX
  5
CD4
  8
0
 10
-1696.10362919
 20
3.89637082012
 30
-0.0098018478099995
 70
   192
  0
VERTEX
  5
CD5
  8
0
 10
-1696.093875730579
 20
3.899626870467232
 30
-0.0098145499625901
 70
   192
  0
VERTEX
  5
CD6
  8
0
 10
-1696.093875532059
 20
3.90288291865709
 30
-0.0098185259850219
 70
   192
  0
VERTEX
  5
CD7
  8
0
 10
-1696.097127017631
 20
3.89637082012
 30
-0.00980713259418
 70
   192
  0
VERTEX
  5
CD8
  8
0
 10
-1696.093875936816
 20
3.89637082012
 30
-0.0098137385711321
 70
   192
  0
VERTEX
  5
CD9
  8
0
 10
-1696.100378102742
 20
3.89637082012
 30
-0.0098031690062625
 70
   192
  0
VERTEX
  5
CDA
  8
0
 10
-1696.093875340001
 20
3.906138962532064
 30
-0.0098251524623381
 70
   192
  0
VERTEX
  5
CDB
  8
0
 10
-1696.09390603104
 20
3.906138963237445
 30
-0.0098255924354868
 70
   192
  0
VERTEX
  5
CDC
  8
0
 10
-1698.067680972226
 20
3.904753491456533
 30
-0.5251706553500012
 70
   192
  0
VERTEX
  5
CDD
  8
0
 10
-1698.073313755947
 20
3.89637082012
 30
-0.5283735905179969
 70
   192
  0
VERTEX
  5
CDE
  8
0
 10
-1699.530625530193
 20
3.901186610293056
 30
-1.946842633940698
 70
   192
  0
VERTEX
  5
CDF
  8
0
 10
-1700.10225761685
 20
3.896370951212475
 30
-3.90506071943757
 70
   192
  0
VERTEX
  5
CE0
  8
0
 10
-1700.102257616852
 20
3.89637082012
 30
-3.905060719437517
 70
   192
  0
VERTEX
  5
CE1
  8
0
 10
-1699.53228694292
 20
3.89637082012
 30
-1.949630492474385
 70
   192
  0
VERTEX
  5
CE2
  8
0
 10
0.0
 20
0.0
 30
0.0
 70
   128
 71
     1
 72
     2
 73
     3
  0
VERTEX
  5
CE3
  8
0
 10
0.0
 20
0.0
 30
0.0
 70
   128
 71
     1
 72
     4
 73
     2
  0
VERTEX
  5
CE4
  8
0
 10
0.0
 20
0.0
 30
0.0
 70
   128
 71
     4
 72
     5
 73
     2
  0
VERTEX
  5
CE5
  8
0
 10
0.0
 20
0.0
 30
0.0
 70
   128
 71
     1
 72
     6
 73
     4
  0
VERTEX
  5
CE6
  8
0
 10
0.0
 20
0.0
 30
0.0
 70
   128
 71
     1
 72
     7
 73
     8
  0
VERTEX
  5
CE7
  8
0
 10
0.0
 20
0.0
 30
0.0
 70
   128
 71
     9
 72
    10
 73
     1
  0
VERTEX
  5
CE8
  8
0
 10
0.0
 20
0.0
 30
0.0
 70
   128
 71
    11
 72
    12
 73
    13
  0
VERTEX
  5
CE9
  8
0
 10
0.0
 20
0.0
 30
0.0
 70
   128
 71
    11
 72
    13
 73
    14
  0
VERTEX
  5
CEA
  8
0
 10
0.0
 20
0.0
 30
0.0
 70
   128
 71
    14
 72
    10
 73
     9
  0
VERTEX
  5
CEB
  8
0
 10
0.0
 20
0.0
 30
0.0
 70
   128
 71
    14
 72
     9
 73
    11
  0
VERTEX
  5
CEC
  8
0
 10
0.0
 20
0.0
 30
0.0
 70
   128
 71
     3
 72
     7
 73
     1
  0
VERTEX
  5
CED
  8
0
 10
0.0
 20
0.0
 30
0.0
 70
   128
 71
     1
 72
     8
 73
     9
  0
SEQEND
  5
176B
  8
0
  0
POLYLINE
  5
CEE
  8
0
 66
     1
 10
0.0
 20
0.0
 30
0.0
 70
    64
 71
    13
 72
    11
  0
VERTEX
  5
CEF
  8
0
 10
-1697.575474576874
 20
596.7244065990546
 30
-1.396523066140202
 70
   192
  0
VERTEX
  5
CF0
  8
0
 10
-1697.58092067921
 20
596.731033822
 30
-1.399408980140639
 70
   192
  0
VERTEX
  5
CF1
  8
0
 10
-1696.10364679
 20
596.731033822
 30
-1.01047425245
 70
   192
  0
VERTEX
  5
CF2
  8
0
 10
-1698.673442499204
 20
596.7272244325341
 30
-2.462816253943918
 70
   192
  0
VERTEX
  5
CF3
  8
0
 10
-1698.675152489869
 20
596.731033822
 30
-2.465366348276422
 70
   192
  0
VERTEX
  5
CF4
  8
0
 10
-1699.102619062449
 20
596.7310339375982
 30
-3.931954464177352
 70
   192
  0
VERTEX
  5
CF5
  8
0
 10
-1696.095309682856
 20
596.7284609584837
 30
-1.010487925220627
 70
   192
  0
VERTEX
  5
CF6
  8
0
 10
-1696.101019157087
 20
596.731033822
 30
-1.010475403192675
 70
   192
  0
VERTEX
  5
CF7
  8
0
 10
-1696.098391526191
 20
596.731033822
 30
-1.010478855419816
 70
   192
  0
VERTEX
  5
CF8
  8
0
 10
-1696.095763899325
 20
596.731033822
 30
-1.010484609128776
 70
   192
  0
VERTEX
  5
CF9
  8
0
 10
-1696.095763900911
 20
596.7310342250587
 30
-1.010485212598
 70
   192
  0
VERTEX
  5
CFA
  8
0
 10
-1696.094855635358
 20
596.7258876528525
 30
-1.010492375757956
 70
   192
  0
VERTEX
  5
CFB
  8
0
 10
-1696.094401936407
 20
596.7233142706922
 30
-1.010498429012478
 70
   192
  0
VERTEX
  5
CFC
  8
0
 10
0.0
 20
0.0
 30
0.0
 70
   128
 71
     1
 72
     2
 73
     3
  0
VERTEX
  5
CFD
  8
0
 10
0.0
 20
0.0
 30
0.0
 70
   128
 71
     4
 72
     5
 73
     2
  0
VERTEX
  5
CFE
  8
0
 10
0.0
 20
0.0
 30
0.0
 70
   128
 71
     1
 72
     4
 73
     2
  0
VERTEX
  5
CFF
  8
0
 10
0.0
 20
0.0
 30
0.0
 70
   128
 71
     4
 72
     6
 73
     5
  0
VERTEX
  5
D00
  8
0
 10
0.0
 20
0.0
 30
0.0
 70
   128
 71
     7
 72
     3
 73
     8
  0
VERTEX
  5
D01
  8
0
 10
0.0
 20
0.0
 30
0.0
 70
   128
 71
     8
 72
     9
 73
     7
  0
VERTEX
  5
D02
  8
0
 10
0.0
 20
0.0
 30
0.0
 70
   128
 71
     9
 72
    10
 73
     7
  0
VERTEX
  5
D03
  8
0
 10
0.0
 20
0.0
 30
0.0
 70
   128
 71
    10
 72
    11
 73
     7
  0
VERTEX
  5
D04
  8
0
 10
0.0
 20
0.0
 30
0.0
 70
   128
 71
     7
 72
    12
 73
     3
  0
VERTEX
  5
D05
  8
0
 10
0.0
 20
0.0
 30
0.0
 70
   128
 71
    12
 72
    13
 73
     3
  0
VERTEX
  5
D06
  8
0
 10
0.0
 20
0.0
 30
0.0
 70
   128
 71
     3
 72
    13
 73
     1
  0
SEQEND
  5
176C
  8
0
  0
POLYLINE
  5
D07
  8
0
 66
     1
 10
0.0
 20
0.0
 30
0.0
 70
    64
 71
    12
 72
    10
  0
VERTEX
  5
D08
  8
0
 10
-1696.100143272923
 20
596.731033822
 30
-0.0104757867792826
 70
   192
  0
VERTEX
  5
D09
  8
0
 10
-1696.096639758535
 20
596.731033822
 30
-0.0104803897659531
 70
   192
  0
VERTEX
  5
D0A
  8
0
 10
-1696.10364679
 20
596.731033822
 30
-0.0104742524499963
 70
   192
  0
VERTEX
  5
D0B
  8
0
 10
-1696.694422041894
 20
600.1081083090019
 30
-1.949807124271107
 70
   192
  0
VERTEX
  5
D0C
  8
0
 10
-1696.798549930137
 20
600.6688182027679
 30
-3.905766687989572
 70
   192
  0
VERTEX
  5
D0D
  8
0
 10
-1698.49114610354
 20
599.9376156601594
 30
-3.877508644170172
 70
   192
  0
VERTEX
  5
D0E
  8
0
 10
-1699.532319790851
 20
596.731033822
 30
-1.950328273826574
 70
   192
  0
VERTEX
  5
D0F
  8
0
 10
-1698.073344239548
 20
596.731033822
 30
-0.5290532843326896
 70
   192
  0
VERTEX
  5
D10
  8
0
 10
-1699.67634831661
 20
598.5249468401391
 30
-3.877508645344295
 70
   192
  0
VERTEX
  5
D11
  8
0
 10
-1700.102276099987
 20
596.7310336630002
 30
-3.905766691235822
 70
   192
  0
VERTEX
  5
D12
  8
0
 10
-1696.093136249521
 20
596.731033822
 30
-0.0104880614064808
 70
   192
  0
VERTEX
  5
D13
  8
0
 10
-1696.437024536294
 20
598.671255140971
 30
-0.5284642681632663
 70
   192
  0
VERTEX
  5
D14
  8
0
 10
0.0
 20
0.0
 30
0.0
 70
   128
 71
     1
 72
    -2
 73
     3
  0
VERTEX
  5
D15
  8
0
 10
0.0
 20
0.0
 30
0.0
 70
   128
 71
     4
 72
     5
 73
     6
  0
VERTEX
  5
D16
  8
0
 10
0.0
 20
0.0
 30
0.0
 70
   128
 71
     7
 72
     8
 73
     9
  0
VERTEX
  5
D17
  8
0
 10
0.0
 20
0.0
 30
0.0
 70
   128
 71
     9
 72
    10
 73
     7
  0
VERTEX
  5
D18
  8
0
 10
0.0
 20
0.0
 30
0.0
 70
   128
 71
    -3
 72
     2
 73
    11
  0
VERTEX
  5
D19
  8
0
 10
0.0
 20
0.0
 30
0.0
 70
   128
 71
     3
 72
    11
 73
    12
  0
VERTEX
  5
D1A
  8
0
 10
0.0
 20
0.0
 30
0.0
 70
   128
 71
    12
 72
     4
 73
     6
  0
VERTEX
  5
D1B
  8
0
 10
0.0
 20
0.0
 30
0.0
 70
   128
 71
    12
 72
     6
 73
     9
  0
VERTEX
  5
D1C
  8
0
 10
0.0
 20
0.0
 30
0.0
 70
   128
 71
    12
 72
     9
 73
     8
  0
VERTEX
  5
D1D
  8
0
 10
0.0
 20
0.0
 30
0.0
 70
   128
 71
    12
 72
     8
 73
     3
  0
SEQEND
  5
176D
  8
0
  0
POLYLINE
  5
D1E
  8
0
 66
     1
 10
0.0
 20
0.0
 30
0.0
 70
    64
 71
     4
 72
     2
  0
VERTEX
  5
D1F
  8
0
 10
-2.951192437132249
 20
-1.047436862768136
 30
-40.0
 70
   192
  0
VERTEX
  5
D20
  8
0
 10
-275.9153323296441
 20
-1.047436862768136
 30
-40.0
 70
   192
  0
VERTEX
  5
D21
  8
0
 10
-264.4983538174081
 20
-0.0477795377926924
 30
-40.02617694830789
 70
   192
  0
VERTEX
  5
D22
  8
0
 10
-2.951192437131567
 20
-0.0477795377925791
 30
-40.02617694830789
 70
   192
  0
VERTEX
  5
D23
  8
0
 10
0.0
 20
0.0
 30
0.0
 70
   128
 71
     1
 72
     2
 73
    -3
  0
VERTEX
  5
D24
  8
0
 10
0.0
 20
0.0
 30
0.0
 70
   128
 71
     3
 72
     4
 73
    -1
  0
SEQEND
  5
176E
  8
0
  0
POLYLINE
  5
D25
  8
0
 66
     1
 10
0.0
 20
0.0
 30
0.0
 70
    64
 71
     4
 72
     2
  0
VERTEX
  5
D26
  8
0
 10
0.0477795377925791
 20
2.951192437134011
 30
-40.02617694830789
 70
   192
  0
VERTEX
  5
D27
  8
0
 10
0.0477795377925791
 20
46.63683223076021
 30
-40.02617694830789
 70
   192
  0
VERTEX
  5
D28
  8
0
 10
1.047436862768123
 20
47.82834593587988
 30
-40.0
 70
   192
  0
VERTEX
  5
D29
  8
0
 10
1.047436862768136
 20
2.951192437133333
 30
-40.0
 70
   192
  0
VERTEX
  5
D2A
  8
0
 10
0.0
 20
0.0
 30
0.0
 70
   128
 71
     3
 72
     4
 73
    -1
  0
VERTEX
  5
D2B
  8
0
 10
0.0
 20
0.0
 30
0.0
 70
   128
 71
     2
 72
    -3
 73
     1
  0
SEQEND
  5
176F
  8
0
  0
POLYLINE
  5
D2C
  8
0
 66
     1
 10
0.0
 20
0.0
 30
0.0
 70
    64
 71
     7
 72
     5
  0
VERTEX
  5
D2D
  8
0
 10
-1700.102276383409
 20
596.7310340478316
 30
-3.90577751355287
 70
   192
  0
VERTEX
  5
D2E
  8
0
 10
-1700.473807819895
 20
597.0427418537183
 30
-18.09399068474524
 70
   192
  0
VERTEX
  5
D2F
  8
0
 10
-1700.874814798111
 20
3.12381449985287
 30
-33.4078293839499
 70
   192
  0
VERTEX
  5
D30
  8
0
 10
-1700.102257614003
 20
3.896371685672274
 30
-3.905060738744632
 70
   192
  0
VERTEX
  5
D31
  8
0
 10
-1700.108050413191
 20
204.0524075128939
 30
-4.126278782096904
 70
   192
  0
VERTEX
  5
D32
  8
0
 10
-1700.108143082838
 20
397.7163491903227
 30
-4.129817684895987
 70
   192
  0
VERTEX
  5
D33
  8
0
 10
-1700.10227638324
 20
596.7310339008318
 30
-3.9057775167868
 70
   192
  0
VERTEX
  5
D34
  8
0
 10
0.0
 20
0.0
 30
0.0
 70
   128
 71
     3
 72
     4
 73
    -5
  0
VERTEX
  5
D35
  8
0
 10
0.0
 20
0.0
 30
0.0
 70
   128
 71
     5
 72
    -6
 73
    -3
  0
VERTEX
  5
D36
  8
0
 10
0.0
 20
0.0
 30
0.0
 70
   128
 71
    -6
 72
     2
 73
    -3
  0
VERTEX
  5
D37
  8
0
 10
0.0
 20
0.0
 30
0.0
 70
   128
 71
     6
 72
    -7
 73
    -2
  0
VERTEX
  5
D38
  8
0
 10
0.0
 20
0.0
 30
0.0
 70
   128
 71
     7
 72
     1
 73
    -2
  0
SEQEND
  5
1770
  8
0
  0
POLYLINE
  5
D39
  8
0
 66
     1
 10
0.0
 20
0.0
 30
0.0
 70
    64
 71
     6
 72
     4
  0
VERTEX
  5
D3A
  8
0
 10
-4.591298887364811
 20
899.2935839925168
 30
-3.904141401568618
 70
   192
  0
VERTEX
  5
D3B
  8
0
 10
-4.221988427927224
 20
899.733773308304
 30
-18.00753885054241
 70
   192
  0
VERTEX
  5
D3C
  8
0
 10
-1697.167817825668
 20
600.9786269261854
 30
-18.00753885100377
 70
   192
  0
VERTEX
  5
D3D
  8
0
 10
-1696.798549929999
 20
600.6688182029995
 30
-3.905766687988056
 70
   192
  0
VERTEX
  5
D3E
  8
0
 10
-1134.349527489881
 20
699.9289567241427
 30
-4.072318055831953
 70
   192
  0
VERTEX
  5
D3F
  8
0
 10
-570.5097290906141
 20
799.430234211047
 30
-4.077454785660128
 70
   192
  0
VERTEX
  5
D40
  8
0
 10
0.0
 20
0.0
 30
0.0
 70
   128
 71
     3
 72
     4
 73
    -5
  0
VERTEX
  5
D41
  8
0
 10
0.0
 20
0.0
 30
0.0
 70
   128
 71
     5
 72
    -6
 73
    -3
  0
VERTEX
  5
D42
  8
0
 10
0.0
 20
0.0
 30
0.0
 70
   128
 71
    -6
 72
     2
 73
    -3
  0
VERTEX
  5
D43
  8
0
 10
0.0
 20
0.0
 30
0.0
 70
   128
 71
     6
 72
     1
 73
    -2
  0
SEQEND
  5
1771
  8
0
  0
POLYLINE
  5
D44
  8
0
 66
     1
 10
0.0
 20
0.0
 30
0.0
 70
    64
 71
     7
 72
     5
  0
VERTEX
  5
D45
  8
0
 10
1.047436862768136
 20
2.951192437133333
 30
-40.0
 70
   192
  0
VERTEX
  5
D46
  8
0
 10
1.047436862768136
 20
47.82834593587988
 30
-40.0
 70
   192
  0
VERTEX
  5
D47
  8
0
 10
0.4747601615302766
 20
895.7998223302307
 30
-18.13035910443681
 70
   192
  0
VERTEX
  5
D48
  8
0
 10
0.1022334865456042
 20
895.3557995356476
 30
-3.904139339749966
 70
   192
  0
VERTEX
  5
D49
  8
0
 10
0.1075445521316072
 20
600.5873945718917
 30
-4.106960751694869
 70
   192
  0
VERTEX
  5
D4A
  8
0
 10
0.1076197980554256
 20
302.5682617886359
 30
-4.109834277598946
 70
   192
  0
VERTEX
  5
D4B
  8
0
 10
0.102244573408511
 20
3.896383944282445
 30
-3.904562735635255
 70
   192
  0
VERTEX
  5
D4C
  8
0
 10
0.0
 20
0.0
 30
0.0
 70
   128
 71
     3
 72
     4
 73
    -5
  0
VERTEX
  5
D4D
  8
0
 10
0.0
 20
0.0
 30
0.0
 70
   128
 71
     2
 72
    -3
 73
    -5
  0
VERTEX
  5
D4E
  8
0
 10
0.0
 20
0.0
 30
0.0
 70
   128
 71
     5
 72
    -6
 73
    -2
  0
VERTEX
  5
D4F
  8
0
 10
0.0
 20
0.0
 30
0.0
 70
   128
 71
     7
 72
     1
 73
    -2
  0
VERTEX
  5
D50
  8
0
 10
0.0
 20
0.0
 30
0.0
 70
   128
 71
     6
 72
    -7
 73
    -2
  0
SEQEND
  5
1772
  8
0
  0
POLYLINE
  5
D51
  8
0
 66
     1
 10
0.0
 20
0.0
 30
0.0
 70
    64
 71
     7
 72
     5
  0
VERTEX
  5
D52
  8
0
 10
-1696.10362918
 20
-0.1022584840629893
 30
-3.905093956399591
 70
   192
  0
VERTEX
  5
D53
  8
0
 10
-1696.879363909933
 20
-0.8779932129348222
 30
-33.52920807514433
 70
   192
  0
VERTEX
  5
D54
  8
0
 10
-275.9153323296441
 20
-1.047436862768136
 30
-40.0
 70
   192
  0
VERTEX
  5
D55
  8
0
 10
-2.951192437132249
 20
-1.047436862768136
 30
-40.0
 70
   192
  0
VERTEX
  5
D56
  8
0
 10
-3.896383826570196
 20
-0.1022454733338037
 30
-3.904597096722533
 70
   192
  0
VERTEX
  5
D57
  8
0
 10
-566.7945030500864
 20
-0.1067376719180494
 30
-4.076147239501351
 70
   192
  0
VERTEX
  5
D58
  8
0
 10
-1128.879582929838
 20
-0.1067680299913376
 30
-4.077306567541485
 70
   192
  0
VERTEX
  5
D59
  8
0
 10
0.0
 20
0.0
 30
0.0
 70
   128
 71
     4
 72
     5
 73
    -6
  0
VERTEX
  5
D5A
  8
0
 10
0.0
 20
0.0
 30
0.0
 70
   128
 71
     3
 72
    -4
 73
    -6
  0
VERTEX
  5
D5B
  8
0
 10
0.0
 20
0.0
 30
0.0
 70
   128
 71
     6
 72
    -7
 73
    -3
  0
VERTEX
  5
D5C
  8
0
 10
0.0
 20
0.0
 30
0.0
 70
   128
 71
    -7
 72
     2
 73
    -3
  0
VERTEX
  5
D5D
  8
0
 10
0.0
 20
0.0
 30
0.0
 70
   128
 71
     7
 72
     1
 73
    -2
  0
SEQEND
  5
1773
  8
0
  0
POLYLINE
  5
D5E
  8
0
 66
     1
 10
0.0
 20
0.0
 30
0.0
 70
    64
 71
     9
 72
     7
  0
VERTEX
  5
D5F
  8
0
 10
-1699.67634831661
 20
598.5249468401391
 30
-3.877508645344295
 70
   192
  0
VERTEX
  5
D60
  8
0
 10
-1698.49114610354
 20
599.9376156601594
 30
-3.877508644170172
 70
   192
  0
VERTEX
  5
D61
  8
0
 10
-1698.833294276761
 20
600.2690422973335
 30
-18.01825810761904
 70
   192
  0
VERTEX
  5
D62
  8
0
 10
-1700.102276383409
 20
596.7310340478316
 30
-3.90577751355287
 70
   192
  0
VERTEX
  5
D63
  8
0
 10
-1700.102276099987
 20
596.7310336630002
 30
-3.905766691235822
 70
   192
  0
VERTEX
  5
D64
  8
0
 10
-1700.473807819895
 20
597.0427418537181
 30
-18.09399068474525
 70
   192
  0
VERTEX
  5
D65
  8
0
 10
-1700.06303417163
 20
598.8049982686625
 30
-18.05041587866499
 70
   192
  0
VERTEX
  5
D66
  8
0
 10
-1696.798549930001
 20
600.6688182020081
 30
-3.905766687962981
 70
   192
  0
VERTEX
  5
D67
  8
0
 10
-1697.167817828816
 20
600.97862694402
 30
-18.00753885052953
 70
   192
  0
VERTEX
  5
D68
  8
0
 10
0.0
 20
0.0
 30
0.0
 70
   128
 71
     1
 72
     2
 73
     3
  0
VERTEX
  5
D69
  8
0
 10
0.0
 20
0.0
 30
0.0
 70
   128
 71
     4
 72
     5
 73
     1
  0
VERTEX
  5
D6A
  8
0
 10
0.0
 20
0.0
 30
0.0
 70
   128
 71
     6
 72
     4
 73
     1
  0
VERTEX
  5
D6B
  8
0
 10
0.0
 20
0.0
 30
0.0
 70
   128
 71
     6
 72
     1
 73
     7
  0
VERTEX
  5
D6C
  8
0
 10
0.0
 20
0.0
 30
0.0
 70
   128
 71
     7
 72
     1
 73
     3
  0
VERTEX
  5
D6D
  8
0
 10
0.0
 20
0.0
 30
0.0
 70
   128
 71
     3
 72
     2
 73
     8
  0
VERTEX
  5
D6E
  8
0
 10
0.0
 20
0.0
 30
0.0
 70
   128
 71
     3
 72
     8
 73
     9
  0
SEQEND
  5
1774
  8
0
  0
POLYLINE
  5
D6F
  8
0
 66
     1
 10
0.0
 20
0.0
 30
0.0
 70
    64
 71
     9
 72
     7
  0
VERTEX
  5
D70
  8
0
 10
-1700.102258479399
 20
3.896370081380298
 30
-3.905093937179062
 70
   192
  0
VERTEX
  5
D71
  8
0
 10
-1700.102257614003
 20
3.896371685672274
 30
-3.905060738744632
 70
   192
  0
VERTEX
  5
D72
  8
0
 10
-1700.874814798112
 20
3.123814499852811
 30
-33.40782938394987
 70
   192
  0
VERTEX
  5
D73
  8
0
 10
-1700.365477064635
 20
1.166682996559183
 30
-33.46061670221955
 70
   192
  0
VERTEX
  5
D74
  8
0
 10
-1699.565630610014
 20
1.897846292144522
 30
-3.866812845279482
 70
   192
  0
VERTEX
  5
D75
  8
0
 10
-1698.102153067551
 20
0.4343690183053091
 30
-3.866812852313655
 70
   192
  0
VERTEX
  5
D76
  8
0
 10
-1698.834534877632
 20
-0.3666949428320242
 30
-33.50712553541608
 70
   192
  0
VERTEX
  5
D77
  8
0
 10
-1696.879363909933
 20
-0.8779932129340274
 30
-33.52920807514435
 70
   192
  0
VERTEX
  5
D78
  8
0
 10
-1696.10362918
 20
-0.1022584840629893
 30
-3.905093956399591
 70
   192
  0
VERTEX
  5
D79
  8
0
 10
0.0
 20
0.0
 30
0.0
 70
   128
 71
     1
 72
     2
 73
     3
  0
VERTEX
  5
D7A
  8
0
 10
0.0
 20
0.0
 30
0.0
 70
   128
 71
     1
 72
     3
 73
     4
  0
VERTEX
  5
D7B
  8
0
 10
0.0
 20
0.0
 30
0.0
 70
   128
 71
     1
 72
     4
 73
     5
  0
VERTEX
  5
D7C
  8
0
 10
0.0
 20
0.0
 30
0.0
 70
   128
 71
     6
 72
     5
 73
     4
  0
VERTEX
  5
D7D
  8
0
 10
0.0
 20
0.0
 30
0.0
 70
   128
 71
     6
 72
     4
 73
     7
  0
VERTEX
  5
D7E
  8
0
 10
0.0
 20
0.0
 30
0.0
 70
   128
 71
     6
 72
     7
 73
     8
  0
VERTEX
  5
D7F
  8
0
 10
0.0
 20
0.0
 30
0.0
 70
   128
 71
     6
 72
     8
 73
     9
  0
SEQEND
  5
1775
  8
0
  0
POLYLINE
  5
D80
  8
0
 66
     1
 10
0.0
 20
0.0
 30
0.0
 70
    64
 71
     9
 72
     7
  0
VERTEX
  5
D81
  8
0
 10
0.1022335404446238
 20
895.3557997072572
 30
-3.904141398213103
 70
   192
  0
VERTEX
  5
D82
  8
0
 10
0.1022334865456042
 20
895.3557995356476
 30
-3.904139339749966
 70
   192
  0
VERTEX
  5
D83
  8
0
 10
0.474760161530809
 20
895.7998223302305
 30
-18.13035910443679
 70
   192
  0
VERTEX
  5
D84
  8
0
 10
-0.1465953927875228
 20
897.937022319894
 30
-18.07241851361109
 70
   192
  0
VERTEX
  5
D85
  8
0
 10
-0.5568874299146995
 20
897.5520121496189
 30
-3.852853828208381
 70
   192
  0
VERTEX
  5
D86
  8
0
 10
-2.007384572491384
 20
899.4956012546661
 30
-18.02375876631117
 70
   192
  0
VERTEX
  5
D87
  8
0
 10
-2.313959417408457
 20
899.0261620711511
 30
-3.85285382945954
 70
   192
  0
VERTEX
  5
D88
  8
0
 10
-4.221988427927222
 20
899.7337733083041
 30
-18.0075388505424
 70
   192
  0
VERTEX
  5
D89
  8
0
 10
-4.591298887364811
 20
899.2935839925168
 30
-3.904141401568618
 70
   192
  0
VERTEX
  5
D8A
  8
0
 10
0.0
 20
0.0
 30
0.0
 70
   128
 71
     1
 72
     2
 73
     3
  0
VERTEX
  5
D8B
  8
0
 10
0.0
 20
0.0
 30
0.0
 70
   128
 71
     1
 72
     3
 73
     4
  0
VERTEX
  5
D8C
  8
0
 10
0.0
 20
0.0
 30
0.0
 70
   128
 71
     1
 72
     4
 73
     5
  0
VERTEX
  5
D8D
  8
0
 10
0.0
 20
0.0
 30
0.0
 70
   128
 71
     5
 72
     4
 73
     6
  0
VERTEX
  5
D8E
  8
0
 10
0.0
 20
0.0
 30
0.0
 70
   128
 71
     5
 72
     6
 73
     7
  0
VERTEX
  5
D8F
  8
0
 10
0.0
 20
0.0
 30
0.0
 70
   128
 71
     7
 72
     6
 73
     8
  0
VERTEX
  5
D90
  8
0
 10
0.0
 20
0.0
 30
0.0
 70
   128
 71
     7
 72
     8
 73
     9
  0
SEQEND
  5
1776
  8
0
  0
POLYLINE
  5
D91
  8
0
 66
     1
 10
0.0
 20
0.0
 30
0.0
 70
    64
 71
     6
 72
     4
  0
VERTEX
  5
D92
  8
0
 10
-1699.874590820358
 20
3.124381158292505
 30
-33.41236651952892
 70
   192
  0
VERTEX
  5
D93
  8
0
 10
-1699.102600288521
 20
3.896370951212924
 30
-3.931237667775436
 70
   192
  0
VERTEX
  5
D94
  8
0
 10
-1699.108393088214
 20
204.0524075251923
 30
-4.152455730347582
 70
   192
  0
VERTEX
  5
D95
  8
0
 10
-1699.108485757862
 20
397.7163492138885
 30
-4.155994633145097
 70
   192
  0
VERTEX
  5
D96
  8
0
 10
-1699.102619062386
 20
596.7310340477841
 30
-3.931954461758281
 70
   192
  0
VERTEX
  5
D97
  8
0
 10
-1699.473584539685
 20
597.0422670280293
 30
-18.09855467450785
 70
   192
  0
VERTEX
  5
D98
  8
0
 10
0.0
 20
0.0
 30
0.0
 70
   128
 71
     3
 72
     2
 73
    -1
  0
VERTEX
  5
D99
  8
0
 10
0.0
 20
0.0
 30
0.0
 70
   128
 71
    -1
 72
     4
 73
    -3
  0
VERTEX
  5
D9A
  8
0
 10
0.0
 20
0.0
 30
0.0
 70
   128
 71
     1
 72
    -6
 73
    -4
  0
VERTEX
  5
D9B
  8
0
 10
0.0
 20
0.0
 30
0.0
 70
   128
 71
     6
 72
     5
 73
    -4
  0
SEQEND
  5
1777
  8
0
  0
POLYLINE
  5
D9C
  8
0
 66
     1
 10
0.0
 20
0.0
 30
0.0
 70
    64
 71
     6
 72
     4
  0
VERTEX
  5
D9D
  8
0
 10
-1696.994092048303
 20
599.9941808456607
 30
-18.03371579883975
 70
   192
  0
VERTEX
  5
D9E
  8
0
 10
-1696.624824147095
 20
599.6843721188683
 30
-3.931943578804416
 70
   192
  0
VERTEX
  5
D9F
  8
0
 10
-1134.175801707856
 20
698.9445106260566
 30
-4.098495004141997
 70
   192
  0
VERTEX
  5
DA0
  8
0
 10
-570.3360033085893
 20
798.4457881129608
 30
-4.10363173397017
 70
   192
  0
VERTEX
  5
DA1
  8
0
 10
-4.417573105349839
 20
898.3091378943083
 30
-3.930318349882711
 70
   192
  0
VERTEX
  5
DA2
  8
0
 10
-4.048262645689306
 20
898.7493272089671
 30
-18.03371579888568
 70
   192
  0
VERTEX
  5
DA3
  8
0
 10
0.0
 20
0.0
 30
0.0
 70
   128
 71
     3
 72
     2
 73
    -1
  0
VERTEX
  5
DA4
  8
0
 10
0.0
 20
0.0
 30
0.0
 70
   128
 71
    -1
 72
     4
 73
    -3
  0
VERTEX
  5
DA5
  8
0
 10
0.0
 20
0.0
 30
0.0
 70
   128
 71
     1
 72
    -6
 73
    -4
  0
VERTEX
  5
DA6
  8
0
 10
0.0
 20
0.0
 30
0.0
 70
   128
 71
     6
 72
     5
 73
    -4
  0
SEQEND
  5
1778
  8
0
  0
POLYLINE
  5
DA7
  8
0
 66
     1
 10
0.0
 20
0.0
 30
0.0
 70
    64
 71
     7
 72
     5
  0
VERTEX
  5
DA8
  8
0
 10
-0.5257012038307576
 20
895.7988639764385
 30
-18.12583098927895
 70
   192
  0
VERTEX
  5
DA9
  8
0
 10
-0.8974238384969871
 20
895.3557996160989
 30
-3.930316285548576
 70
   192
  0
VERTEX
  5
DAA
  8
0
 10
-0.8921127728439502
 20
600.5873945718917
 30
-4.133137700002758
 70
   192
  0
VERTEX
  5
DAB
  8
0
 10
-0.8920375269201316
 20
302.5682617886359
 30
-4.136011225906835
 70
   192
  0
VERTEX
  5
DAC
  8
0
 10
-0.8974127508852383
 20
3.896384725809479
 30
-3.930739704390312
 70
   192
  0
VERTEX
  5
DAD
  8
0
 10
0.0477795377925791
 20
2.951192437134011
 30
-40.02617694830789
 70
   192
  0
VERTEX
  5
DAE
  8
0
 10
0.0477795377925784
 20
46.63683223076026
 30
-40.02617694830786
 70
   192
  0
VERTEX
  5
DAF
  8
0
 10
0.0
 20
0.0
 30
0.0
 70
   128
 71
     7
 72
     6
 73
    -5
  0
VERTEX
  5
DB0
  8
0
 10
0.0
 20
0.0
 30
0.0
 70
   128
 71
     3
 72
     2
 73
    -1
  0
VERTEX
  5
DB1
  8
0
 10
0.0
 20
0.0
 30
0.0
 70
   128
 71
    -3
 72
     1
 73
    -7
  0
VERTEX
  5
DB2
  8
0
 10
0.0
 20
0.0
 30
0.0
 70
   128
 71
    -7
 72
     4
 73
    -3
  0
VERTEX
  5
DB3
  8
0
 10
0.0
 20
0.0
 30
0.0
 70
   128
 71
    -7
 72
     5
 73
    -4
  0
SEQEND
  5
1779
  8
0
  0
POLYLINE
  5
DB4
  8
0
 66
     1
 10
0.0
 20
0.0
 30
0.0
 70
    64
 71
     7
 72
     5
  0
VERTEX
  5
DB5
  8
0
 10
-264.4983538174079
 20
-0.0477795377925791
 30
-40.02617694830789
 70
   192
  0
VERTEX
  5
DB6
  8
0
 10
-2.951192437133645
 20
-0.047779537790596
 30
-40.02617694830799
 70
   192
  0
VERTEX
  5
DB7
  8
0
 10
-3.896383826325004
 20
0.897411855932245
 30
-3.930774062205221
 70
   192
  0
VERTEX
  5
DB8
  8
0
 10
-566.7945030500864
 20
0.892919653057508
 30
-4.10232418780924
 70
   192
  0
VERTEX
  5
DB9
  8
0
 10
-1128.879582929838
 20
0.8928892949842199
 30
-4.103483515849375
 70
   192
  0
VERTEX
  5
DBA
  8
0
 10
-1696.103629183583
 20
0.8973988402757916
 30
-3.931270929179128
 70
   192
  0
VERTEX
  5
DBB
  8
0
 10
-1696.878002650156
 20
0.1230253736994717
 30
-33.50340053806573
 70
   192
  0
VERTEX
  5
DBC
  8
0
 10
0.0
 20
0.0
 30
0.0
 70
   128
 71
     4
 72
    -3
 73
    -1
  0
VERTEX
  5
DBD
  8
0
 10
0.0
 20
0.0
 30
0.0
 70
   128
 71
    -1
 72
     5
 73
    -4
  0
VERTEX
  5
DBE
  8
0
 10
0.0
 20
0.0
 30
0.0
 70
   128
 71
     1
 72
    -7
 73
    -5
  0
VERTEX
  5
DBF
  8
0
 10
0.0
 20
0.0
 30
0.0
 70
   128
 71
     7
 72
     6
 73
    -5
  0
VERTEX
  5
DC0
  8
0
 10
0.0
 20
0.0
 30
0.0
 70
   128
 71
     3
 72
     2
 73
    -1
  0
SEQEND
  5
177A
  8
0
  0
POLYLINE
  5
DC1
  8
0
 66
     1
 10
0.0
 20
0.0
 30
0.0
 70
    64
 71
     9
 72
     7
  0
VERTEX
  5
DC2
  8
0
 10
-1698.78317294061
 20
598.0764685843203
 30
-3.910750104197911
 70
   192
  0
VERTEX
  5
DC3
  8
0
 10
-1699.102618778972
 20
596.7310336997665
 30
-3.931943638632175
 70
   192
  0
VERTEX
  5
DC4
  8
0
 10
-1699.102619062386
 20
596.7310340477841
 30
-3.931954461758281
 70
   192
  0
VERTEX
  5
DC5
  8
0
 10
-1699.473584544459
 20
597.042267028032
 30
-18.09855467448605
 70
   192
  0
VERTEX
  5
DC6
  8
0
 10
-1699.165504305961
 20
598.363959338951
 30
-18.06587356994378
 70
   192
  0
VERTEX
  5
DC7
  8
0
 10
-1697.894271278635
 20
599.1359701999212
 30
-3.910750103361346
 70
   192
  0
VERTEX
  5
DC8
  8
0
 10
-1698.243199383968
 20
599.4619923597328
 30
-18.04175524168175
 70
   192
  0
VERTEX
  5
DC9
  8
0
 10
-1696.624824146972
 20
599.6843721033509
 30
-3.931943579148545
 70
   192
  0
VERTEX
  5
DCA
  8
0
 10
-1696.99409204673
 20
599.9941808367465
 30
-18.03371579907678
 70
   192
  0
VERTEX
  5
DCB
  8
0
 10
0.0
 20
0.0
 30
0.0
 70
   128
 71
     1
 72
     2
 73
     3
  0
VERTEX
  5
DCC
  8
0
 10
0.0
 20
0.0
 30
0.0
 70
   128
 71
     1
 72
     3
 73
     4
  0
VERTEX
  5
DCD
  8
0
 10
0.0
 20
0.0
 30
0.0
 70
   128
 71
     5
 72
     1
 73
     4
  0
VERTEX
  5
DCE
  8
0
 10
0.0
 20
0.0
 30
0.0
 70
   128
 71
     6
 72
     1
 73
     5
  0
VERTEX
  5
DCF
  8
0
 10
0.0
 20
0.0
 30
0.0
 70
   128
 71
     7
 72
     6
 73
     5
  0
VERTEX
  5
DD0
  8
0
 10
0.0
 20
0.0
 30
0.0
 70
   128
 71
     8
 72
     6
 73
     7
  0
VERTEX
  5
DD1
  8
0
 10
0.0
 20
0.0
 30
0.0
 70
   128
 71
     9
 72
     8
 73
     7
  0
SEQEND
  5
177B
  8
0
  0
POLYLINE
  5
DD2
  8
0
 66
     1
 10
0.0
 20
0.0
 30
0.0
 70
    64
 71
    10
 72
     8
  0
VERTEX
  5
DD3
  8
0
 10
-1699.87459081753
 20
3.12438115829253
 30
-33.41236651960297
 70
   192
  0
VERTEX
  5
DD4
  8
0
 10
-1699.102600292974
 20
3.896371685675941
 30
-3.931237686891421
 70
   192
  0
VERTEX
  5
DD5
  8
0
 10
-1699.102601162305
 20
3.896370081379232
 30
-3.931270885280596
 70
   192
  0
VERTEX
  5
DD6
  8
0
 10
-1699.492587516518
 20
1.656532530868439
 30
-33.45195700834849
 70
   192
  0
VERTEX
  5
DD7
  8
0
 10
-1698.700130198131
 20
2.397477315308117
 30
-3.902560069969341
 70
   192
  0
VERTEX
  5
DD8
  8
0
 10
-1697.602522047051
 20
1.299869435059766
 30
-3.902560077061305
 70
   192
  0
VERTEX
  5
DD9
  8
0
 10
-1698.344380875922
 20
0.506499076336666
 30
-33.48683863326538
 70
   192
  0
VERTEX
  5
DDA
  8
0
 10
-1696.103629181857
 20
0.8973988409179707
 30
-3.93127090465782
 70
   192
  0
VERTEX
  5
DDB
  8
0
 10
-1696.103629183583
 20
0.8973988402757916
 30
-3.931270929179128
 70
   192
  0
VERTEX
  5
DDC
  8
0
 10
-1696.878002650156
 20
0.1230253737027603
 30
-33.50340053806565
 70
   192
  0
VERTEX
  5
DDD
  8
0
 10
0.0
 20
0.0
 30
0.0
 70
   128
 71
     1
 72
     2
 73
     3
  0
VERTEX
  5
DDE
  8
0
 10
0.0
 20
0.0
 30
0.0
 70
   128
 71
     4
 72
     1
 73
     3
  0
VERTEX
  5
DDF
  8
0
 10
0.0
 20
0.0
 30
0.0
 70
   128
 71
     5
 72
     4
 73
     3
  0
VERTEX
  5
DE0
  8
0
 10
0.0
 20
0.0
 30
0.0
 70
   128
 71
     4
 72
     5
 73
     6
  0
VERTEX
  5
DE1
  8
0
 10
0.0
 20
0.0
 30
0.0
 70
   128
 71
     7
 72
     4
 73
     6
  0
VERTEX
  5
DE2
  8
0
 10
0.0
 20
0.0
 30
0.0
 70
   128
 71
     6
 72
     8
 73
     9
  0
VERTEX
  5
DE3
  8
0
 10
0.0
 20
0.0
 30
0.0
 70
   128
 71
     9
 72
    10
 73
     6
  0
VERTEX
  5
DE4
  8
0
 10
0.0
 20
0.0
 30
0.0
 70
   128
 71
    10
 72
     7
 73
     6
  0
SEQEND
  5
177C
  8
0
  0
POLYLINE
  5
DE5
  8
0
 66
     1
 10
0.0
 20
0.0
 30
0.0
 70
    64
 71
     9
 72
     7
  0
VERTEX
  5
DE6
  8
0
 10
-0.5257012038307578
 20
895.7988639764385
 30
-18.12583098927895
 70
   192
  0
VERTEX
  5
DE7
  8
0
 10
-0.8974238384312847
 20
895.3557995356562
 30
-3.930316288057611
 70
   192
  0
VERTEX
  5
DE8
  8
0
 10
-0.8974237845066129
 20
895.3557996804512
 30
-3.93031834735699
 70
   192
  0
VERTEX
  5
DE9
  8
0
 10
-0.9917178694922043
 20
897.4017639687584
 30
-18.08237554615815
 70
   192
  0
VERTEX
  5
DEA
  8
0
 10
-1.391764512263181
 20
897.0029590122275
 30
-3.891852669852955
 70
   192
  0
VERTEX
  5
DEB
  8
0
 10
-2.387309754275313
 20
898.5706981699062
 30
-18.04588073568141
 70
   192
  0
VERTEX
  5
DEC
  8
0
 10
-2.709568502875858
 20
898.1085714533874
 30
-3.891852670790788
 70
   192
  0
VERTEX
  5
DED
  8
0
 10
-4.048262645891871
 20
898.7493272101154
 30
-18.03371579885514
 70
   192
  0
VERTEX
  5
DEE
  8
0
 10
-4.417573105337931
 20
898.3091378943099
 30
-3.930318349862152
 70
   192
  0
VERTEX
  5
DEF
  8
0
 10
0.0
 20
0.0
 30
0.0
 70
   128
 71
     1
 72
     2
 73
     3
  0
VERTEX
  5
DF0
  8
0
 10
0.0
 20
0.0
 30
0.0
 70
   128
 71
     4
 72
     1
 73
     3
  0
VERTEX
  5
DF1
  8
0
 10
0.0
 20
0.0
 30
0.0
 70
   128
 71
     5
 72
     4
 73
     3
  0
VERTEX
  5
DF2
  8
0
 10
0.0
 20
0.0
 30
0.0
 70
   128
 71
     6
 72
     4
 73
     5
  0
VERTEX
  5
DF3
  8
0
 10
0.0
 20
0.0
 30
0.0
 70
   128
 71
     7
 72
     6
 73
     5
  0
VERTEX
  5
DF4
  8
0
 10
0.0
 20
0.0
 30
0.0
 70
   128
 71
     8
 72
     6
 73
     7
  0
VERTEX
  5
DF5
  8
0
 10
0.0
 20
0.0
 30
0.0
 70
   128
 71
     9
 72
     8
 73
     7
  0
SEQEND
  5
177D
  8
0
  0
POLYLINE
  5
DF6
  8
0
 66
     1
 10
0.0
 20
0.0
 30
0.0
 70
    64
 71
     8
 72
     6
  0
VERTEX
  5
DF7
  8
0
 10
-2.951192437132004
 20
-1.047436862768095
 30
-40.0
 70
   192
  0
VERTEX
  5
DF8
  8
0
 10
-0.951818376919638
 20
-0.5116019200458943
 30
-39.99823489292817
 70
   192
  0
VERTEX
  5
DF9
  8
0
 10
0.5116019200478417
 20
0.9518183769230102
 30
-39.9982348929282
 70
   192
  0
VERTEX
  5
DFA
  8
0
 10
1.047436862768096
 20
2.951192437133333
 30
-40.0
 70
   192
  0
VERTEX
  5
DFB
  8
0
 10
0.0477795377905946
 20
2.951192437134019
 30
-40.02617694830797
 70
   192
  0
VERTEX
  5
DFC
  8
0
 10
-0.3538576641560518
 20
1.451422886884191
 30
-40.03398035423496
 70
   192
  0
VERTEX
  5
DFD
  8
0
 10
-1.451422886881661
 20
0.3538576641575124
 30
-40.03398035423493
 70
   192
  0
VERTEX
  5
DFE
  8
0
 10
-2.9511924371316
 20
-0.0477795377925791
 30
-40.02617694830789
 70
   192
  0
VERTEX
  5
DFF
  8
0
 10
0.0
 20
0.0
 30
0.0
 70
   128
 71
     6
 72
     5
 73
     4
  0
VERTEX
  5
E00
  8
0
 10
0.0
 20
0.0
 30
0.0
 70
   128
 71
     6
 72
     4
 73
     3
  0
VERTEX
  5
E01
  8
0
 10
0.0
 20
0.0
 30
0.0
 70
   128
 71
     3
 72
     2
 73
    -7
  0
VERTEX
  5
E02
  8
0
 10
0.0
 20
0.0
 30
0.0
 70
   128
 71
    -3
 72
     7
 73
     6
  0
VERTEX
  5
E03
  8
0
 10
0.0
 20
0.0
 30
0.0
 70
   128
 71
     2
 72
     1
 73
     8
  0
VERTEX
  5
E04
  8
0
 10
0.0
 20
0.0
 30
0.0
 70
   128
 71
     2
 72
     8
 73
     7
  0
SEQEND
  5
177E
  8
0
  0
POLYLINE
  5
E05
  8
0
 66
     1
 10
0.0
 20
0.0
 30
0.0
 70
    64
 71
     6
 72
     4
  0
VERTEX
  5
E06
  8
0
 10
-925.3763038892629
 20
539.9999999999999
 30
-464.9999999999112
 70
   192
  0
VERTEX
  5
E07
  8
0
 10
-937.6708458887396
 20
561.3151296795576
 30
-465.0000000000601
 70
   192
  0
VERTEX
  5
E08
  8
0
 10
-962.2979467936452
 20
561.3330059668219
 30
-465.000000000049
 70
   192
  0
VERTEX
  5
E09
  8
0
 10
-974.623696110737
 20
540.0
 30
-464.9999999999021
 70
   192
  0
VERTEX
  5
E0A
  8
0
 10
-962.3291539027631
 20
518.6848702580817
 30
-464.9999999997988
 70
   192
  0
VERTEX
  5
E0B
  8
0
 10
-937.7020530141517
 20
518.6669941196777
 30
-464.99999999981
 70
   192
  0
VERTEX
  5
E0C
  8
0
 10
0.0
 20
0.0
 30
0.0
 70
   128
 71
     5
 72
     6
 73
    -1
  0
VERTEX
  5
E0D
  8
0
 10
0.0
 20
0.0
 30
0.0
 70
   128
 71
     4
 72
    -5
 73
    -1
  0
VERTEX
  5
E0E
  8
0
 10
0.0
 20
0.0
 30
0.0
 70
   128
 71
     3
 72
    -4
 73
    -1
  0
VERTEX
  5
E0F
  8
0
 10
0.0
 20
0.0
 30
0.0
 70
   128
 71
     2
 72
    -3
 73
     1
  0
SEQEND
  5
177F
  8
0
  0
POLYLINE
  5
E10
  8
0
 66
     1
 10
0.0
 20
0.0
 30
0.0
 70
    64
 71
    14
 72
    12
  0
VERTEX
  5
E11
  8
0
 10
-100.4673902233764
 20
814.674733969033
 30
-2.462729843976705
 70
   192
  0
VERTEX
  5
E12
  8
0
 10
-100.4673902107905
 20
814.674733983175
 30
-2.46273038995957
 70
   192
  0
VERTEX
  5
E13
  8
0
 10
-100.1362970124421
 20
812.8288288248797
 30
-2.975609679306095
 70
   192
  0
VERTEX
  5
E14
  8
0
 10
-99.87969080124849
 20
811.4402939307706
 30
-4.312081835796011
 70
   192
  0
VERTEX
  5
E15
  8
0
 10
-99.75819534536103
 20
810.8371736498094
 30
-6.156402443973032
 70
   192
  0
VERTEX
  5
E16
  8
0
 10
-99.75819543371446
 20
810.83717345535
 30
-6.156402431441052
 70
   192
  0
VERTEX
  5
E17
  8
0
 10
-604.4983169535421
 20
721.7484433494552
 30
-5.925812670590245
 70
   192
  0
VERTEX
  5
E18
  8
0
 10
-1109.999957651683
 20
632.51101235688
 30
-5.884869643434499
 70
   192
  0
VERTEX
  5
E19
  8
0
 10
-1612.22219044
 20
543.833550916
 30
-6.04845702386
 70
   192
  0
VERTEX
  5
E1A
  8
0
 10
-1612.311643622163
 20
544.4595550089816
 30
-4.236831958570458
 70
   192
  0
VERTEX
  5
E1B
  8
0
 10
-1612.539835324669
 20
545.8439071550423
 30
-2.927902928185664
 70
   192
  0
VERTEX
  5
E1C
  8
0
 10
-1612.85426079123
 20
547.6681489474919
 30
-2.422782545459325
 70
   192
  0
VERTEX
  5
E1D
  8
0
 10
-1124.509427026716
 20
633.902518626478
 30
-2.243362033596781
 70
   192
  0
VERTEX
  5
E1E
  8
0
 10
-605.4750577486066
 20
725.5321100076466
 30
-2.25455338066997
 70
   192
  0
VERTEX
  5
E1F
  8
0
 10
0.0
 20
0.0
 30
0.0
 70
   128
 71
    10
 72
     9
 73
     8
  0
VERTEX
  5
E20
  8
0
 10
0.0
 20
0.0
 30
0.0
 70
   128
 71
    10
 72
     8
 73
    13
  0
VERTEX
  5
E21
  8
0
 10
0.0
 20
0.0
 30
0.0
 70
   128
 71
    13
 72
    11
 73
    10
  0
VERTEX
  5
E22
  8
0
 10
0.0
 20
0.0
 30
0.0
 70
   128
 71
    13
 72
    12
 73
    11
  0
VERTEX
  5
E23
  8
0
 10
0.0
 20
0.0
 30
0.0
 70
   128
 71
     8
 72
     7
 73
    14
  0
VERTEX
  5
E24
  8
0
 10
0.0
 20
0.0
 30
0.0
 70
   128
 71
     8
 72
    14
 73
    13
  0
VERTEX
  5
E25
  8
0
 10
0.0
 20
0.0
 30
0.0
 70
   128
 71
     7
 72
     6
 73
     1
  0
VERTEX
  5
E26
  8
0
 10
0.0
 20
0.0
 30
0.0
 70
   128
 71
     7
 72
     1
 73
    14
  0
VERTEX
  5
E27
  8
0
 10
0.0
 20
0.0
 30
0.0
 70
   128
 71
     3
 72
     2
 73
     1
  0
VERTEX
  5
E28
  8
0
 10
0.0
 20
0.0
 30
0.0
 70
   128
 71
     1
 72
     4
 73
     3
  0
VERTEX
  5
E29
  8
0
 10
0.0
 20
0.0
 30
0.0
 70
   128
 71
     1
 72
     6
 73
     4
  0
VERTEX
  5
E2A
  8
0
 10
0.0
 20
0.0
 30
0.0
 70
   128
 71
     6
 72
     5
 73
     4
  0
SEQEND
  5
1780
  8
0
  0
POLYLINE
  5
E2B
  8
0
 66
     1
 10
0.0
 20
0.0
 30
0.0
 70
    64
 71
    38
 72
    38
  0
VERTEX
  5
E2C
  8
0
 10
-1696.0913203507
 20
596.720741113775
 30
-0.0105169231960801
 70
   192
  0
VERTEX
  5
E2D
  8
0
 10
-1695.879805417959
 20
397.7157205200438
 30
-0.2411266878061334
 70
   192
  0
VERTEX
  5
E2E
  8
0
 10
-1695.883239472837
 20
204.0532614176493
 30
-0.2373862162972798
 70
   192
  0
VERTEX
  5
E2F
  8
0
 10
-1696.09390603104
 20
3.906138963237445
 30
-0.0098255924354868
 70
   192
  0
VERTEX
  5
E30
  8
0
 10
-1126.414433393
 20
4.070982565612981
 30
-0.1853810984388596
 70
   192
  0
VERTEX
  5
E31
  8
0
 10
-576.8277757349692
 20
4.069780199110122
 30
-0.184177468572959
 70
   192
  0
VERTEX
  5
E32
  8
0
 10
-3.90570774974459
 20
3.905696534938575
 30
-0.0093266660762736
 70
   192
  0
VERTEX
  5
E33
  8
0
 10
-4.101124271232094
 20
302.5687203570879
 30
-0.2200643929693172
 70
   192
  0
VERTEX
  5
E34
  8
0
 10
-4.098318975654674
 20
600.5870146796302
 30
-0.2170403461242966
 70
   192
  0
VERTEX
  5
E35
  8
0
 10
-3.90364999348417
 20
895.3470033097011
 30
-0.0088654497496697
 70
   192
  0
VERTEX
  5
E36
  8
0
 10
-594.1404059320131
 20
791.0186771374766
 30
-0.1845763715059781
 70
   192
  0
VERTEX
  5
E37
  8
0
 10
-1142.952962987269
 20
694.1720813031452
 30
-0.1815375889999457
 70
   192
  0
VERTEX
  5
E38
  8
0
 10
-1632.86903513
 20
524.049026564
 30
-2.44307350127
 70
   192
  0
VERTEX
  5
E39
  8
0
 10
-1630.295885529678
 20
534.8960587577642
 30
-2.346100302743213
 70
   192
  0
VERTEX
  5
E3A
  8
0
 10
-1623.065303516379
 20
543.3564855158354
 30
-2.339784824886024
 70
   192
  0
VERTEX
  5
E3B
  8
0
 10
-1612.85426079123
 20
547.6681489474919
 30
-2.422782545459325
 70
   192
  0
VERTEX
  5
E3C
  8
0
 10
-1124.509427026716
 20
633.902518626478
 30
-2.243362033596781
 70
   192
  0
VERTEX
  5
E3D
  8
0
 10
-605.4750577486066
 20
725.5321100076466
 30
-2.25455338066997
 70
   192
  0
VERTEX
  5
E3E
  8
0
 10
-100.4673902233764
 20
814.674733969033
 30
-2.462729843976705
 70
   192
  0
VERTEX
  5
E3F
  8
0
 10
-86.69458876685019
 20
814.1988909626278
 30
-2.382118076607151
 70
   192
  0
VERTEX
  5
E40
  8
0
 10
-74.3438441787614
 20
806.8155173472895
 30
-2.366003436716878
 70
   192
  0
VERTEX
  5
E41
  8
0
 10
-69.07534519423331
 20
792.772812659001
 30
-2.461264407619985
 70
   192
  0
VERTEX
  5
E42
  8
0
 10
-68.94882729001995
 20
576.9552479118936
 30
-2.493416814064765
 70
   192
  0
VERTEX
  5
E43
  8
0
 10
-68.7937885630287
 20
333.0999335667954
 30
-2.525381368935081
 70
   192
  0
VERTEX
  5
E44
  8
0
 10
-68.65772582326781
 20
110.0450992629998
 30
-2.575865990880555
 70
   192
  0
VERTEX
  5
E45
  8
0
 10
-72.72885286277123
 20
97.25975502680438
 30
-2.57092969497336
 70
   192
  0
VERTEX
  5
E46
  8
0
 10
-82.76614942684597
 20
89.02614260900407
 30
-2.65367747581154
 70
   192
  0
VERTEX
  5
E47
  8
0
 10
-95.1141122713596
 20
86.36808211894508
 30
-2.762669812533445
 70
   192
  0
VERTEX
  5
E48
  8
0
 10
-846.7224434954908
 20
86.5313765880108
 30
-2.588697957475949
 70
   192
  0
VERTEX
  5
E49
  8
0
 10
-979.3189206903326
 20
86.55742507536795
 30
-2.599581298825798
 70
   192
  0
VERTEX
  5
E4A
  8
0
 10
-1226.055467468301
 20
86.60539833196057
 30
-2.700382421331504
 70
   192
  0
VERTEX
  5
E4B
  8
0
 10
-1511.034976683837
 20
86.6602897680115
 30
-2.882063940583866
 70
   192
  0
VERTEX
  5
E4C
  8
0
 10
-1607.90236264
 20
86.6779053847
 30
-2.78134660997
 70
   192
  0
VERTEX
  5
E4D
  8
0
 10
-1619.902106969547
 20
89.63842870609405
 30
-2.673056230633888
 70
   192
  0
VERTEX
  5
E4E
  8
0
 10
-1629.038849103259
 20
98.23767311458856
 30
-2.600370099258419
 70
   192
  0
VERTEX
  5
E4F
  8
0
 10
-1632.42894012
 20
110.399398679
 30
-2.60935244674
 70
   192
  0
VERTEX
  5
E50
  8
0
 10
-1632.565094417704
 20
247.8967316357048
 30
-2.649839978576922
 70
   192
  0
VERTEX
  5
E51
  8
0
 10
-1632.698389966201
 20
387.3231009269678
 30
-2.700005464171372
 70
   192
  0
VERTEX
  5
E52
  8
0
 10
0.0
 20
0.0
 30
0.0
 70
   128
 71
    13
 72
     1
 73
     2
  0
VERTEX
  5
E53
  8
0
 10
0.0
 20
0.0
 30
0.0
 70
   128
 71
    38
 72
    13
 73
     2
  0
VERTEX
  5
E54
  8
0
 10
0.0
 20
0.0
 30
0.0
 70
   128
 71
     3
 72
    37
 73
    38
  0
VERTEX
  5
E55
  8
0
 10
0.0
 20
0.0
 30
0.0
 70
   128
 71
     2
 72
     3
 73
    38
  0
VERTEX
  5
E56
  8
0
 10
0.0
 20
0.0
 30
0.0
 70
   128
 71
     5
 72
    31
 73
    32
  0
VERTEX
  5
E57
  8
0
 10
0.0
 20
0.0
 30
0.0
 70
   128
 71
     4
 72
     5
 73
    32
  0
VERTEX
  5
E58
  8
0
 10
0.0
 20
0.0
 30
0.0
 70
   128
 71
    32
 72
    33
 73
     4
  0
VERTEX
  5
E59
  8
0
 10
0.0
 20
0.0
 30
0.0
 70
   128
 71
    33
 72
    34
 73
     4
  0
VERTEX
  5
E5A
  8
0
 10
0.0
 20
0.0
 30
0.0
 70
   128
 71
    34
 72
    35
 73
     4
  0
VERTEX
  5
E5B
  8
0
 10
0.0
 20
0.0
 30
0.0
 70
   128
 71
    35
 72
    36
 73
     4
  0
VERTEX
  5
E5C
  8
0
 10
0.0
 20
0.0
 30
0.0
 70
   128
 71
    37
 72
     3
 73
     4
  0
VERTEX
  5
E5D
  8
0
 10
0.0
 20
0.0
 30
0.0
 70
   128
 71
    36
 72
    37
 73
     4
  0
VERTEX
  5
E5E
  8
0
 10
0.0
 20
0.0
 30
0.0
 70
   128
 71
     6
 72
    29
 73
    30
  0
VERTEX
  5
E5F
  8
0
 10
0.0
 20
0.0
 30
0.0
 70
   128
 71
     5
 72
     6
 73
    30
  0
VERTEX
  5
E60
  8
0
 10
0.0
 20
0.0
 30
0.0
 70
   128
 71
    30
 72
    31
 73
     5
  0
VERTEX
  5
E61
  8
0
 10
0.0
 20
0.0
 30
0.0
 70
   128
 71
     8
 72
    24
 73
    25
  0
VERTEX
  5
E62
  8
0
 10
0.0
 20
0.0
 30
0.0
 70
   128
 71
     7
 72
     8
 73
    25
  0
VERTEX
  5
E63
  8
0
 10
0.0
 20
0.0
 30
0.0
 70
   128
 71
    25
 72
    26
 73
     7
  0
VERTEX
  5
E64
  8
0
 10
0.0
 20
0.0
 30
0.0
 70
   128
 71
    26
 72
    27
 73
     7
  0
VERTEX
  5
E65
  8
0
 10
0.0
 20
0.0
 30
0.0
 70
   128
 71
    27
 72
    28
 73
     7
  0
VERTEX
  5
E66
  8
0
 10
0.0
 20
0.0
 30
0.0
 70
   128
 71
    29
 72
     6
 73
     7
  0
VERTEX
  5
E67
  8
0
 10
0.0
 20
0.0
 30
0.0
 70
   128
 71
    28
 72
    29
 73
     7
  0
VERTEX
  5
E68
  8
0
 10
0.0
 20
0.0
 30
0.0
 70
   128
 71
     9
 72
    23
 73
    24
  0
VERTEX
  5
E69
  8
0
 10
0.0
 20
0.0
 30
0.0
 70
   128
 71
     8
 72
     9
 73
    24
  0
VERTEX
  5
E6A
  8
0
 10
0.0
 20
0.0
 30
0.0
 70
   128
 71
    11
 72
    18
 73
    19
  0
VERTEX
  5
E6B
  8
0
 10
0.0
 20
0.0
 30
0.0
 70
   128
 71
    10
 72
    11
 73
    19
  0
VERTEX
  5
E6C
  8
0
 10
0.0
 20
0.0
 30
0.0
 70
   128
 71
    19
 72
    20
 73
    10
  0
VERTEX
  5
E6D
  8
0
 10
0.0
 20
0.0
 30
0.0
 70
   128
 71
    20
 72
    21
 73
    10
  0
VERTEX
  5
E6E
  8
0
 10
0.0
 20
0.0
 30
0.0
 70
   128
 71
    21
 72
    22
 73
    10
  0
VERTEX
  5
E6F
  8
0
 10
0.0
 20
0.0
 30
0.0
 70
   128
 71
    23
 72
     9
 73
    10
  0
VERTEX
  5
E70
  8
0
 10
0.0
 20
0.0
 30
0.0
 70
   128
 71
    22
 72
    23
 73
    10
  0
VERTEX
  5
E71
  8
0
 10
0.0
 20
0.0
 30
0.0
 70
   128
 71
    12
 72
    17
 73
    18
  0
VERTEX
  5
E72
  8
0
 10
0.0
 20
0.0
 30
0.0
 70
   128
 71
    11
 72
    12
 73
    18
  0
VERTEX
  5
E73
  8
0
 10
0.0
 20
0.0
 30
0.0
 70
   128
 71
     1
 72
    13
 73
    14
  0
VERTEX
  5
E74
  8
0
 10
0.0
 20
0.0
 30
0.0
 70
   128
 71
    14
 72
    15
 73
     1
  0
VERTEX
  5
E75
  8
0
 10
0.0
 20
0.0
 30
0.0
 70
   128
 71
    15
 72
    16
 73
     1
  0
VERTEX
  5
E76
  8
0
 10
0.0
 20
0.0
 30
0.0
 70
   128
 71
    17
 72
    12
 73
     1
  0
VERTEX
  5
E77
  8
0
 10
0.0
 20
0.0
 30
0.0
 70
   128
 71
    16
 72
    17
 73
     1
  0
SEQEND
  5
1781
  8
0
  0
POLYLINE
  5
E78
  8
0
 66
     1
 10
0.0
 20
0.0
 30
0.0
 70
    64
 71
    12
 72
    10
  0
VERTEX
  5
E79
  8
0
 10
-69.07534519423331
 20
792.772812659001
 30
-2.461264407619985
 70
   192
  0
VERTEX
  5
E7A
  8
0
 10
-74.3438441787614
 20
806.8155173472895
 30
-2.366003436716878
 70
   192
  0
VERTEX
  5
E7B
  8
0
 10
-86.69458876685019
 20
814.1988909626278
 30
-2.382118076607151
 70
   192
  0
VERTEX
  5
E7C
  8
0
 10
-100.4673902233764
 20
814.674733969033
 30
-2.462729843976705
 70
   192
  0
VERTEX
  5
E7D
  8
0
 10
-100.1362970124421
 20
812.8288288248797
 30
-2.975609679306095
 70
   192
  0
VERTEX
  5
E7E
  8
0
 10
-99.87969080124849
 20
811.4402939307706
 30
-4.312081835796011
 70
   192
  0
VERTEX
  5
E7F
  8
0
 10
-99.75819534536103
 20
810.8371736498094
 30
-6.156402443973032
 70
   192
  0
VERTEX
  5
E80
  8
0
 10
-87.6586504694223
 20
810.6191751062473
 30
-5.126900019399278
 70
   192
  0
VERTEX
  5
E81
  8
0
 10
-76.91813804683838
 20
804.578967811098
 30
-4.430621191036504
 70
   192
  0
VERTEX
  5
E82
  8
0
 10
-72.49714224429431
 20
792.81247448968
 30
-4.52452650178126
 70
   192
  0
VERTEX
  5
E83
  8
0
 10
-71.6251584629487
 20
792.7965044405843
 30
-3.445241009126216
 70
   192
  0
VERTEX
  5
E84
  8
0
 10
-70.4368955191714
 20
792.7827312359708
 30
-2.728747074649685
 70
   192
  0
VERTEX
  5
E85
  8
0
 10
0.0
 20
0.0
 30
0.0
 70
   128
 71
     6
 72
     7
 73
     8
  0
VERTEX
  5
E86
  8
0
 10
0.0
 20
0.0
 30
0.0
 70
   128
 71
     8
 72
     9
 73
     6
  0
VERTEX
  5
E87
  8
0
 10
0.0
 20
0.0
 30
0.0
 70
   128
 71
     9
 72
    11
 73
     6
  0
VERTEX
  5
E88
  8
0
 10
0.0
 20
0.0
 30
0.0
 70
   128
 71
     9
 72
    10
 73
    11
  0
VERTEX
  5
E89
  8
0
 10
0.0
 20
0.0
 30
0.0
 70
   128
 71
    12
 72
     5
 73
     6
  0
VERTEX
  5
E8A
  8
0
 10
0.0
 20
0.0
 30
0.0
 70
   128
 71
    11
 72
    12
 73
     6
  0
VERTEX
  5
E8B
  8
0
 10
0.0
 20
0.0
 30
0.0
 70
   128
 71
    12
 72
     1
 73
     2
  0
VERTEX
  5
E8C
  8
0
 10
0.0
 20
0.0
 30
0.0
 70
   128
 71
     2
 72
     3
 73
    12
  0
VERTEX
  5
E8D
  8
0
 10
0.0
 20
0.0
 30
0.0
 70
   128
 71
     3
 72
     5
 73
    12
  0
VERTEX
  5
E8E
  8
0
 10
0.0
 20
0.0
 30
0.0
 70
   128
 71
     3
 72
     4
 73
     5
  0
SEQEND
  5
1782
  8
0
  0
POLYLINE
  5
E8F
  8
0
 66
     1
 10
0.0
 20
0.0
 30
0.0
 70
    64
 71
    20
 72
    18
  0
VERTEX
  5
E90
  8
0
 10
-99.75819543371446
 20
810.83717345535
 30
-6.156402431441052
 70
   192
  0
VERTEX
  5
E91
  8
0
 10
-604.4983169535421
 20
721.7484433494552
 30
-5.925812670590245
 70
   192
  0
VERTEX
  5
E92
  8
0
 10
-1109.999957651683
 20
632.51101235688
 30
-5.884869643434499
 70
   192
  0
VERTEX
  5
E93
  8
0
 10
-1612.22219044
 20
543.833550916
 30
-6.04845702386
 70
   192
  0
VERTEX
  5
E94
  8
0
 10
-1583.390913762435
 20
535.8132416533263
 30
-143.8809525670098
 70
   192
  0
VERTEX
  5
E95
  8
0
 10
-1553.606780756602
 20
527.6872764663814
 30
-284.2691455997157
 70
   192
  0
VERTEX
  5
E96
  8
0
 10
-1525.883063065445
 20
520.272165795598
 30
-412.633500911142
 70
   192
  0
VERTEX
  5
E97
  8
0
 10
-1427.930240559272
 20
537.1903277024129
 30
-414.6120816595846
 70
   192
  0
VERTEX
  5
E98
  8
0
 10
-1332.521746081493
 20
553.6590068154151
 30
-416.5367090471553
 70
   192
  0
VERTEX
  5
E99
  8
0
 10
-1241.279467333486
 20
569.3995486427791
 30
-418.3710391618581
 70
   192
  0
VERTEX
  5
E9A
  8
0
 10
-1115.931697023995
 20
591.0118113055262
 30
-420.8570007369037
 70
   192
  0
VERTEX
  5
E9B
  8
0
 10
-1051.29893991637
 20
602.1553158339495
 30
-422.0776650654811
 70
   192
  0
VERTEX
  5
E9C
  8
0
 10
-1000.053993217318
 20
611.0037633042243
 30
-422.8972239900207
 70
   192
  0
VERTEX
  5
E9D
  8
0
 10
-954.0151703410842
 20
619.0044760171762
 30
-423.1592983377857
 70
   192
  0
VERTEX
  5
E9E
  8
0
 10
-882.0238912244284
 20
631.6561046355348
 30
-422.3263228964772
 70
   192
  0
VERTEX
  5
E9F
  8
0
 10
-824.6705845605615
 20
641.7739407870006
 30
-421.350180592882
 70
   192
  0
VERTEX
  5
EA0
  8
0
 10
-707.9319496504316
 20
662.393211925998
 30
-419.2323383182326
 70
   192
  0
VERTEX
  5
EA1
  8
0
 10
-390.150040719422
 20
718.609069347883
 30
-413.3121554857925
 70
   192
  0
VERTEX
  5
EA2
  8
0
 10
-287.8126447924413
 20
751.9248352898769
 30
-283.0192570489782
 70
   192
  0
VERTEX
  5
EA3
  8
0
 10
-196.5234834106898
 20
780.9564692242095
 30
-155.5078724986206
 70
   192
  0
VERTEX
  5
EA4
  8
0
 10
0.0
 20
0.0
 30
0.0
 70
   128
 71
     6
 72
     7
 73
     8
  0
VERTEX
  5
EA5
  8
0
 10
0.0
 20
0.0
 30
0.0
 70
   128
 71
     8
 72
     9
 73
     6
  0
VERTEX
  5
EA6
  8
0
 10
0.0
 20
0.0
 30
0.0
 70
   128
 71
     9
 72
    10
 73
     6
  0
VERTEX
  5
EA7
  8
0
 10
0.0
 20
0.0
 30
0.0
 70
   128
 71
    10
 72
    11
 73
     6
  0
VERTEX
  5
EA8
  8
0
 10
0.0
 20
0.0
 30
0.0
 70
   128
 71
    11
 72
    12
 73
     6
  0
VERTEX
  5
EA9
  8
0
 10
0.0
 20
0.0
 30
0.0
 70
   128
 71
    12
 72
    13
 73
     6
  0
VERTEX
  5
EAA
  8
0
 10
0.0
 20
0.0
 30
0.0
 70
   128
 71
    14
 72
    19
 73
     6
  0
VERTEX
  5
EAB
  8
0
 10
0.0
 20
0.0
 30
0.0
 70
   128
 71
    13
 72
    14
 73
     6
  0
VERTEX
  5
EAC
  8
0
 10
0.0
 20
0.0
 30
0.0
 70
   128
 71
    14
 72
    15
 73
    19
  0
VERTEX
  5
EAD
  8
0
 10
0.0
 20
0.0
 30
0.0
 70
   128
 71
    15
 72
    16
 73
    19
  0
VERTEX
  5
EAE
  8
0
 10
0.0
 20
0.0
 30
0.0
 70
   128
 71
    16
 72
    17
 73
    19
  0
VERTEX
  5
EAF
  8
0
 10
0.0
 20
0.0
 30
0.0
 70
   128
 71
    17
 72
    18
 73
    19
  0
VERTEX
  5
EB0
  8
0
 10
0.0
 20
0.0
 30
0.0
 70
   128
 71
    20
 72
     5
 73
     6
  0
VERTEX
  5
EB1
  8
0
 10
0.0
 20
0.0
 30
0.0
 70
   128
 71
    19
 72
    20
 73
     6
  0
VERTEX
  5
EB2
  8
0
 10
0.0
 20
0.0
 30
0.0
 70
   128
 71
    20
 72
     1
 73
     2
  0
VERTEX
  5
EB3
  8
0
 10
0.0
 20
0.0
 30
0.0
 70
   128
 71
     3
 72
     5
 73
    20
  0
VERTEX
  5
EB4
  8
0
 10
0.0
 20
0.0
 30
0.0
 70
   128
 71
     2
 72
     3
 73
    20
  0
VERTEX
  5
EB5
  8
0
 10
0.0
 20
0.0
 30
0.0
 70
   128
 71
     3
 72
     4
 73
     5
  0
SEQEND
  5
1783
  8
0
  0
POLYLINE
  5
EB6
  8
0
 66
     1
 10
0.0
 20
0.0
 30
0.0
 70
    64
 71
    12
 72
    10
  0
VERTEX
  5
EB7
  8
0
 10
-1612.85426079123
 20
547.6681489474919
 30
-2.422782545459325
 70
   192
  0
VERTEX
  5
EB8
  8
0
 10
-1623.065303516379
 20
543.3564855158354
 30
-2.339784824886024
 70
   192
  0
VERTEX
  5
EB9
  8
0
 10
-1630.295885529678
 20
534.8960587577642
 30
-2.346100302743213
 70
   192
  0
VERTEX
  5
EBA
  8
0
 10
-1632.86903513
 20
524.049026564
 30
-2.44307350127
 70
   192
  0
VERTEX
  5
EBB
  8
0
 10
-1631.104307439699
 20
524.0601229414757
 30
-2.899360486221075
 70
   192
  0
VERTEX
  5
EBC
  8
0
 10
-1629.725315776153
 20
524.0790453715831
 30
-4.091252416802549
 70
   192
  0
VERTEX
  5
EBD
  8
0
 10
-1629.018423670391
 20
524.1018776625785
 30
-5.771241904261911
 70
   192
  0
VERTEX
  5
EBE
  8
0
 10
-1626.885876150874
 20
533.178632077018
 30
-5.584795701145313
 70
   192
  0
VERTEX
  5
EBF
  8
0
 10
-1620.81911544366
 20
540.2466352060294
 30
-5.687533010261589
 70
   192
  0
VERTEX
  5
EC0
  8
0
 10
-1612.22219044
 20
543.833550916
 30
-6.04845702386
 70
   192
  0
VERTEX
  5
EC1
  8
0
 10
-1612.311643622163
 20
544.4595550089816
 30
-4.236831958570458
 70
   192
  0
VERTEX
  5
EC2
  8
0
 10
-1612.539835324669
 20
545.8439071550423
 30
-2.927902928185664
 70
   192
  0
VERTEX
  5
EC3
  8
0
 10
0.0
 20
0.0
 30
0.0
 70
   128
 71
     6
 72
     7
 73
     8
  0
VERTEX
  5
EC4
  8
0
 10
0.0
 20
0.0
 30
0.0
 70
   128
 71
     8
 72
     9
 73
     6
  0
VERTEX
  5
EC5
  8
0
 10
0.0
 20
0.0
 30
0.0
 70
   128
 71
     9
 72
    11
 73
     6
  0
VERTEX
  5
EC6
  8
0
 10
0.0
 20
0.0
 30
0.0
 70
   128
 71
     9
 72
    10
 73
    11
  0
VERTEX
  5
EC7
  8
0
 10
0.0
 20
0.0
 30
0.0
 70
   128
 71
    12
 72
     5
 73
     6
  0
VERTEX
  5
EC8
  8
0
 10
0.0
 20
0.0
 30
0.0
 70
   128
 71
    11
 72
    12
 73
     6
  0
VERTEX
  5
EC9
  8
0
 10
0.0
 20
0.0
 30
0.0
 70
   128
 71
    12
 72
     1
 73
     2
  0
VERTEX
  5
ECA
  8
0
 10
0.0
 20
0.0
 30
0.0
 70
   128
 71
     2
 72
     3
 73
    12
  0
VERTEX
  5
ECB
  8
0
 10
0.0
 20
0.0
 30
0.0
 70
   128
 71
     3
 72
     5
 73
    12
  0
VERTEX
  5
ECC
  8
0
 10
0.0
 20
0.0
 30
0.0
 70
   128
 71
     3
 72
     4
 73
     5
  0
SEQEND
  5
1784
  8
0
  0
POLYLINE
  5
ECD
  8
0
 66
     1
 10
0.0
 20
0.0
 30
0.0
 70
    64
 71
    12
 72
    10
  0
VERTEX
  5
ECE
  8
0
 10
-1700.10227638324
 20
596.7310339008319
 30
-3.9057775167868
 70
   192
  0
VERTEX
  5
ECF
  8
0
 10
-1699.364008437507
 20
596.7252125939127
 30
-1.693083892617641
 70
   192
  0
VERTEX
  5
ED0
  8
0
 10
-1697.963995815775
 20
596.7220190594079
 30
-0.4694195395080387
 70
   192
  0
VERTEX
  5
ED1
  8
0
 10
-1696.0913203507
 20
596.720741113775
 30
-0.0105169231960801
 70
   192
  0
VERTEX
  5
ED2
  8
0
 10
-1695.879805417959
 20
397.7157205200438
 30
-0.2411266878061334
 70
   192
  0
VERTEX
  5
ED3
  8
0
 10
-1695.883239472837
 20
204.0532614176493
 30
-0.2373862162972798
 70
   192
  0
VERTEX
  5
ED4
  8
0
 10
-1696.09390603104
 20
3.906138963237445
 30
-0.0098255924354868
 70
   192
  0
VERTEX
  5
ED5
  8
0
 10
-1698.067680972226
 20
3.904753491456533
 30
-0.5251706553500012
 70
   192
  0
VERTEX
  5
ED6
  8
0
 10
-1699.530625530193
 20
3.901186610293056
 30
-1.946842633940698
 70
   192
  0
VERTEX
  5
ED7
  8
0
 10
-1700.10225761685
 20
3.896370951212475
 30
-3.90506071943757
 70
   192
  0
VERTEX
  5
ED8
  8
0
 10
-1700.108050413191
 20
204.0524075128939
 30
-4.126278782096904
 70
   192
  0
VERTEX
  5
ED9
  8
0
 10
-1700.108143082838
 20
397.7163491903227
 30
-4.129817684895987
 70
   192
  0
VERTEX
  5
EDA
  8
0
 10
0.0
 20
0.0
 30
0.0
 70
   128
 71
     8
 72
     7
 73
     6
  0
VERTEX
  5
EDB
  8
0
 10
0.0
 20
0.0
 30
0.0
 70
   128
 71
     6
 72
    11
 73
     9
  0
VERTEX
  5
EDC
  8
0
 10
0.0
 20
0.0
 30
0.0
 70
   128
 71
     6
 72
     9
 73
     8
  0
VERTEX
  5
EDD
  8
0
 10
0.0
 20
0.0
 30
0.0
 70
   128
 71
    11
 72
    10
 73
     9
  0
VERTEX
  5
EDE
  8
0
 10
0.0
 20
0.0
 30
0.0
 70
   128
 71
     6
 72
     5
 73
    12
  0
VERTEX
  5
EDF
  8
0
 10
0.0
 20
0.0
 30
0.0
 70
   128
 71
     6
 72
    12
 73
    11
  0
VERTEX
  5
EE0
  8
0
 10
0.0
 20
0.0
 30
0.0
 70
   128
 71
     2
 72
     1
 73
    12
  0
VERTEX
  5
EE1
  8
0
 10
0.0
 20
0.0
 30
0.0
 70
   128
 71
    12
 72
     5
 73
     3
  0
VERTEX
  5
EE2
  8
0
 10
0.0
 20
0.0
 30
0.0
 70
   128
 71
    12
 72
     3
 73
     2
  0
VERTEX
  5
EE3
  8
0
 10
0.0
 20
0.0
 30
0.0
 70
   128
 71
     5
 72
     4
 73
     3
  0
SEQEND
  5
1785
  8
0
  0
POLYLINE
  5
EE4
  8
0
 66
     1
 10
0.0
 20
0.0
 30
0.0
 70
    64
 71
    18
 72
    16
  0
VERTEX
  5
EE5
  8
0
 10
-4.591298887370797
 20
899.2935839924376
 30
-3.904141401571249
 70
   192
  0
VERTEX
  5
EE6
  8
0
 10
-4.496499778849581
 20
898.731813219013
 30
-1.94913873041785
 70
   192
  0
VERTEX
  5
EE7
  8
0
 10
-4.246175838117821
 20
897.2951044846876
 30
-0.5279368958858965
 70
   192
  0
VERTEX
  5
EE8
  8
0
 10
-3.905201779922056
 20
895.3557996
 30
-0.0088588931431377
 70
   192
  0
VERTEX
  5
EE9
  8
0
 10
-3.904684522273075
 20
895.3528675010676
 30
-0.0088588624944976
 70
   192
  0
VERTEX
  5
EEA
  8
0
 10
-3.904167260031625
 20
895.3499354037598
 30
-0.0088610480304108
 70
   192
  0
VERTEX
  5
EEB
  8
0
 10
-3.90364999348417
 20
895.3470033097011
 30
-0.0088654497496697
 70
   192
  0
VERTEX
  5
EEC
  8
0
 10
-594.1404059320131
 20
791.0186771374766
 30
-0.1845763715059781
 70
   192
  0
VERTEX
  5
EED
  8
0
 10
-1142.952962987269
 20
694.1720813031452
 30
-0.1815375889999457
 70
   192
  0
VERTEX
  5
EEE
  8
0
 10
-1696.091319253251
 20
596.7207412787596
 30
-0.0105077004784135
 70
   192
  0
VERTEX
  5
EEF
  8
0
 10
-1696.091924910993
 20
596.7241721221684
 30
-0.0104985225800349
 70
   192
  0
VERTEX
  5
EF0
  8
0
 10
-1696.092530577628
 20
596.7276029707828
 30
-0.0104923790625389
 70
   192
  0
VERTEX
  5
EF1
  8
0
 10
-1696.093136252697
 20
596.731033822
 30
-0.0104892699305843
 70
   192
  0
VERTEX
  5
EF2
  8
0
 10
-1696.437024536294
 20
598.671255140971
 30
-0.5284642681632663
 70
   192
  0
VERTEX
  5
EF3
  8
0
 10
-1696.694422041894
 20
600.1081083090019
 30
-1.949807124271107
 70
   192
  0
VERTEX
  5
EF4
  8
0
 10
-1696.79854993
 20
600.668818202
 30
-3.90576668801
 70
   192
  0
VERTEX
  5
EF5
  8
0
 10
-1134.349527489881
 20
699.9289567241427
 30
-4.072318055831953
 70
   192
  0
VERTEX
  5
EF6
  8
0
 10
-570.5097290906141
 20
799.430234211047
 30
-4.077454785660128
 70
   192
  0
VERTEX
  5
EF7
  8
0
 10
0.0
 20
0.0
 30
0.0
 70
   128
 71
    11
 72
    10
 73
     9
  0
VERTEX
  5
EF8
  8
0
 10
0.0
 20
0.0
 30
0.0
 70
   128
 71
     9
 72
    12
 73
    11
  0
VERTEX
  5
EF9
  8
0
 10
0.0
 20
0.0
 30
0.0
 70
   128
 71
     9
 72
    13
 73
    12
  0
VERTEX
  5
EFA
  8
0
 10
0.0
 20
0.0
 30
0.0
 70
   128
 71
     9
 72
    14
 73
    13
  0
VERTEX
  5
EFB
  8
0
 10
0.0
 20
0.0
 30
0.0
 70
   128
 71
     9
 72
    15
 73
    14
  0
VERTEX
  5
EFC
  8
0
 10
0.0
 20
0.0
 30
0.0
 70
   128
 71
     9
 72
    17
 73
    16
  0
VERTEX
  5
EFD
  8
0
 10
0.0
 20
0.0
 30
0.0
 70
   128
 71
     9
 72
    16
 73
    15
  0
VERTEX
  5
EFE
  8
0
 10
0.0
 20
0.0
 30
0.0
 70
   128
 71
     9
 72
     8
 73
    18
  0
VERTEX
  5
EFF
  8
0
 10
0.0
 20
0.0
 30
0.0
 70
   128
 71
     9
 72
    18
 73
    17
  0
VERTEX
  5
F00
  8
0
 10
0.0
 20
0.0
 30
0.0
 70
   128
 71
     2
 72
     1
 73
    18
  0
VERTEX
  5
F01
  8
0
 10
0.0
 20
0.0
 30
0.0
 70
   128
 71
    18
 72
     3
 73
     2
  0
VERTEX
  5
F02
  8
0
 10
0.0
 20
0.0
 30
0.0
 70
   128
 71
    18
 72
     4
 73
     3
  0
VERTEX
  5
F03
  8
0
 10
0.0
 20
0.0
 30
0.0
 70
   128
 71
    18
 72
     5
 73
     4
  0
VERTEX
  5
F04
  8
0
 10
0.0
 20
0.0
 30
0.0
 70
   128
 71
    18
 72
     6
 73
     5
  0
VERTEX
  5
F05
  8
0
 10
0.0
 20
0.0
 30
0.0
 70
   128
 71
    18
 72
     8
 73
     7
  0
VERTEX
  5
F06
  8
0
 10
0.0
 20
0.0
 30
0.0
 70
   128
 71
    18
 72
     7
 73
     6
  0
SEQEND
  5
1786
  8
0
  0
POLYLINE
  5
F07
  8
0
 66
     1
 10
0.0
 20
0.0
 30
0.0
 70
    64
 71
    13
 72
    11
  0
VERTEX
  5
F08
  8
0
 10
0.102244573408511
 20
3.896383944282445
 30
-3.904562735635255
 70
   192
  0
VERTEX
  5
F09
  8
0
 10
-0.1829110377245753
 20
3.899325770559547
 30
-2.522176434806099
 70
   192
  0
VERTEX
  5
F0A
  8
0
 10
-1.668517976750332
 20
3.903980333699127
 30
-0.687127724583916
 70
   192
  0
VERTEX
  5
F0B
  8
0
 10
-3.90570774974459
 20
3.905696534938575
 30
-0.0093266660762736
 70
   192
  0
VERTEX
  5
F0C
  8
0
 10
-4.101124271232094
 20
302.5687203570879
 30
-0.2200643929693172
 70
   192
  0
VERTEX
  5
F0D
  8
0
 10
-4.098318975654674
 20
600.5870146796302
 30
-0.2170403461242966
 70
   192
  0
VERTEX
  5
F0E
  8
0
 10
-3.90364999348417
 20
895.3470033097011
 30
-0.0088654497496697
 70
   192
  0
VERTEX
  5
F0F
  8
0
 10
-3.903649993500957
 20
895.3470034032113
 30
-0.0088654432567985
 70
   192
  0
VERTEX
  5
F10
  8
0
 10
-1.930912665000454
 20
895.3482520747565
 30
-0.5250553936611633
 70
   192
  0
VERTEX
  5
F11
  8
0
 10
-0.4689732141947918
 20
895.3514622283858
 30
-1.946628089104526
 70
   192
  0
VERTEX
  5
F12
  8
0
 10
0.102233486458177
 20
895.3557996429049
 30
-3.904139336404585
 70
   192
  0
VERTEX
  5
F13
  8
0
 10
0.1075445521316072
 20
600.5873945718917
 30
-4.106960751694869
 70
   192
  0
VERTEX
  5
F14
  8
0
 10
0.1076197980554256
 20
302.5682617886359
 30
-4.109834277598946
 70
   192
  0
VERTEX
  5
F15
  8
0
 10
0.0
 20
0.0
 30
0.0
 70
   128
 71
     7
 72
     6
 73
     9
  0
VERTEX
  5
F16
  8
0
 10
0.0
 20
0.0
 30
0.0
 70
   128
 71
     9
 72
     8
 73
     7
  0
VERTEX
  5
F17
  8
0
 10
0.0
 20
0.0
 30
0.0
 70
   128
 71
     6
 72
    12
 73
    10
  0
VERTEX
  5
F18
  8
0
 10
0.0
 20
0.0
 30
0.0
 70
   128
 71
     6
 72
    10
 73
     9
  0
VERTEX
  5
F19
  8
0
 10
0.0
 20
0.0
 30
0.0
 70
   128
 71
    12
 72
    11
 73
    10
  0
VERTEX
  5
F1A
  8
0
 10
0.0
 20
0.0
 30
0.0
 70
   128
 71
     6
 72
     5
 73
    13
  0
VERTEX
  5
F1B
  8
0
 10
0.0
 20
0.0
 30
0.0
 70
   128
 71
     6
 72
    13
 73
    12
  0
VERTEX
  5
F1C
  8
0
 10
0.0
 20
0.0
 30
0.0
 70
   128
 71
     2
 72
     1
 73
    13
  0
VERTEX
  5
F1D
  8
0
 10
0.0
 20
0.0
 30
0.0
 70
   128
 71
    13
 72
     5
 73
     3
  0
VERTEX
  5
F1E
  8
0
 10
0.0
 20
0.0
 30
0.0
 70
   128
 71
    13
 72
     3
 73
     2
  0
VERTEX
  5
F1F
  8
0
 10
0.0
 20
0.0
 30
0.0
 70
   128
 71
     5
 72
     4
 73
     3
  0
SEQEND
  5
1787
  8
0
  0
POLYLINE
  5
F20
  8
0
 66
     1
 10
0.0
 20
0.0
 30
0.0
 70
    64
 71
    20
 72
    18
  0
VERTEX
  5
F21
  8
0
 10
-3.90570774974459
 20
3.905696534938575
 30
-0.0093266660762736
 70
   192
  0
VERTEX
  5
F22
  8
0
 10
-3.905734140449835
 20
3.905696534156392
 30
-0.0093263712481324
 70
   192
  0
VERTEX
  5
F23
  8
0
 10
-3.905733964885677
 20
3.902592302393477
 30
-0.0093203482570265
 70
   192
  0
VERTEX
  5
F24
  8
0
 10
-3.905733783689941
 20
3.899488066891486
 30
-0.0093167343291354
 70
   192
  0
VERTEX
  5
F25
  8
0
 10
-3.905733596862737
 20
3.896383829520003
 30
-0.0093155294666354
 70
   192
  0
VERTEX
  5
F26
  8
0
 10
-3.904401058610659
 20
1.926689457220186
 30
-0.5278911855945956
 70
   192
  0
VERTEX
  5
F27
  8
0
 10
-3.900989619507545
 20
0.467714481287103
 30
-1.949157799830155
 70
   192
  0
VERTEX
  5
F28
  8
0
 10
-3.896383826840005
 20
-0.1022454733335416
 30
-3.9045970967296
 70
   192
  0
VERTEX
  5
F29
  8
0
 10
-566.7945030500864
 20
-0.1067376719180494
 30
-4.076147239501351
 70
   192
  0
VERTEX
  5
F2A
  8
0
 10
-1128.879582929838
 20
-0.1067680299913376
 30
-4.077306567541485
 70
   192
  0
VERTEX
  5
F2B
  8
0
 10
-1696.10362918
 20
-0.102258484062995
 30
-3.905093956399594
 70
   192
  0
VERTEX
  5
F2C
  8
0
 10
-1696.098824946438
 20
0.4677014397128945
 30
-1.949655085084383
 70
   192
  0
VERTEX
  5
F2D
  8
0
 10
-1696.095266292084
 20
1.9266764172806
 30
-0.528388774489585
 70
   192
  0
VERTEX
  5
F2E
  8
0
 10
-1696.093875935562
 20
3.89637082012
 30
-0.0098132243976798
 70
   192
  0
VERTEX
  5
F2F
  8
0
 10
-1696.093875730579
 20
3.899626870467232
 30
-0.0098145499625901
 70
   192
  0
VERTEX
  5
F30
  8
0
 10
-1696.093875532059
 20
3.90288291865709
 30
-0.0098185259850219
 70
   192
  0
VERTEX
  5
F31
  8
0
 10
-1696.093875340001
 20
3.906138962532064
 30
-0.0098251524623381
 70
   192
  0
VERTEX
  5
F32
  8
0
 10
-1696.09390603104
 20
3.906138963237445
 30
-0.0098255924354868
 70
   192
  0
VERTEX
  5
F33
  8
0
 10
-1126.414433393
 20
4.070982565612981
 30
-0.1853810984388596
 70
   192
  0
VERTEX
  5
F34
  8
0
 10
-576.8277757349692
 20
4.069780199110122
 30
-0.184177468572959
 70
   192
  0
VERTEX
  5
F35
  8
0
 10
0.0
 20
0.0
 30
0.0
 70
   128
 71
    12
 72
    11
 73
    10
  0
VERTEX
  5
F36
  8
0
 10
0.0
 20
0.0
 30
0.0
 70
   128
 71
    10
 72
    13
 73
    12
  0
VERTEX
  5
F37
  8
0
 10
0.0
 20
0.0
 30
0.0
 70
   128
 71
    10
 72
    14
 73
    13
  0
VERTEX
  5
F38
  8
0
 10
0.0
 20
0.0
 30
0.0
 70
   128
 71
    10
 72
    15
 73
    14
  0
VERTEX
  5
F39
  8
0
 10
0.0
 20
0.0
 30
0.0
 70
   128
 71
    10
 72
    16
 73
    15
  0
VERTEX
  5
F3A
  8
0
 10
0.0
 20
0.0
 30
0.0
 70
   128
 71
    10
 72
    19
 73
    17
  0
VERTEX
  5
F3B
  8
0
 10
0.0
 20
0.0
 30
0.0
 70
   128
 71
    10
 72
    17
 73
    16
  0
VERTEX
  5
F3C
  8
0
 10
0.0
 20
0.0
 30
0.0
 70
   128
 71
    19
 72
    18
 73
    17
  0
VERTEX
  5
F3D
  8
0
 10
0.0
 20
0.0
 30
0.0
 70
   128
 71
    10
 72
     9
 73
    20
  0
VERTEX
  5
F3E
  8
0
 10
0.0
 20
0.0
 30
0.0
 70
   128
 71
    10
 72
    20
 73
    19
  0
VERTEX
  5
F3F
  8
0
 10
0.0
 20
0.0
 30
0.0
 70
   128
 71
     2
 72
     1
 73
    20
  0
VERTEX
  5
F40
  8
0
 10
0.0
 20
0.0
 30
0.0
 70
   128
 71
    20
 72
     9
 73
     3
  0
VERTEX
  5
F41
  8
0
 10
0.0
 20
0.0
 30
0.0
 70
   128
 71
    20
 72
     3
 73
     2
  0
VERTEX
  5
F42
  8
0
 10
0.0
 20
0.0
 30
0.0
 70
   128
 71
     9
 72
     4
 73
     3
  0
VERTEX
  5
F43
  8
0
 10
0.0
 20
0.0
 30
0.0
 70
   128
 71
     9
 72
     5
 73
     4
  0
VERTEX
  5
F44
  8
0
 10
0.0
 20
0.0
 30
0.0
 70
   128
 71
     9
 72
     6
 73
     5
  0
VERTEX
  5
F45
  8
0
 10
0.0
 20
0.0
 30
0.0
 70
   128
 71
     9
 72
     7
 73
     6
  0
VERTEX
  5
F46
  8
0
 10
0.0
 20
0.0
 30
0.0
 70
   128
 71
     9
 72
     8
 73
     7
  0
SEQEND
  5
1788
  8
0
  0
POLYLINE
  5
F47
  8
0
 66
     1
 10
0.0
 20
0.0
 30
0.0
 70
    64
 71
    13
 72
    11
  0
VERTEX
  5
F48
  8
0
 10
-1632.86903513
 20
524.049026564
 30
-2.44307350127
 70
   192
  0
VERTEX
  5
F49
  8
0
 10
-1632.869035235937
 20
524.049039831759
 30
-2.443076133500545
 70
   192
  0
VERTEX
  5
F4A
  8
0
 10
-1631.104307439699
 20
524.0601229414757
 30
-2.899360486221075
 70
   192
  0
VERTEX
  5
F4B
  8
0
 10
-1629.725315776153
 20
524.0790453715831
 30
-4.091252416802549
 70
   192
  0
VERTEX
  5
F4C
  8
0
 10
-1629.018423049565
 20
524.1018733061919
 30
-5.771241854532501
 70
   192
  0
VERTEX
  5
F4D
  8
0
 10
-1628.847398812809
 20
387.3255411129689
 30
-5.937007879361683
 70
   192
  0
VERTEX
  5
F4E
  8
0
 10
-1628.735328737166
 20
250.3930098003969
 30
-5.796431612593679
 70
   192
  0
VERTEX
  5
F4F
  8
0
 10
-1628.625094000002
 20
110.38448314
 30
-5.664643560820548
 70
   192
  0
VERTEX
  5
F50
  8
0
 10
-1629.390481480691
 20
110.3919108871564
 30
-4.107435122097685
 70
   192
  0
VERTEX
  5
F51
  8
0
 10
-1630.743283910278
 20
110.3972154596237
 30
-3.020849305575319
 70
   192
  0
VERTEX
  5
F52
  8
0
 10
-1632.42894012
 20
110.399398679
 30
-2.60935244674
 70
   192
  0
VERTEX
  5
F53
  8
0
 10
-1632.565094417704
 20
247.8967316357048
 30
-2.649839978576922
 70
   192
  0
VERTEX
  5
F54
  8
0
 10
-1632.698389966201
 20
387.3231009269678
 30
-2.700005464171372
 70
   192
  0
VERTEX
  5
F55
  8
0
 10
0.0
 20
0.0
 30
0.0
 70
   128
 71
     9
 72
     8
 73
     7
  0
VERTEX
  5
F56
  8
0
 10
0.0
 20
0.0
 30
0.0
 70
   128
 71
     9
 72
     7
 73
    12
  0
VERTEX
  5
F57
  8
0
 10
0.0
 20
0.0
 30
0.0
 70
   128
 71
    12
 72
    10
 73
     9
  0
VERTEX
  5
F58
  8
0
 10
0.0
 20
0.0
 30
0.0
 70
   128
 71
    12
 72
    11
 73
    10
  0
VERTEX
  5
F59
  8
0
 10
0.0
 20
0.0
 30
0.0
 70
   128
 71
     7
 72
     6
 73
    13
  0
VERTEX
  5
F5A
  8
0
 10
0.0
 20
0.0
 30
0.0
 70
   128
 71
     7
 72
    13
 73
    12
  0
VERTEX
  5
F5B
  8
0
 10
0.0
 20
0.0
 30
0.0
 70
   128
 71
     6
 72
     5
 73
     1
  0
VERTEX
  5
F5C
  8
0
 10
0.0
 20
0.0
 30
0.0
 70
   128
 71
     6
 72
     1
 73
    13
  0
VERTEX
  5
F5D
  8
0
 10
0.0
 20
0.0
 30
0.0
 70
   128
 71
     3
 72
     2
 73
     1
  0
VERTEX
  5
F5E
  8
0
 10
0.0
 20
0.0
 30
0.0
 70
   128
 71
     1
 72
     4
 73
     3
  0
VERTEX
  5
F5F
  8
0
 10
0.0
 20
0.0
 30
0.0
 70
   128
 71
     1
 72
     5
 73
     4
  0
SEQEND
  5
1789
  8
0
  0
POLYLINE
  5
F60
  8
0
 66
     1
 10
0.0
 20
0.0
 30
0.0
 70
    64
 71
    12
 72
    10
  0
VERTEX
  5
F61
  8
0
 10
-1632.42894012
 20
110.399398679
 30
-2.60935244674
 70
   192
  0
VERTEX
  5
F62
  8
0
 10
-1629.038849103259
 20
98.23767311458856
 30
-2.600370099258419
 70
   192
  0
VERTEX
  5
F63
  8
0
 10
-1619.902106969547
 20
89.63842870609405
 30
-2.673056230633888
 70
   192
  0
VERTEX
  5
F64
  8
0
 10
-1607.90236264
 20
86.6779053847
 30
-2.78134660997
 70
   192
  0
VERTEX
  5
F65
  8
0
 10
-1607.908105122987
 20
88.54707752553621
 30
-3.270141490473652
 70
   192
  0
VERTEX
  5
F66
  8
0
 10
-1607.92102627299
 20
89.96909632207426
 30
-4.577983380118015
 70
   192
  0
VERTEX
  5
F67
  8
0
 10
-1607.938127449998
 20
90.61220878019998
 30
-6.39975963918002
 70
   192
  0
VERTEX
  5
F68
  8
0
 10
-1618.111410067621
 20
93.03808146458108
 30
-5.831253796961722
 70
   192
  0
VERTEX
  5
F69
  8
0
 10
-1625.816646315008
 20
100.2021410961829
 30
-5.542223947883335
 70
   192
  0
VERTEX
  5
F6A
  8
0
 10
-1628.625094
 20
110.38448314
 30
-5.664643560819989
 70
   192
  0
VERTEX
  5
F6B
  8
0
 10
-1629.390481480691
 20
110.3919108871564
 30
-4.107435122097685
 70
   192
  0
VERTEX
  5
F6C
  8
0
 10
-1630.743283910278
 20
110.3972154596237
 30
-3.020849305575319
 70
   192
  0
VERTEX
  5
F6D
  8
0
 10
0.0
 20
0.0
 30
0.0
 70
   128
 71
     6
 72
     7
 73
     8
  0
VERTEX
  5
F6E
  8
0
 10
0.0
 20
0.0
 30
0.0
 70
   128
 71
     8
 72
     9
 73
     6
  0
VERTEX
  5
F6F
  8
0
 10
0.0
 20
0.0
 30
0.0
 70
   128
 71
     9
 72
    11
 73
     6
  0
VERTEX
  5
F70
  8
0
 10
0.0
 20
0.0
 30
0.0
 70
   128
 71
     9
 72
    10
 73
    11
  0
VERTEX
  5
F71
  8
0
 10
0.0
 20
0.0
 30
0.0
 70
   128
 71
    12
 72
     5
 73
     6
  0
VERTEX
  5
F72
  8
0
 10
0.0
 20
0.0
 30
0.0
 70
   128
 71
    11
 72
    12
 73
     6
  0
VERTEX
  5
F73
  8
0
 10
0.0
 20
0.0
 30
0.0
 70
   128
 71
    12
 72
     1
 73
     2
  0
VERTEX
  5
F74
  8
0
 10
0.0
 20
0.0
 30
0.0
 70
   128
 71
     2
 72
     3
 73
    12
  0
VERTEX
  5
F75
  8
0
 10
0.0
 20
0.0
 30
0.0
 70
   128
 71
     3
 72
     5
 73
    12
  0
VERTEX
  5
F76
  8
0
 10
0.0
 20
0.0
 30
0.0
 70
   128
 71
     3
 72
     4
 73
     5
  0
SEQEND
  5
178A
  8
0
  0
POLYLINE
  5
F77
  8
0
 66
     1
 10
0.0
 20
0.0
 30
0.0
 70
    64
 71
    16
 72
    14
  0
VERTEX
  5
F78
  8
0
 10
-1607.90236264
 20
86.6779053847
 30
-2.78134660997
 70
   192
  0
VERTEX
  5
F79
  8
0
 10
-1607.902378467568
 20
86.67790533489742
 30
-2.781349766634363
 70
   192
  0
VERTEX
  5
F7A
  8
0
 10
-1607.908105122987
 20
88.54707752553621
 30
-3.270141490473652
 70
   192
  0
VERTEX
  5
F7B
  8
0
 10
-1607.92102627299
 20
89.96909632207426
 30
-4.577983380118015
 70
   192
  0
VERTEX
  5
F7C
  8
0
 10
-1607.93812745
 20
90.6122087802
 30
-6.399759639179999
 70
   192
  0
VERTEX
  5
F7D
  8
0
 10
-1100.810653480756
 20
90.50215569387916
 30
-6.316165059200198
 70
   192
  0
VERTEX
  5
F7E
  8
0
 10
-595.6242089263415
 20
90.40501339669036
 30
-6.380423732680931
 70
   192
  0
VERTEX
  5
F7F
  8
0
 10
-95.07813600871302
 20
90.31319400090185
 30
-6.568650413144883
 70
   192
  0
VERTEX
  5
F80
  8
0
 10
-95.09524714389093
 20
89.72445219995039
 30
-4.665775328064644
 70
   192
  0
VERTEX
  5
F81
  8
0
 10
-95.10832008134989
 20
88.29091374066466
 30
-3.282793089346932
 70
   192
  0
VERTEX
  5
F82
  8
0
 10
-95.11411286064246
 20
86.3680821202101
 30
-2.762669746627273
 70
   192
  0
VERTEX
  5
F83
  8
0
 10
-95.1141122713596
 20
86.36808211894508
 30
-2.762669812533445
 70
   192
  0
VERTEX
  5
F84
  8
0
 10
-846.7224434954908
 20
86.5313765880108
 30
-2.588697957475949
 70
   192
  0
VERTEX
  5
F85
  8
0
 10
-979.3189206903326
 20
86.55742507536795
 30
-2.599581298825798
 70
   192
  0
VERTEX
  5
F86
  8
0
 10
-1226.055467468301
 20
86.60539833196057
 30
-2.700382421331504
 70
   192
  0
VERTEX
  5
F87
  8
0
 10
-1511.034976683837
 20
86.6602897680115
 30
-2.882063940583866
 70
   192
  0
VERTEX
  5
F88
  8
0
 10
0.0
 20
0.0
 30
0.0
 70
   128
 71
     9
 72
     8
 73
     7
  0
VERTEX
  5
F89
  8
0
 10
0.0
 20
0.0
 30
0.0
 70
   128
 71
     7
 72
    10
 73
     9
  0
VERTEX
  5
F8A
  8
0
 10
0.0
 20
0.0
 30
0.0
 70
   128
 71
     7
 72
    13
 73
    11
  0
VERTEX
  5
F8B
  8
0
 10
0.0
 20
0.0
 30
0.0
 70
   128
 71
    11
 72
    10
 73
     7
  0
VERTEX
  5
F8C
  8
0
 10
0.0
 20
0.0
 30
0.0
 70
   128
 71
    13
 72
    12
 73
    11
  0
VERTEX
  5
F8D
  8
0
 10
0.0
 20
0.0
 30
0.0
 70
   128
 71
     7
 72
    14
 73
    13
  0
VERTEX
  5
F8E
  8
0
 10
0.0
 20
0.0
 30
0.0
 70
   128
 71
     7
 72
     6
 73
    14
  0
VERTEX
  5
F8F
  8
0
 10
0.0
 20
0.0
 30
0.0
 70
   128
 71
     6
 72
    15
 73
    14
  0
VERTEX
  5
F90
  8
0
 10
0.0
 20
0.0
 30
0.0
 70
   128
 71
     6
 72
    16
 73
    15
  0
VERTEX
  5
F91
  8
0
 10
0.0
 20
0.0
 30
0.0
 70
   128
 71
     6
 72
     5
 73
    16
  0
VERTEX
  5
F92
  8
0
 10
0.0
 20
0.0
 30
0.0
 70
   128
 71
     3
 72
     1
 73
    16
  0
VERTEX
  5
F93
  8
0
 10
0.0
 20
0.0
 30
0.0
 70
   128
 71
    16
 72
     4
 73
     3
  0
VERTEX
  5
F94
  8
0
 10
0.0
 20
0.0
 30
0.0
 70
   128
 71
    16
 72
     5
 73
     4
  0
VERTEX
  5
F95
  8
0
 10
0.0
 20
0.0
 30
0.0
 70
   128
 71
     3
 72
     2
 73
     1
  0
SEQEND
  5
178B
  8
0
  0
POLYLINE
  5
F96
  8
0
 66
     1
 10
0.0
 20
0.0
 30
0.0
 70
    64
 71
    12
 72
    10
  0
VERTEX
  5
F97
  8
0
 10
-95.1141122713596
 20
86.36808211894508
 30
-2.762669812533445
 70
   192
  0
VERTEX
  5
F98
  8
0
 10
-82.76614942684597
 20
89.02614260900407
 30
-2.65367747581154
 70
   192
  0
VERTEX
  5
F99
  8
0
 10
-72.72885286277123
 20
97.25975502680438
 30
-2.57092969497336
 70
   192
  0
VERTEX
  5
F9A
  8
0
 10
-68.65772582326781
 20
110.0450992629998
 30
-2.575865990880555
 70
   192
  0
VERTEX
  5
F9B
  8
0
 10
-70.11780328092775
 20
110.0390866910982
 30
-2.885030746159714
 70
   192
  0
VERTEX
  5
F9C
  8
0
 10
-71.36290113285882
 20
110.03118620566
 30
-3.707871242556354
 70
   192
  0
VERTEX
  5
F9D
  8
0
 10
-72.21970184360349
 20
110.0224541996578
 30
-4.92984357371027
 70
   192
  0
VERTEX
  5
F9E
  8
0
 10
-75.67485771472123
 20
99.35072529957098
 30
-5.040401277694522
 70
   192
  0
VERTEX
  5
F9F
  8
0
 10
-84.34425055114578
 20
92.4983774412812
 30
-5.685511984407142
 70
   192
  0
VERTEX
  5
FA0
  8
0
 10
-95.078135924219
 20
90.3131940670867
 30
-6.5686504091929
 70
   192
  0
VERTEX
  5
FA1
  8
0
 10
-95.09524714389093
 20
89.72445219995039
 30
-4.665775328064644
 70
   192
  0
VERTEX
  5
FA2
  8
0
 10
-95.10832008134989
 20
88.29091374066466
 30
-3.282793089346932
 70
   192
  0
VERTEX
  5
FA3
  8
0
 10
0.0
 20
0.0
 30
0.0
 70
   128
 71
     6
 72
     7
 73
     8
  0
VERTEX
  5
FA4
  8
0
 10
0.0
 20
0.0
 30
0.0
 70
   128
 71
     8
 72
     9
 73
     6
  0
VERTEX
  5
FA5
  8
0
 10
0.0
 20
0.0
 30
0.0
 70
   128
 71
     9
 72
    11
 73
     6
  0
VERTEX
  5
FA6
  8
0
 10
0.0
 20
0.0
 30
0.0
 70
   128
 71
     9
 72
    10
 73
    11
  0
VERTEX
  5
FA7
  8
0
 10
0.0
 20
0.0
 30
0.0
 70
   128
 71
    12
 72
     5
 73
     6
  0
VERTEX
  5
FA8
  8
0
 10
0.0
 20
0.0
 30
0.0
 70
   128
 71
    11
 72
    12
 73
     6
  0
VERTEX
  5
FA9
  8
0
 10
0.0
 20
0.0
 30
0.0
 70
   128
 71
    12
 72
     1
 73
     2
  0
VERTEX
  5
FAA
  8
0
 10
0.0
 20
0.0
 30
0.0
 70
   128
 71
     2
 72
     3
 73
    12
  0
VERTEX
  5
FAB
  8
0
 10
0.0
 20
0.0
 30
0.0
 70
   128
 71
     3
 72
     5
 73
    12
  0
VERTEX
  5
FAC
  8
0
 10
0.0
 20
0.0
 30
0.0
 70
   128
 71
     3
 72
     4
 73
     5
  0
SEQEND
  5
178C
  8
0
  0
POLYLINE
  5
FAD
  8
0
 66
     1
 10
0.0
 20
0.0
 30
0.0
 70
    64
 71
    12
 72
    10
  0
VERTEX
  5
FAE
  8
0
 10
-68.65772582326781
 20
110.0450992629998
 30
-2.575865990880555
 70
   192
  0
VERTEX
  5
FAF
  8
0
 10
-70.11780328092775
 20
110.0390866910982
 30
-2.885030746159714
 70
   192
  0
VERTEX
  5
FB0
  8
0
 10
-71.36290113285882
 20
110.03118620566
 30
-3.707871242556354
 70
   192
  0
VERTEX
  5
FB1
  8
0
 10
-72.21970184360349
 20
110.0224541996578
 30
-4.92984357371027
 70
   192
  0
VERTEX
  5
FB2
  8
0
 10
-72.3160409945057
 20
340.2733357370308
 30
-4.773056391817206
 70
   192
  0
VERTEX
  5
FB3
  8
0
 10
-72.40937525370889
 20
564.1345329658229
 30
-4.646341869602796
 70
   192
  0
VERTEX
  5
FB4
  8
0
 10
-72.49714224429431
 20
792.81247448968
 30
-4.52452650178126
 70
   192
  0
VERTEX
  5
FB5
  8
0
 10
-71.6251584629487
 20
792.7965044405843
 30
-3.445241009126216
 70
   192
  0
VERTEX
  5
FB6
  8
0
 10
-70.4368955191714
 20
792.7827312359708
 30
-2.728747074649685
 70
   192
  0
VERTEX
  5
FB7
  8
0
 10
-69.07534519423331
 20
792.772812659001
 30
-2.461264407619985
 70
   192
  0
VERTEX
  5
FB8
  8
0
 10
-68.94882729001995
 20
576.9552479118936
 30
-2.493416814064765
 70
   192
  0
VERTEX
  5
FB9
  8
0
 10
-68.7937885630287
 20
333.0999335667954
 30
-2.525381368935081
 70
   192
  0
VERTEX
  5
FBA
  8
0
 10
0.0
 20
0.0
 30
0.0
 70
   128
 71
     8
 72
     7
 73
     6
  0
VERTEX
  5
FBB
  8
0
 10
0.0
 20
0.0
 30
0.0
 70
   128
 71
     8
 72
     6
 73
    11
  0
VERTEX
  5
FBC
  8
0
 10
0.0
 20
0.0
 30
0.0
 70
   128
 71
    11
 72
     9
 73
     8
  0
VERTEX
  5
FBD
  8
0
 10
0.0
 20
0.0
 30
0.0
 70
   128
 71
    11
 72
    10
 73
     9
  0
VERTEX
  5
FBE
  8
0
 10
0.0
 20
0.0
 30
0.0
 70
   128
 71
     6
 72
     5
 73
    12
  0
VERTEX
  5
FBF
  8
0
 10
0.0
 20
0.0
 30
0.0
 70
   128
 71
     6
 72
    12
 73
    11
  0
VERTEX
  5
FC0
  8
0
 10
0.0
 20
0.0
 30
0.0
 70
   128
 71
     2
 72
     1
 73
    12
  0
VERTEX
  5
FC1
  8
0
 10
0.0
 20
0.0
 30
0.0
 70
   128
 71
    12
 72
     3
 73
     2
  0
VERTEX
  5
FC2
  8
0
 10
0.0
 20
0.0
 30
0.0
 70
   128
 71
    12
 72
     5
 73
     4
  0
VERTEX
  5
FC3
  8
0
 10
0.0
 20
0.0
 30
0.0
 70
   128
 71
    12
 72
     4
 73
     3
  0
SEQEND
  5
178D
  8
0
  0
POLYLINE
  5
FC4
  8
0
 66
     1
 10
0.0
 20
0.0
 30
0.0
 70
    64
 71
    12
 72
    10
  0
VERTEX
  5
FC5
  8
0
 10
-348.119904825276
 20
683.881408277979
 30
-427.8623418543395
 70
   192
  0
VERTEX
  5
FC6
  8
0
 10
-356.1945091385533
 20
702.6621349445045
 30
-427.5076397715077
 70
   192
  0
VERTEX
  5
FC7
  8
0
 10
-371.5684730922607
 20
715.3751895448851
 30
-422.1707167658437
 70
   192
  0
VERTEX
  5
FC8
  8
0
 10
-390.150040719422
 20
718.609069347883
 30
-413.3121554857925
 70
   192
  0
VERTEX
  5
FC9
  8
0
 10
-287.8126447924413
 20
751.9248352898769
 30
-283.0192570489782
 70
   192
  0
VERTEX
  5
FCA
  8
0
 10
-196.5234834106898
 20
780.9564692242095
 30
-155.5078724986206
 70
   192
  0
VERTEX
  5
FCB
  8
0
 10
-99.75819543371429
 20
810.83717345535
 30
-6.156402431441051
 70
   192
  0
VERTEX
  5
FCC
  8
0
 10
-87.6586504694223
 20
810.6191751062473
 30
-5.126900019399278
 70
   192
  0
VERTEX
  5
FCD
  8
0
 10
-76.91813804683838
 20
804.578967811098
 30
-4.430621191036504
 70
   192
  0
VERTEX
  5
FCE
  8
0
 10
-72.49714224429431
 20
792.81247448968
 30
-4.52452650178126
 70
   192
  0
VERTEX
  5
FCF
  8
0
 10
-158.5368508648189
 20
758.5791850948053
 30
-151.6489354555884
 70
   192
  0
VERTEX
  5
FD0
  8
0
 10
-250.7038398829313
 20
722.1014368665491
 30
-293.0532409487718
 70
   192
  0
VERTEX
  5
FD1
  8
0
 10
0.0
 20
0.0
 30
0.0
 70
   128
 71
    11
 72
    10
 73
     9
  0
VERTEX
  5
FD2
  8
0
 10
0.0
 20
0.0
 30
0.0
 70
   128
 71
    11
 72
     9
 73
     8
  0
VERTEX
  5
FD3
  8
0
 10
0.0
 20
0.0
 30
0.0
 70
   128
 71
    11
 72
     8
 73
     7
  0
VERTEX
  5
FD4
  8
0
 10
0.0
 20
0.0
 30
0.0
 70
   128
 71
    11
 72
     7
 73
     6
  0
VERTEX
  5
FD5
  8
0
 10
0.0
 20
0.0
 30
0.0
 70
   128
 71
     6
 72
     5
 73
    12
  0
VERTEX
  5
FD6
  8
0
 10
0.0
 20
0.0
 30
0.0
 70
   128
 71
     6
 72
    12
 73
    11
  0
VERTEX
  5
FD7
  8
0
 10
0.0
 20
0.0
 30
0.0
 70
   128
 71
     2
 72
     1
 73
    12
  0
VERTEX
  5
FD8
  8
0
 10
0.0
 20
0.0
 30
0.0
 70
   128
 71
     2
 72
    12
 73
     5
  0
VERTEX
  5
FD9
  8
0
 10
0.0
 20
0.0
 30
0.0
 70
   128
 71
     5
 72
     3
 73
     2
  0
VERTEX
  5
FDA
  8
0
 10
0.0
 20
0.0
 30
0.0
 70
   128
 71
     5
 72
     4
 73
     3
  0
SEQEND
  5
178E
  8
0
  0
POLYLINE
  5
FDB
  8
0
 66
     1
 10
0.0
 20
0.0
 30
0.0
 70
    64
 71
    22
 72
    20
  0
VERTEX
  5
FDC
  8
0
 10
-1051.29893991637
 20
602.1553158339495
 30
-422.0776650654811
 70
   192
  0
VERTEX
  5
FDD
  8
0
 10
-1115.931697023995
 20
591.0118113055262
 30
-420.8570007369037
 70
   192
  0
VERTEX
  5
FDE
  8
0
 10
-1111.374697304576
 20
561.6996467515286
 30
-447.6896017063904
 70
   192
  0
VERTEX
  5
FDF
  8
0
 10
-1239.049502974629
 20
553.8741792445977
 30
-441.7564457282386
 70
   192
  0
VERTEX
  5
FE0
  8
0
 10
-1236.723681334816
 20
539.9999984811959
 30
-445.3106657619525
 70
   192
  0
VERTEX
  5
FE1
  8
0
 10
-1240.69652247915
 20
564.5027820512707
 30
-432.0171605155221
 70
   192
  0
VERTEX
  5
FE2
  8
0
 10
-1241.279467333486
 20
569.3995486427791
 30
-418.3710391618581
 70
   192
  0
VERTEX
  5
FE3
  8
0
 10
-702.2701656785014
 20
633.243839771921
 30
-445.7336008101203
 70
   192
  0
VERTEX
  5
FE4
  8
0
 10
-384.4705757138865
 20
689.4320682669031
 30
-439.5846435337715
 70
   192
  0
VERTEX
  5
FE5
  8
0
 10
-386.9583364504933
 20
703.0980783202012
 30
-436.1508238669044
 70
   192
  0
VERTEX
  5
FE6
  8
0
 10
-707.9319496504316
 20
662.393211925998
 30
-419.2323383182326
 70
   192
  0
VERTEX
  5
FE7
  8
0
 10
-824.6705845605615
 20
641.7739407870006
 30
-421.350180592882
 70
   192
  0
VERTEX
  5
FE8
  8
0
 10
-819.0442243353913
 20
612.6907826671078
 30
-447.9401625647189
 70
   192
  0
VERTEX
  5
FE9
  8
0
 10
-876.4626545370857
 20
602.6618368169558
 30
-448.9609608586156
 70
   192
  0
VERTEX
  5
FEA
  8
0
 10
-1000.053993217318
 20
611.0037633042243
 30
-422.8972239900207
 70
   192
  0
VERTEX
  5
FEB
  8
0
 10
-1046.718324171778
 20
572.9579073170378
 30
-448.8540946118105
 70
   192
  0
VERTEX
  5
FEC
  8
0
 10
-995.3522235036894
 20
582.0166649883547
 30
-449.6289581871383
 70
   192
  0
VERTEX
  5
FED
  8
0
 10
-954.0151703410842
 20
619.0044760171762
 30
-423.1592983377857
 70
   192
  0
VERTEX
  5
FEE
  8
0
 10
-948.8790221479746
 20
590.205967520443
 30
-449.8517976089625
 70
   192
  0
VERTEX
  5
FEF
  8
0
 10
-882.0238912244284
 20
631.6561046355348
 30
-422.3263228964772
 70
   192
  0
VERTEX
  5
FF0
  8
0
 10
-389.0068247408042
 20
713.6217356546086
 30
-426.6747791631679
 70
   192
  0
VERTEX
  5
FF1
  8
0
 10
-390.150040719422
 20
718.609069347883
 30
-413.3121554857925
 70
   192
  0
VERTEX
  5
FF2
  8
0
 10
0.0
 20
0.0
 30
0.0
 70
   128
 71
     1
 72
     2
 73
     3
  0
VERTEX
  5
FF3
  8
0
 10
0.0
 20
0.0
 30
0.0
 70
   128
 71
     4
 72
     5
 73
     3
  0
VERTEX
  5
FF4
  8
0
 10
0.0
 20
0.0
 30
0.0
 70
   128
 71
     3
 72
     2
 73
     6
  0
VERTEX
  5
FF5
  8
0
 10
0.0
 20
0.0
 30
0.0
 70
   128
 71
     3
 72
     6
 73
     4
  0
VERTEX
  5
FF6
  8
0
 10
0.0
 20
0.0
 30
0.0
 70
   128
 71
     2
 72
     7
 73
     6
  0
VERTEX
  5
FF7
  8
0
 10
0.0
 20
0.0
 30
0.0
 70
   128
 71
     8
 72
     9
 73
    10
  0
VERTEX
  5
FF8
  8
0
 10
0.0
 20
0.0
 30
0.0
 70
   128
 71
    11
 72
    12
 73
    13
  0
VERTEX
  5
FF9
  8
0
 10
0.0
 20
0.0
 30
0.0
 70
   128
 71
    12
 72
    14
 73
    13
  0
VERTEX
  5
FFA
  8
0
 10
0.0
 20
0.0
 30
0.0
 70
   128
 71
    15
 72
    16
 73
    17
  0
VERTEX
  5
FFB
  8
0
 10
0.0
 20
0.0
 30
0.0
 70
   128
 71
    17
 72
    18
 73
    15
  0
VERTEX
  5
FFC
  8
0
 10
0.0
 20
0.0
 30
0.0
 70
   128
 71
    19
 72
    20
 73
    18
  0
VERTEX
  5
FFD
  8
0
 10
0.0
 20
0.0
 30
0.0
 70
   128
 71
    19
 72
    18
 73
    17
  0
VERTEX
  5
FFE
  8
0
 10
0.0
 20
0.0
 30
0.0
 70
   128
 71
    16
 72
    15
 73
     1
  0
VERTEX
  5
FFF
  8
0
 10
0.0
 20
0.0
 30
0.0
 70
   128
 71
     1
 72
     3
 73
    16
  0
VERTEX
  5
1000
  8
0
 10
0.0
 20
0.0
 30
0.0
 70
   128
 71
    20
 72
    19
 73
    14
  0
VERTEX
  5
1001
  8
0
 10
0.0
 20
0.0
 30
0.0
 70
   128
 71
    14
 72
    12
 73
    20
  0
VERTEX
  5
1002
  8
0
 10
0.0
 20
0.0
 30
0.0
 70
   128
 71
     8
 72
    11
 73
    13
  0
VERTEX
  5
1003
  8
0
 10
0.0
 20
0.0
 30
0.0
 70
   128
 71
    21
 72
    22
 73
    11
  0
VERTEX
  5
1004
  8
0
 10
0.0
 20
0.0
 30
0.0
 70
   128
 71
    11
 72
     8
 73
    10
  0
VERTEX
  5
1005
  8
0
 10
0.0
 20
0.0
 30
0.0
 70
   128
 71
    11
 72
    10
 73
    21
  0
SEQEND
  5
178F
  8
0
  0
POLYLINE
  5
1006
  8
0
 66
     1
 10
0.0
 20
0.0
 30
0.0
 70
    64
 71
    12
 72
    10
  0
VERTEX
  5
1007
  8
0
 10
-1236.723681334816
 20
539.9999984811959
 30
-445.3106657619525
 70
   192
  0
VERTEX
  5
1008
  8
0
 10
-1327.963234180374
 20
524.228903323809
 30
-443.5524617722351
 70
   192
  0
VERTEX
  5
1009
  8
0
 10
-1423.36749599322
 20
507.7369921524082
 30
-441.7058352410024
 70
   192
  0
VERTEX
  5
100A
  8
0
 10
-1521.31669939908
 20
490.801480484837
 30
-439.8056017532145
 70
   192
  0
VERTEX
  5
100B
  8
0
 10
-1523.660420414985
 20
504.7626971608398
 30
-436.2298574751794
 70
   192
  0
VERTEX
  5
100C
  8
0
 10
-1525.313029087515
 20
515.4284002307302
 30
-426.3960237656145
 70
   192
  0
VERTEX
  5
100D
  8
0
 10
-1525.883063065445
 20
520.272165795598
 30
-412.633500911142
 70
   192
  0
VERTEX
  5
100E
  8
0
 10
-1427.930240559272
 20
537.1903277024129
 30
-414.6120816595846
 70
   192
  0
VERTEX
  5
100F
  8
0
 10
-1332.521746081493
 20
553.6590068154151
 30
-416.5367090471553
 70
   192
  0
VERTEX
  5
1010
  8
0
 10
-1241.279467333486
 20
569.3995486427791
 30
-418.3710391618581
 70
   192
  0
VERTEX
  5
1011
  8
0
 10
-1240.69652247915
 20
564.5027820512707
 30
-432.0171605155221
 70
   192
  0
VERTEX
  5
1012
  8
0
 10
-1239.049502974629
 20
553.8741792445977
 30
-441.7564457282386
 70
   192
  0
VERTEX
  5
1013
  8
0
 10
0.0
 20
0.0
 30
0.0
 70
   128
 71
     8
 72
     7
 73
     6
  0
VERTEX
  5
1014
  8
0
 10
0.0
 20
0.0
 30
0.0
 70
   128
 71
     6
 72
     9
 73
     8
  0
VERTEX
  5
1015
  8
0
 10
0.0
 20
0.0
 30
0.0
 70
   128
 71
     6
 72
    11
 73
     9
  0
VERTEX
  5
1016
  8
0
 10
0.0
 20
0.0
 30
0.0
 70
   128
 71
    11
 72
    10
 73
     9
  0
VERTEX
  5
1017
  8
0
 10
0.0
 20
0.0
 30
0.0
 70
   128
 71
     6
 72
     5
 73
    12
  0
VERTEX
  5
1018
  8
0
 10
0.0
 20
0.0
 30
0.0
 70
   128
 71
     6
 72
    12
 73
    11
  0
VERTEX
  5
1019
  8
0
 10
0.0
 20
0.0
 30
0.0
 70
   128
 71
     2
 72
     1
 73
    12
  0
VERTEX
  5
101A
  8
0
 10
0.0
 20
0.0
 30
0.0
 70
   128
 71
    12
 72
     3
 73
     2
  0
VERTEX
  5
101B
  8
0
 10
0.0
 20
0.0
 30
0.0
 70
   128
 71
    12
 72
     5
 73
     3
  0
VERTEX
  5
101C
  8
0
 10
0.0
 20
0.0
 30
0.0
 70
   128
 71
     5
 72
     4
 73
     3
  0
SEQEND
  5
1790
  8
0
  0
POLYLINE
  5
101D
  8
0
 66
     1
 10
0.0
 20
0.0
 30
0.0
 70
    64
 71
    12
 72
    10
  0
VERTEX
  5
101E
  8
0
 10
-1525.883063065445
 20
520.272165795598
 30
-412.633500911142
 70
   192
  0
VERTEX
  5
101F
  8
0
 10
-1543.771542156819
 20
511.7280859995888
 30
-414.9450375297162
 70
   192
  0
VERTEX
  5
1020
  8
0
 10
-1554.829380606627
 20
496.5212656485238
 30
-415.5879337961894
 70
   192
  0
VERTEX
  5
1021
  8
0
 10
-1557.694155281435
 20
478.796472349805
 30
-414.6613096243209
 70
   192
  0
VERTEX
  5
1022
  8
0
 10
-1581.672320895694
 20
494.1677767899538
 30
-279.8012780976309
 70
   192
  0
VERTEX
  5
1023
  8
0
 10
-1605.435517611223
 20
509.2532937405789
 30
-143.3957651032352
 70
   192
  0
VERTEX
  5
1024
  8
0
 10
-1629.018423049565
 20
524.1018733061919
 30
-5.771241854532501
 70
   192
  0
VERTEX
  5
1025
  8
0
 10
-1626.885876150874
 20
533.178632077018
 30
-5.584795701145313
 70
   192
  0
VERTEX
  5
1026
  8
0
 10
-1620.81911544366
 20
540.2466352060294
 30
-5.687533010261589
 70
   192
  0
VERTEX
  5
1027
  8
0
 10
-1612.22219044
 20
543.833550916
 30
-6.04845702386
 70
   192
  0
VERTEX
  5
1028
  8
0
 10
-1583.390913762435
 20
535.8132416533263
 30
-143.8809525670098
 70
   192
  0
VERTEX
  5
1029
  8
0
 10
-1553.606780756602
 20
527.6872764663814
 30
-284.2691455997157
 70
   192
  0
VERTEX
  5
102A
  8
0
 10
0.0
 20
0.0
 30
0.0
 70
   128
 71
    11
 72
    10
 73
     9
  0
VERTEX
  5
102B
  8
0
 10
0.0
 20
0.0
 30
0.0
 70
   128
 71
    11
 72
     9
 73
     8
  0
VERTEX
  5
102C
  8
0
 10
0.0
 20
0.0
 30
0.0
 70
   128
 71
    11
 72
     8
 73
     7
  0
VERTEX
  5
102D
  8
0
 10
0.0
 20
0.0
 30
0.0
 70
   128
 71
    11
 72
     7
 73
     6
  0
VERTEX
  5
102E
  8
0
 10
0.0
 20
0.0
 30
0.0
 70
   128
 71
     6
 72
     5
 73
    12
  0
VERTEX
  5
102F
  8
0
 10
0.0
 20
0.0
 30
0.0
 70
   128
 71
     6
 72
    12
 73
    11
  0
VERTEX
  5
1030
  8
0
 10
0.0
 20
0.0
 30
0.0
 70
   128
 71
     2
 72
     1
 73
    12
  0
VERTEX
  5
1031
  8
0
 10
0.0
 20
0.0
 30
0.0
 70
   128
 71
    12
 72
     3
 73
     2
  0
VERTEX
  5
1032
  8
0
 10
0.0
 20
0.0
 30
0.0
 70
   128
 71
    12
 72
     5
 73
     4
  0
VERTEX
  5
1033
  8
0
 10
0.0
 20
0.0
 30
0.0
 70
   128
 71
    12
 72
     4
 73
     3
  0
SEQEND
  5
1791
  8
0
  0
POLYLINE
  5
1034
  8
0
 66
     1
 10
0.0
 20
0.0
 30
0.0
 70
    64
 71
    13
 72
    11
  0
VERTEX
  5
1035
  8
0
 10
-1699.532319790851
 20
596.731033822
 30
-1.950328273826574
 70
   192
  0
VERTEX
  5
1036
  8
0
 10
-1700.102276379442
 20
596.731033822
 30
-3.905777516886237
 70
   192
  0
VERTEX
  5
1037
  8
0
 10
-1699.364008437507
 20
596.7252125939127
 30
-1.693083892617641
 70
   192
  0
VERTEX
  5
1038
  8
0
 10
-1697.963995815775
 20
596.7220190594079
 30
-0.4694195395080387
 70
   192
  0
VERTEX
  5
1039
  8
0
 10
-1698.073344239548
 20
596.731033822
 30
-0.5290532843326896
 70
   192
  0
VERTEX
  5
103A
  8
0
 10
-1696.10364679
 20
596.731033822
 30
-0.0104742524499963
 70
   192
  0
VERTEX
  5
103B
  8
0
 10
-1696.096639758535
 20
596.731033822
 30
-0.0104803897659531
 70
   192
  0
VERTEX
  5
103C
  8
0
 10
-1696.100143272923
 20
596.731033822
 30
-0.0104757867792826
 70
   192
  0
VERTEX
  5
103D
  8
0
 10
-1696.092530577628
 20
596.7276029707828
 30
-0.0104923790625389
 70
   192
  0
VERTEX
  5
103E
  8
0
 10
-1696.093136252697
 20
596.731033822
 30
-0.0104892699305843
 70
   192
  0
VERTEX
  5
103F
  8
0
 10
-1696.091924910993
 20
596.7241721221684
 30
-0.0104985225800349
 70
   192
  0
VERTEX
  5
1040
  8
0
 10
-1696.091319253251
 20
596.7207412787596
 30
-0.0105077004784135
 70
   192
  0
VERTEX
  5
1041
  8
0
 10
-1696.0913203507
 20
596.720741113775
 30
-0.0105169231960801
 70
   192
  0
VERTEX
  5
1042
  8
0
 10
0.0
 20
0.0
 30
0.0
 70
   128
 71
     1
 72
     2
 73
     3
  0
VERTEX
  5
1043
  8
0
 10
0.0
 20
0.0
 30
0.0
 70
   128
 71
     3
 72
     4
 73
     5
  0
VERTEX
  5
1044
  8
0
 10
0.0
 20
0.0
 30
0.0
 70
   128
 71
     5
 72
     1
 73
     3
  0
VERTEX
  5
1045
  8
0
 10
0.0
 20
0.0
 30
0.0
 70
   128
 71
     6
 72
     5
 73
     4
  0
VERTEX
  5
1046
  8
0
 10
0.0
 20
0.0
 30
0.0
 70
   128
 71
     7
 72
     8
 73
     9
  0
VERTEX
  5
1047
  8
0
 10
0.0
 20
0.0
 30
0.0
 70
   128
 71
     9
 72
    10
 73
     7
  0
VERTEX
  5
1048
  8
0
 10
0.0
 20
0.0
 30
0.0
 70
   128
 71
     8
 72
    11
 73
     9
  0
VERTEX
  5
1049
  8
0
 10
0.0
 20
0.0
 30
0.0
 70
   128
 71
     8
 72
    12
 73
    11
  0
VERTEX
  5
104A
  8
0
 10
0.0
 20
0.0
 30
0.0
 70
   128
 71
     8
 72
    13
 73
    12
  0
VERTEX
  5
104B
  8
0
 10
0.0
 20
0.0
 30
0.0
 70
   128
 71
     8
 72
     6
 73
    13
  0
VERTEX
  5
104C
  8
0
 10
0.0
 20
0.0
 30
0.0
 70
   128
 71
     4
 72
    13
 73
     6
  0
SEQEND
  5
1792
  8
0
  0
POLYLINE
  5
104D
  8
0
 66
     1
 10
0.0
 20
0.0
 30
0.0
 70
    64
 71
    13
 72
    11
  0
VERTEX
  5
104E
  8
0
 10
-1700.102257616852
 20
3.89637082012
 30
-3.905060719437517
 70
   192
  0
VERTEX
  5
104F
  8
0
 10
-1700.102258479399
 20
3.896370081380298
 30
-3.905093937179062
 70
   192
  0
VERTEX
  5
1050
  8
0
 10
-1699.565630610014
 20
1.897846292144522
 30
-3.866812845279482
 70
   192
  0
VERTEX
  5
1051
  8
0
 10
-1699.53228694292
 20
3.89637082012
 30
-1.949630492474385
 70
   192
  0
VERTEX
  5
1052
  8
0
 10
-1696.10362919
 20
3.89637082012
 30
-0.0098018478099995
 70
   192
  0
VERTEX
  5
1053
  8
0
 10
-1698.073313755947
 20
3.89637082012
 30
-0.5283735905179969
 70
   192
  0
VERTEX
  5
1054
  8
0
 10
-1696.098824946438
 20
0.4677014397128945
 30
-1.949655085084383
 70
   192
  0
VERTEX
  5
1055
  8
0
 10
-1696.095266292084
 20
1.9266764172806
 30
-0.528388774489585
 70
   192
  0
VERTEX
  5
1056
  8
0
 10
-1696.097127017631
 20
3.89637082012
 30
-0.00980713259418
 70
   192
  0
VERTEX
  5
1057
  8
0
 10
-1696.100378102742
 20
3.89637082012
 30
-0.0098031690062625
 70
   192
  0
VERTEX
  5
1058
  8
0
 10
-1696.093875935562
 20
3.896370820119999
 30
-0.0098132243976798
 70
   192
  0
VERTEX
  5
1059
  8
0
 10
-1698.102153067551
 20
0.4343690183053091
 30
-3.866812852313655
 70
   192
  0
VERTEX
  5
105A
  8
0
 10
-1696.10362918
 20
-0.1022584840622875
 30
-3.905093956398385
 70
   192
  0
VERTEX
  5
105B
  8
0
 10
0.0
 20
0.0
 30
0.0
 70
   128
 71
     1
 72
     2
 73
     3
  0
VERTEX
  5
105C
  8
0
 10
0.0
 20
0.0
 30
0.0
 70
   128
 71
     3
 72
     4
 73
     1
  0
VERTEX
  5
105D
  8
0
 10
0.0
 20
0.0
 30
0.0
 70
   128
 71
     3
 72
     5
 73
     6
  0
VERTEX
  5
105E
  8
0
 10
0.0
 20
0.0
 30
0.0
 70
   128
 71
     3
 72
     6
 73
     4
  0
VERTEX
  5
105F
  8
0
 10
0.0
 20
0.0
 30
0.0
 70
   128
 71
     5
 72
     7
 73
     8
  0
VERTEX
  5
1060
  8
0
 10
0.0
 20
0.0
 30
0.0
 70
   128
 71
    -5
 72
     9
 73
    10
  0
VERTEX
  5
1061
  8
0
 10
0.0
 20
0.0
 30
0.0
 70
   128
 71
     5
 72
    11
 73
    -9
  0
VERTEX
  5
1062
  8
0
 10
0.0
 20
0.0
 30
0.0
 70
   128
 71
     7
 72
     5
 73
    12
  0
VERTEX
  5
1063
  8
0
 10
0.0
 20
0.0
 30
0.0
 70
   128
 71
    12
 72
    13
 73
     7
  0
VERTEX
  5
1064
  8
0
 10
0.0
 20
0.0
 30
0.0
 70
   128
 71
     3
 72
    12
 73
     5
  0
VERTEX
  5
1065
  8
0
 10
0.0
 20
0.0
 30
0.0
 70
   128
 71
     8
 72
    11
 73
     5
  0
SEQEND
  5
1793
  8
0
  0
POLYLINE
  5
1066
  8
0
 66
     1
 10
0.0
 20
0.0
 30
0.0
 70
    64
 71
    13
 72
    11
  0
VERTEX
  5
1067
  8
0
 10
-3.8963957594
 20
895.3557996
 30
-0.0088491935999997
 70
   192
  0
VERTEX
  5
1068
  8
0
 10
-3.904684522273075
 20
895.3528675010676
 30
-0.0088588624944976
 70
   192
  0
VERTEX
  5
1069
  8
0
 10
-3.904167260031625
 20
895.3499354037598
 30
-0.0088610480304108
 70
   192
  0
VERTEX
  5
106A
  8
0
 10
-3.902266442391793
 20
895.3557996
 30
-0.0088535017171685
 70
   192
  0
VERTEX
  5
106B
  8
0
 10
-3.905201779935877
 20
895.3557996
 30
-0.0088588868614545
 70
   192
  0
VERTEX
  5
106C
  8
0
 10
-3.899331101686259
 20
895.3557996
 30
-0.0088502706294369
 70
   192
  0
VERTEX
  5
106D
  8
0
 10
-0.4689732141947918
 20
895.3514622283858
 30
-1.946628089104526
 70
   192
  0
VERTEX
  5
106E
  8
0
 10
0.1022334864575964
 20
895.3557995960937
 30
-3.904139336507607
 70
   192
  0
VERTEX
  5
106F
  8
0
 10
0.1022334864549013
 20
895.3557996
 30
-3.904139336404672
 70
   192
  0
VERTEX
  5
1070
  8
0
 10
-0.4677272655146627
 20
895.3557996
 30
-1.948695714114053
 70
   192
  0
VERTEX
  5
1071
  8
0
 10
-1.926702117985652
 20
895.3557996
 30
-0.5274260709428464
 70
   192
  0
VERTEX
  5
1072
  8
0
 10
-1.930912665000454
 20
895.3482520747565
 30
-0.5250553936611633
 70
   192
  0
VERTEX
  5
1073
  8
0
 10
-3.903649993484294
 20
895.3470033097011
 30
-0.0088654497496679
 70
   192
  0
VERTEX
  5
1074
  8
0
 10
0.0
 20
0.0
 30
0.0
 70
   128
 71
     1
 72
     2
 73
     3
  0
VERTEX
  5
1075
  8
0
 10
0.0
 20
0.0
 30
0.0
 70
   128
 71
     4
 72
     5
 73
     2
  0
VERTEX
  5
1076
  8
0
 10
0.0
 20
0.0
 30
0.0
 70
   128
 71
     2
 72
     6
 73
     4
  0
VERTEX
  5
1077
  8
0
 10
0.0
 20
0.0
 30
0.0
 70
   128
 71
     2
 72
     1
 73
     6
  0
VERTEX
  5
1078
  8
0
 10
0.0
 20
0.0
 30
0.0
 70
   128
 71
     7
 72
     8
 73
     9
  0
VERTEX
  5
1079
  8
0
 10
0.0
 20
0.0
 30
0.0
 70
   128
 71
     7
 72
     9
 73
    10
  0
VERTEX
  5
107A
  8
0
 10
0.0
 20
0.0
 30
0.0
 70
   128
 71
    10
 72
    11
 73
    12
  0
VERTEX
  5
107B
  8
0
 10
0.0
 20
0.0
 30
0.0
 70
   128
 71
    10
 72
    12
 73
     7
  0
VERTEX
  5
107C
  8
0
 10
0.0
 20
0.0
 30
0.0
 70
   128
 71
    12
 72
    11
 73
     1
  0
VERTEX
  5
107D
  8
0
 10
0.0
 20
0.0
 30
0.0
 70
   128
 71
     3
 72
    13
 73
     1
  0
VERTEX
  5
107E
  8
0
 10
0.0
 20
0.0
 30
0.0
 70
   128
 71
     1
 72
    13
 73
    12
  0
SEQEND
  5
1794
  8
0
  0
POLYLINE
  5
107F
  8
0
 66
     1
 10
0.0
 20
0.0
 30
0.0
 70
    64
 71
    13
 72
    11
  0
VERTEX
  5
1080
  8
0
 10
-3.899500417719462
 20
3.89638382952
 30
-0.0093061724041275
 70
   192
  0
VERTEX
  5
1081
  8
0
 10
-3.902617008766928
 20
3.89638382952
 30
-0.0093098148357749
 70
   192
  0
VERTEX
  5
1082
  8
0
 10
-3.89638382478
 20
3.89638382952
 30
-0.0093049582599996
 70
   192
  0
VERTEX
  5
1083
  8
0
 10
-3.904401058610659
 20
1.926689457220186
 30
-0.5278911855945956
 70
   192
  0
VERTEX
  5
1084
  8
0
 10
-3.900989619507545
 20
0.467714481287103
 30
-1.949157799830155
 70
   192
  0
VERTEX
  5
1085
  8
0
 10
-0.434382412302972
 20
1.89785927561759
 30
-3.86631598530809
 70
   192
  0
VERTEX
  5
1086
  8
0
 10
-0.4677264477140186
 20
3.89638382952
 30
-1.949132977407181
 70
   192
  0
VERTEX
  5
1087
  8
0
 10
-1.926699576405563
 20
3.89638382952
 30
-0.5278765212954211
 70
   192
  0
VERTEX
  5
1088
  8
0
 10
0.1022445734085125
 20
3.89638382952
 30
-3.904562735635256
 70
   192
  0
VERTEX
  5
1089
  8
0
 10
0.1022454727966187
 20
3.896383045040982
 30
-3.904597076277354
 70
   192
  0
VERTEX
  5
108A
  8
0
 10
-3.896383826929986
 20
-0.102245473333971
 30
-3.9045970967298
 70
   192
  0
VERTEX
  5
108B
  8
0
 10
-1.897859952764527
 20
0.4343820210942617
 30
-3.866315992795645
 70
   192
  0
VERTEX
  5
108C
  8
0
 10
-3.905733596030402
 20
3.89638382952
 30
-0.0093158855527298
 70
   192
  0
VERTEX
  5
108D
  8
0
 10
0.0
 20
0.0
 30
0.0
 70
   128
 71
     1
 72
    -2
 73
     3
  0
VERTEX
  5
108E
  8
0
 10
0.0
 20
0.0
 30
0.0
 70
   128
 71
     3
 72
     4
 73
     5
  0
VERTEX
  5
108F
  8
0
 10
0.0
 20
0.0
 30
0.0
 70
   128
 71
     3
 72
     6
 73
     7
  0
VERTEX
  5
1090
  8
0
 10
0.0
 20
0.0
 30
0.0
 70
   128
 71
     3
 72
     7
 73
     8
  0
VERTEX
  5
1091
  8
0
 10
0.0
 20
0.0
 30
0.0
 70
   128
 71
     6
 72
     9
 73
     7
  0
VERTEX
  5
1092
  8
0
 10
0.0
 20
0.0
 30
0.0
 70
   128
 71
     6
 72
    10
 73
     9
  0
VERTEX
  5
1093
  8
0
 10
0.0
 20
0.0
 30
0.0
 70
   128
 71
     5
 72
    11
 73
    12
  0
VERTEX
  5
1094
  8
0
 10
0.0
 20
0.0
 30
0.0
 70
   128
 71
    12
 72
     3
 73
     5
  0
VERTEX
  5
1095
  8
0
 10
0.0
 20
0.0
 30
0.0
 70
   128
 71
    -3
 72
     2
 73
    13
  0
VERTEX
  5
1096
  8
0
 10
0.0
 20
0.0
 30
0.0
 70
   128
 71
     3
 72
    13
 73
     4
  0
VERTEX
  5
1097
  8
0
 10
0.0
 20
0.0
 30
0.0
 70
   128
 71
    12
 72
     6
 73
     3
  0
SEQEND
  5
1795
  8
0
  0
POLYLINE
  5
1098
  8
0
 66
     1
 10
0.0
 20
0.0
 30
0.0
 70
    64
 71
    12
 72
    10
  0
VERTEX
  5
1099
  8
0
 10
-1629.018423049565
 20
524.1018733061919
 30
-5.771241854532501
 70
   192
  0
VERTEX
  5
109A
  8
0
 10
-1628.847398812809
 20
387.3255411129689
 30
-5.937007879361683
 70
   192
  0
VERTEX
  5
109B
  8
0
 10
-1628.735328737166
 20
250.3930098003969
 30
-5.796431612593679
 70
   192
  0
VERTEX
  5
109C
  8
0
 10
-1628.625094
 20
110.38448314
 30
-5.664643560819989
 70
   192
  0
VERTEX
  5
109D
  8
0
 10
-1592.842429795256
 20
130.5638049279374
 30
-153.9088112529151
 70
   192
  0
VERTEX
  5
109E
  8
0
 10
-1560.256350477507
 20
148.8096454064149
 30
-290.3996276749054
 70
   192
  0
VERTEX
  5
109F
  8
0
 10
-1530.802627709975
 20
165.24090751265
 30
-415.168370191125
 70
   192
  0
VERTEX
  5
10A0
  8
0
 10
-1540.25100197362
 20
276.172855640209
 30
-415.3220486224457
 70
   192
  0
VERTEX
  5
10A1
  8
0
 10
-1549.125043422523
 20
379.5420734585576
 30
-415.1505581943599
 70
   192
  0
VERTEX
  5
10A2
  8
0
 10
-1557.694155281435
 20
478.796472349805
 30
-414.6613096243209
 70
   192
  0
VERTEX
  5
10A3
  8
0
 10
-1581.672320895694
 20
494.1677767899538
 30
-279.8012780976309
 70
   192
  0
VERTEX
  5
10A4
  8
0
 10
-1605.435517611223
 20
509.2532937405789
 30
-143.3957651032352
 70
   192
  0
VERTEX
  5
10A5
  8
0
 10
0.0
 20
0.0
 30
0.0
 70
   128
 71
     6
 72
     7
 73
     8
  0
VERTEX
  5
10A6
  8
0
 10
0.0
 20
0.0
 30
0.0
 70
   128
 71
     9
 72
    11
 73
     6
  0
VERTEX
  5
10A7
  8
0
 10
0.0
 20
0.0
 30
0.0
 70
   128
 71
     8
 72
     9
 73
     6
  0
VERTEX
  5
10A8
  8
0
 10
0.0
 20
0.0
 30
0.0
 70
   128
 71
     9
 72
    10
 73
    11
  0
VERTEX
  5
10A9
  8
0
 10
0.0
 20
0.0
 30
0.0
 70
   128
 71
    12
 72
     5
 73
     6
  0
VERTEX
  5
10AA
  8
0
 10
0.0
 20
0.0
 30
0.0
 70
   128
 71
    11
 72
    12
 73
     6
  0
VERTEX
  5
10AB
  8
0
 10
0.0
 20
0.0
 30
0.0
 70
   128
 71
    12
 72
     1
 73
     2
  0
VERTEX
  5
10AC
  8
0
 10
0.0
 20
0.0
 30
0.0
 70
   128
 71
     3
 72
     5
 73
    12
  0
VERTEX
  5
10AD
  8
0
 10
0.0
 20
0.0
 30
0.0
 70
   128
 71
     2
 72
     3
 73
    12
  0
VERTEX
  5
10AE
  8
0
 10
0.0
 20
0.0
 30
0.0
 70
   128
 71
     3
 72
     4
 73
     5
  0
SEQEND
  5
1796
  8
0
  0
POLYLINE
  5
10AF
  8
0
 66
     1
 10
0.0
 20
0.0
 30
0.0
 70
    64
 71
    12
 72
    10
  0
VERTEX
  5
10B0
  8
0
 10
-1530.802627709975
 20
165.24090751265
 30
-415.168370191125
 70
   192
  0
VERTEX
  5
10B1
  8
0
 10
-1524.468365375244
 20
147.5350603445836
 30
-415.7409224209327
 70
   192
  0
VERTEX
  5
10B2
  8
0
 10
-1510.860018635733
 20
134.7482143372062
 30
-414.2793608935018
 70
   192
  0
VERTEX
  5
10B3
  8
0
 10
-1492.4748345731
 20
129.6928316526566
 30
-411.0068735224725
 70
   192
  0
VERTEX
  5
10B4
  8
0
 10
-1530.454155740985
 20
116.6071034610758
 30
-277.0176578247271
 70
   192
  0
VERTEX
  5
10B5
  8
0
 10
-1568.931538605087
 20
103.6089065549974
 30
-142.1148389656372
 70
   192
  0
VERTEX
  5
10B6
  8
0
 10
-1607.93812745
 20
90.6122087802
 30
-6.399759639179999
 70
   192
  0
VERTEX
  5
10B7
  8
0
 10
-1618.111410067621
 20
93.03808146458108
 30
-5.831253796961722
 70
   192
  0
VERTEX
  5
10B8
  8
0
 10
-1625.816646315008
 20
100.2021410961829
 30
-5.542223947883335
 70
   192
  0
VERTEX
  5
10B9
  8
0
 10
-1628.625094
 20
110.38448314
 30
-5.664643560819989
 70
   192
  0
VERTEX
  5
10BA
  8
0
 10
-1592.842429795256
 20
130.5638049279374
 30
-153.9088112529151
 70
   192
  0
VERTEX
  5
10BB
  8
0
 10
-1560.256350477507
 20
148.8096454064149
 30
-290.3996276749054
 70
   192
  0
VERTEX
  5
10BC
  8
0
 10
0.0
 20
0.0
 30
0.0
 70
   128
 71
    11
 72
    10
 73
     9
  0
VERTEX
  5
10BD
  8
0
 10
0.0
 20
0.0
 30
0.0
 70
   128
 71
    11
 72
     9
 73
     8
  0
VERTEX
  5
10BE
  8
0
 10
0.0
 20
0.0
 30
0.0
 70
   128
 71
    11
 72
     8
 73
     7
  0
VERTEX
  5
10BF
  8
0
 10
0.0
 20
0.0
 30
0.0
 70
   128
 71
    11
 72
     7
 73
     6
  0
VERTEX
  5
10C0
  8
0
 10
0.0
 20
0.0
 30
0.0
 70
   128
 71
     6
 72
     5
 73
    12
  0
VERTEX
  5
10C1
  8
0
 10
0.0
 20
0.0
 30
0.0
 70
   128
 71
     6
 72
    12
 73
    11
  0
VERTEX
  5
10C2
  8
0
 10
0.0
 20
0.0
 30
0.0
 70
   128
 71
     2
 72
     1
 73
    12
  0
VERTEX
  5
10C3
  8
0
 10
0.0
 20
0.0
 30
0.0
 70
   128
 71
    12
 72
     5
 73
     3
  0
VERTEX
  5
10C4
  8
0
 10
0.0
 20
0.0
 30
0.0
 70
   128
 71
    12
 72
     3
 73
     2
  0
VERTEX
  5
10C5
  8
0
 10
0.0
 20
0.0
 30
0.0
 70
   128
 71
     5
 72
     4
 73
     3
  0
SEQEND
  5
1797
  8
0
  0
POLYLINE
  5
10C6
  8
0
 66
     1
 10
0.0
 20
0.0
 30
0.0
 70
    64
 71
    13
 72
    11
  0
VERTEX
  5
10C7
  8
0
 10
-1607.93812745
 20
90.6122087802
 30
-6.399759639179999
 70
   192
  0
VERTEX
  5
10C8
  8
0
 10
-1100.810653480756
 20
90.50215569387916
 30
-6.316165059200198
 70
   192
  0
VERTEX
  5
10C9
  8
0
 10
-595.6242089263415
 20
90.40501339669036
 30
-6.380423732680931
 70
   192
  0
VERTEX
  5
10CA
  8
0
 10
-95.078135924219
 20
90.3131940670867
 30
-6.5686504091929
 70
   192
  0
VERTEX
  5
10CB
  8
0
 10
-168.9218126543516
 20
99.65205567622357
 30
-145.2804132775696
 70
   192
  0
VERTEX
  5
10CC
  8
0
 10
-249.8576465467713
 20
114.091658975888
 30
-281.2438286747767
 70
   192
  0
VERTEX
  5
10CD
  8
0
 10
-336.361955436663
 20
133.2271737896916
 30
-411.976637311376
 70
   192
  0
VERTEX
  5
10CE
  8
0
 10
-694.8014826274582
 20
132.825783369702
 30
-416.4533240380156
 70
   192
  0
VERTEX
  5
10CF
  8
0
 10
-931.447169414138
 20
132.1963724256152
 30
-417.5036674149518
 70
   192
  0
VERTEX
  5
10D0
  8
0
 10
-1158.221841166655
 20
131.2688889256518
 30
-416.0427272798765
 70
   192
  0
VERTEX
  5
10D1
  8
0
 10
-1492.4748345731
 20
129.6928316526566
 30
-411.0068735224725
 70
   192
  0
VERTEX
  5
10D2
  8
0
 10
-1530.454155740985
 20
116.6071034610758
 30
-277.0176578247271
 70
   192
  0
VERTEX
  5
10D3
  8
0
 10
-1568.931538605087
 20
103.6089065549974
 30
-142.1148389656372
 70
   192
  0
VERTEX
  5
10D4
  8
0
 10
0.0
 20
0.0
 30
0.0
 70
   128
 71
     6
 72
     7
 73
     8
  0
VERTEX
  5
10D5
  8
0
 10
0.0
 20
0.0
 30
0.0
 70
   128
 71
     9
 72
    12
 73
     6
  0
VERTEX
  5
10D6
  8
0
 10
0.0
 20
0.0
 30
0.0
 70
   128
 71
     8
 72
     9
 73
     6
  0
VERTEX
  5
10D7
  8
0
 10
0.0
 20
0.0
 30
0.0
 70
   128
 71
     9
 72
    10
 73
    12
  0
VERTEX
  5
10D8
  8
0
 10
0.0
 20
0.0
 30
0.0
 70
   128
 71
    10
 72
    11
 73
    12
  0
VERTEX
  5
10D9
  8
0
 10
0.0
 20
0.0
 30
0.0
 70
   128
 71
    13
 72
     5
 73
     6
  0
VERTEX
  5
10DA
  8
0
 10
0.0
 20
0.0
 30
0.0
 70
   128
 71
    12
 72
    13
 73
     6
  0
VERTEX
  5
10DB
  8
0
 10
0.0
 20
0.0
 30
0.0
 70
   128
 71
    13
 72
     1
 73
     2
  0
VERTEX
  5
10DC
  8
0
 10
0.0
 20
0.0
 30
0.0
 70
   128
 71
     3
 72
     5
 73
    13
  0
VERTEX
  5
10DD
  8
0
 10
0.0
 20
0.0
 30
0.0
 70
   128
 71
     2
 72
     3
 73
    13
  0
VERTEX
  5
10DE
  8
0
 10
0.0
 20
0.0
 30
0.0
 70
   128
 71
     3
 72
     4
 73
     5
  0
SEQEND
  5
1798
  8
0
  0
POLYLINE
  5
10DF
  8
0
 66
     1
 10
0.0
 20
0.0
 30
0.0
 70
    64
 71
    12
 72
    10
  0
VERTEX
  5
10E0
  8
0
 10
-336.361955436663
 20
133.2271737896916
 30
-411.976637311376
 70
   192
  0
VERTEX
  5
10E1
  8
0
 10
-318.7729250830091
 20
139.5277590551842
 30
-419.3044912183187
 70
   192
  0
VERTEX
  5
10E2
  8
0
 10
-305.5887888650555
 20
154.3600993750636
 30
-423.3827095104644
 70
   192
  0
VERTEX
  5
10E3
  8
0
 10
-300.5026439970945
 20
174.596820041084
 30
-422.8989126938855
 70
   192
  0
VERTEX
  5
10E4
  8
0
 10
-217.191816965551
 20
147.6713231570762
 30
-287.41579723451
 70
   192
  0
VERTEX
  5
10E5
  8
0
 10
-141.0762950640055
 20
126.1208501699392
 30
-147.9080612519778
 70
   192
  0
VERTEX
  5
10E6
  8
0
 10
-72.21970184360349
 20
110.0224541996578
 30
-4.92984357371027
 70
   192
  0
VERTEX
  5
10E7
  8
0
 10
-75.67485771472123
 20
99.35072529957098
 30
-5.040401277694522
 70
   192
  0
VERTEX
  5
10E8
  8
0
 10
-84.34425055114578
 20
92.4983774412812
 30
-5.685511984407142
 70
   192
  0
VERTEX
  5
10E9
  8
0
 10
-95.078135924219
 20
90.3131940670867
 30
-6.5686504091929
 70
   192
  0
VERTEX
  5
10EA
  8
0
 10
-168.9218126543516
 20
99.65205567622357
 30
-145.2804132775696
 70
   192
  0
VERTEX
  5
10EB
  8
0
 10
-249.8576465467713
 20
114.091658975888
 30
-281.2438286747767
 70
   192
  0
VERTEX
  5
10EC
  8
0
 10
0.0
 20
0.0
 30
0.0
 70
   128
 71
    11
 72
    10
 73
     9
  0
VERTEX
  5
10ED
  8
0
 10
0.0
 20
0.0
 30
0.0
 70
   128
 71
    11
 72
     9
 73
     8
  0
VERTEX
  5
10EE
  8
0
 10
0.0
 20
0.0
 30
0.0
 70
   128
 71
    11
 72
     8
 73
     7
  0
VERTEX
  5
10EF
  8
0
 10
0.0
 20
0.0
 30
0.0
 70
   128
 71
    11
 72
     7
 73
     6
  0
VERTEX
  5
10F0
  8
0
 10
0.0
 20
0.0
 30
0.0
 70
   128
 71
     6
 72
     5
 73
    12
  0
VERTEX
  5
10F1
  8
0
 10
0.0
 20
0.0
 30
0.0
 70
   128
 71
     6
 72
    12
 73
    11
  0
VERTEX
  5
10F2
  8
0
 10
0.0
 20
0.0
 30
0.0
 70
   128
 71
     2
 72
     1
 73
    12
  0
VERTEX
  5
10F3
  8
0
 10
0.0
 20
0.0
 30
0.0
 70
   128
 71
    12
 72
     3
 73
     2
  0
VERTEX
  5
10F4
  8
0
 10
0.0
 20
0.0
 30
0.0
 70
   128
 71
    12
 72
     5
 73
     4
  0
VERTEX
  5
10F5
  8
0
 10
0.0
 20
0.0
 30
0.0
 70
   128
 71
    12
 72
     4
 73
     3
  0
SEQEND
  5
1799
  8
0
  0
POLYLINE
  5
10F6
  8
0
 66
     1
 10
0.0
 20
0.0
 30
0.0
 70
    64
 71
    15
 72
    13
  0
VERTEX
  5
10F7
  8
0
 10
-72.21970184360349
 20
110.0224541996578
 30
-4.92984357371027
 70
   192
  0
VERTEX
  5
10F8
  8
0
 10
-72.3160409945057
 20
340.2733357370308
 30
-4.773056391817206
 70
   192
  0
VERTEX
  5
10F9
  8
0
 10
-72.40937525370889
 20
564.1345329658229
 30
-4.646341869602796
 70
   192
  0
VERTEX
  5
10FA
  8
0
 10
-72.49714224429431
 20
792.81247448968
 30
-4.52452650178126
 70
   192
  0
VERTEX
  5
10FB
  8
0
 10
-158.5368508648189
 20
758.5791850948053
 30
-151.6489354555884
 70
   192
  0
VERTEX
  5
10FC
  8
0
 10
-250.7038398829313
 20
722.1014368665491
 30
-293.0532409487718
 70
   192
  0
VERTEX
  5
10FD
  8
0
 10
-348.119904825276
 20
683.881408277979
 30
-427.8623418543395
 70
   192
  0
VERTEX
  5
10FE
  8
0
 10
-343.8972338253399
 20
636.376277705846
 30
-427.7541392179903
 70
   192
  0
VERTEX
  5
10FF
  8
0
 10
-339.650677108553
 20
589.2504874753796
 30
-427.5690718137672
 70
   192
  0
VERTEX
  5
1100
  8
0
 10
-335.3467069468885
 20
542.092308541835
 30
-427.305874663224
 70
   192
  0
VERTEX
  5
1101
  8
0
 10
-324.7809984412834
 20
428.491479486641
 30
-426.3602855458977
 70
   192
  0
VERTEX
  5
1102
  8
0
 10
-313.2743881338101
 20
307.3307041496669
 30
-424.9114030705596
 70
   192
  0
VERTEX
  5
1103
  8
0
 10
-300.5026439970945
 20
174.596820041084
 30
-422.8989126938855
 70
   192
  0
VERTEX
  5
1104
  8
0
 10
-217.191816965551
 20
147.6713231570762
 30
-287.41579723451
 70
   192
  0
VERTEX
  5
1105
  8
0
 10
-141.0762950640055
 20
126.1208501699392
 30
-147.9080612519778
 70
   192
  0
VERTEX
  5
1106
  8
0
 10
0.0
 20
0.0
 30
0.0
 70
   128
 71
     6
 72
     7
 73
     8
  0
VERTEX
  5
1107
  8
0
 10
0.0
 20
0.0
 30
0.0
 70
   128
 71
     8
 72
     9
 73
     6
  0
VERTEX
  5
1108
  8
0
 10
0.0
 20
0.0
 30
0.0
 70
   128
 71
     9
 72
    10
 73
     6
  0
VERTEX
  5
1109
  8
0
 10
0.0
 20
0.0
 30
0.0
 70
   128
 71
    10
 72
    11
 73
     6
  0
VERTEX
  5
110A
  8
0
 10
0.0
 20
0.0
 30
0.0
 70
   128
 71
    12
 72
    14
 73
     6
  0
VERTEX
  5
110B
  8
0
 10
0.0
 20
0.0
 30
0.0
 70
   128
 71
    11
 72
    12
 73
     6
  0
VERTEX
  5
110C
  8
0
 10
0.0
 20
0.0
 30
0.0
 70
   128
 71
    12
 72
    13
 73
    14
  0
VERTEX
  5
110D
  8
0
 10
0.0
 20
0.0
 30
0.0
 70
   128
 71
    15
 72
     5
 73
     6
  0
VERTEX
  5
110E
  8
0
 10
0.0
 20
0.0
 30
0.0
 70
   128
 71
    14
 72
    15
 73
     6
  0
VERTEX
  5
110F
  8
0
 10
0.0
 20
0.0
 30
0.0
 70
   128
 71
    15
 72
     1
 73
     2
  0
VERTEX
  5
1110
  8
0
 10
0.0
 20
0.0
 30
0.0
 70
   128
 71
     3
 72
     5
 73
    15
  0
VERTEX
  5
1111
  8
0
 10
0.0
 20
0.0
 30
0.0
 70
   128
 71
     2
 72
     3
 73
    15
  0
VERTEX
  5
1112
  8
0
 10
0.0
 20
0.0
 30
0.0
 70
   128
 71
     3
 72
     4
 73
     5
  0
SEQEND
  5
179A
  8
0
  0
POLYLINE
  5
1113
  8
0
 66
     1
 10
0.0
 20
0.0
 30
0.0
 70
    64
 71
    12
 72
    10
  0
VERTEX
  5
1114
  8
0
 10
-371.099410452205
 20
681.968048087079
 30
-439.371214760431
 70
   192
  0
VERTEX
  5
1115
  8
0
 10
-362.4063461442627
 20
682.700493993887
 30
-437.9008266015561
 70
   192
  0
VERTEX
  5
1116
  8
0
 10
-354.517841610457
 20
683.3573213528497
 30
-433.9500113310672
 70
   192
  0
VERTEX
  5
1117
  8
0
 10
-348.119904825276
 20
683.881408277979
 30
-427.8623418543395
 70
   192
  0
VERTEX
  5
1118
  8
0
 10
-356.1945091385533
 20
702.6621349445045
 30
-427.5076397715077
 70
   192
  0
VERTEX
  5
1119
  8
0
 10
-371.5684730922607
 20
715.3751895448851
 30
-422.1707167658437
 70
   192
  0
VERTEX
  5
111A
  8
0
 10
-390.150040719422
 20
718.609069347883
 30
-413.3121554857925
 70
   192
  0
VERTEX
  5
111B
  8
0
 10
-389.0068247408042
 20
713.6217356546086
 30
-426.6747791631679
 70
   192
  0
VERTEX
  5
111C
  8
0
 10
-386.9583364504933
 20
703.0980783202012
 30
-436.1508238669044
 70
   192
  0
VERTEX
  5
111D
  8
0
 10
-384.4705757138865
 20
689.4320682669031
 30
-439.5846435337715
 70
   192
  0
VERTEX
  5
111E
  8
0
 10
-378.0087936669469
 20
689.2570153533169
 30
-439.4654929018958
 70
   192
  0
VERTEX
  5
111F
  8
0
 10
-373.1501467063335
 20
686.5193935752947
 30
-439.3882539953173
 70
   192
  0
VERTEX
  5
1120
  8
0
 10
0.0
 20
0.0
 30
0.0
 70
   128
 71
     6
 72
     7
 73
     8
  0
VERTEX
  5
1121
  8
0
 10
0.0
 20
0.0
 30
0.0
 70
   128
 71
     9
 72
    11
 73
     6
  0
VERTEX
  5
1122
  8
0
 10
0.0
 20
0.0
 30
0.0
 70
   128
 71
     8
 72
     9
 73
     6
  0
VERTEX
  5
1123
  8
0
 10
0.0
 20
0.0
 30
0.0
 70
   128
 71
     9
 72
    10
 73
    11
  0
VERTEX
  5
1124
  8
0
 10
0.0
 20
0.0
 30
0.0
 70
   128
 71
    12
 72
     5
 73
     6
  0
VERTEX
  5
1125
  8
0
 10
0.0
 20
0.0
 30
0.0
 70
   128
 71
    11
 72
    12
 73
     6
  0
VERTEX
  5
1126
  8
0
 10
0.0
 20
0.0
 30
0.0
 70
   128
 71
    12
 72
     1
 73
     2
  0
VERTEX
  5
1127
  8
0
 10
0.0
 20
0.0
 30
0.0
 70
   128
 71
     3
 72
     5
 73
    12
  0
VERTEX
  5
1128
  8
0
 10
0.0
 20
0.0
 30
0.0
 70
   128
 71
     2
 72
     3
 73
    12
  0
VERTEX
  5
1129
  8
0
 10
0.0
 20
0.0
 30
0.0
 70
   128
 71
     3
 72
     4
 73
     5
  0
SEQEND
  5
179B
  8
0
  0
POLYLINE
  5
112A
  8
0
 66
     1
 10
0.0
 20
0.0
 30
0.0
 70
    64
 71
    19
 72
    17
  0
VERTEX
  5
112B
  8
0
 10
-1111.374697304576
 20
561.6996467515286
 30
-447.6896017063904
 70
   192
  0
VERTEX
  5
112C
  8
0
 10
-1236.723681334816
 20
539.9999984811959
 30
-445.3106657619525
 70
   192
  0
VERTEX
  5
112D
  8
0
 10
-993.5592133376645
 20
540.0
 30
-449.9796620649258
 70
   192
  0
VERTEX
  5
112E
  8
0
 10
-1046.718324171778
 20
572.9579073170378
 30
-448.8540946118105
 70
   192
  0
VERTEX
  5
112F
  8
0
 10
-995.3522235036894
 20
582.0166649883547
 30
-449.6289581871383
 70
   192
  0
VERTEX
  5
1130
  8
0
 10
-906.440785554505
 20
540.0
 30
-449.9796620380605
 70
   192
  0
VERTEX
  5
1131
  8
0
 10
-702.2701656785014
 20
633.243839771921
 30
-445.7336008101203
 70
   192
  0
VERTEX
  5
1132
  8
0
 10
-819.0442243353913
 20
612.6907826671078
 30
-447.9401625647189
 70
   192
  0
VERTEX
  5
1133
  8
0
 10
-367.0340916495057
 20
634.4181876866369
 30
-439.4766639077058
 70
   192
  0
VERTEX
  5
1134
  8
0
 10
-371.099410452205
 20
681.968048087079
 30
-439.371214760431
 70
   192
  0
VERTEX
  5
1135
  8
0
 10
-373.1501467063335
 20
686.5193935752947
 30
-439.3882539953173
 70
   192
  0
VERTEX
  5
1136
  8
0
 10
-378.0087936669469
 20
689.2570153533169
 30
-439.4654929018958
 70
   192
  0
VERTEX
  5
1137
  8
0
 10
-384.4705757138865
 20
689.4320682669031
 30
-439.5846435337715
 70
   192
  0
VERTEX
  5
1138
  8
0
 10
-362.9445899759177
 20
587.2197395529735
 30
-439.5075973606008
 70
   192
  0
VERTEX
  5
1139
  8
0
 10
-358.8020444919778
 20
540.0
 30
-439.46446103201
 70
   192
  0
VERTEX
  5
113A
  8
0
 10
-972.0158669941441
 20
577.5853629578768
 30
-449.9796727737267
 70
   192
  0
VERTEX
  5
113B
  8
0
 10
-948.8790221479746
 20
590.205967520443
 30
-449.8517976089625
 70
   192
  0
VERTEX
  5
113C
  8
0
 10
-928.1275948402362
 20
577.6684888130412
 30
-449.9796730778662
 70
   192
  0
VERTEX
  5
113D
  8
0
 10
-876.4626545370857
 20
602.6618368169558
 30
-448.9609608586156
 70
   192
  0
VERTEX
  5
113E
  8
0
 10
0.0
 20
0.0
 30
0.0
 70
   128
 71
     1
 72
     2
 73
     3
  0
VERTEX
  5
113F
  8
0
 10
0.0
 20
0.0
 30
0.0
 70
   128
 71
     3
 72
     4
 73
     1
  0
VERTEX
  5
1140
  8
0
 10
0.0
 20
0.0
 30
0.0
 70
   128
 71
     3
 72
     5
 73
     4
  0
VERTEX
  5
1141
  8
0
 10
0.0
 20
0.0
 30
0.0
 70
   128
 71
     6
 72
     7
 73
     8
  0
VERTEX
  5
1142
  8
0
 10
0.0
 20
0.0
 30
0.0
 70
   128
 71
     6
 72
     9
 73
    10
  0
VERTEX
  5
1143
  8
0
 10
0.0
 20
0.0
 30
0.0
 70
   128
 71
     6
 72
    10
 73
    11
  0
VERTEX
  5
1144
  8
0
 10
0.0
 20
0.0
 30
0.0
 70
   128
 71
     6
 72
    11
 73
    12
  0
VERTEX
  5
1145
  8
0
 10
0.0
 20
0.0
 30
0.0
 70
   128
 71
     6
 72
    12
 73
    13
  0
VERTEX
  5
1146
  8
0
 10
0.0
 20
0.0
 30
0.0
 70
   128
 71
     6
 72
    13
 73
     7
  0
VERTEX
  5
1147
  8
0
 10
0.0
 20
0.0
 30
0.0
 70
   128
 71
     6
 72
    14
 73
     9
  0
VERTEX
  5
1148
  8
0
 10
0.0
 20
0.0
 30
0.0
 70
   128
 71
     6
 72
    15
 73
    14
  0
VERTEX
  5
1149
  8
0
 10
0.0
 20
0.0
 30
0.0
 70
   128
 71
     5
 72
     3
 73
    16
  0
VERTEX
  5
114A
  8
0
 10
0.0
 20
0.0
 30
0.0
 70
   128
 71
    17
 72
     5
 73
    16
  0
VERTEX
  5
114B
  8
0
 10
0.0
 20
0.0
 30
0.0
 70
   128
 71
    17
 72
    16
 73
    18
  0
VERTEX
  5
114C
  8
0
 10
0.0
 20
0.0
 30
0.0
 70
   128
 71
    19
 72
    17
 73
    18
  0
VERTEX
  5
114D
  8
0
 10
0.0
 20
0.0
 30
0.0
 70
   128
 71
    19
 72
    18
 73
     6
  0
VERTEX
  5
114E
  8
0
 10
0.0
 20
0.0
 30
0.0
 70
   128
 71
     6
 72
     8
 73
    19
  0
SEQEND
  5
179C
  8
0
  0
POLYLINE
  5
114F
  8
0
 66
     1
 10
0.0
 20
0.0
 30
0.0
 70
    64
 71
    30
 72
    28
  0
VERTEX
  5
1150
  8
0
 10
-931.5180128664772
 20
161.358350404613
 30
-443.5370949943318
 70
   192
  0
VERTEX
  5
1151
  8
0
 10
-694.5753434923164
 20
162.0253582813247
 30
-442.0568038860087
 70
   192
  0
VERTEX
  5
1152
  8
0
 10
-928.579847397918
 20
502.0719108755338
 30
-449.9796689225259
 70
   192
  0
VERTEX
  5
1153
  8
0
 10
-358.8020445077045
 20
539.999999784486
 30
-439.464460212951
 70
   192
  0
VERTEX
  5
1154
  8
0
 10
-358.8020444919778
 20
540.0
 30
-439.46446103201
 70
   192
  0
VERTEX
  5
1155
  8
0
 10
-906.4407855543977
 20
540.0
 30
-449.9796620436526
 70
   192
  0
VERTEX
  5
1156
  8
0
 10
-348.6328239646625
 20
426.1880645655908
 30
-439.0642330872802
 70
   192
  0
VERTEX
  5
1157
  8
0
 10
-337.5677112575911
 20
304.8855578373303
 30
-438.2199638731231
 70
   192
  0
VERTEX
  5
1158
  8
0
 10
-335.9586893232465
 20
162.5066540663275
 30
-436.976037077482
 70
   192
  0
VERTEX
  5
1159
  8
0
 10
-330.3428638597046
 20
163.7382501021085
 30
-436.8963514417899
 70
   192
  0
VERTEX
  5
115A
  8
0
 10
-326.4348744746345
 20
167.1795723222227
 30
-436.8661809593248
 70
   192
  0
VERTEX
  5
115B
  8
0
 10
-325.291473591333
 20
172.1274011297255
 30
-436.8957809231055
 70
   192
  0
VERTEX
  5
115C
  8
0
 10
-993.559213336925
 20
539.999999561668
 30
-449.9796620264185
 70
   192
  0
VERTEX
  5
115D
  8
0
 10
-993.5592133376645
 20
540.0
 30
-449.9796620649258
 70
   192
  0
VERTEX
  5
115E
  8
0
 10
-1236.723681334728
 20
540.0
 30
-445.3106657573942
 70
   192
  0
VERTEX
  5
115F
  8
0
 10
-1236.723681334816
 20
539.9999984811959
 30
-445.3106657619525
 70
   192
  0
VERTEX
  5
1160
  8
0
 10
-1511.562959168999
 20
278.3526291324735
 30
-438.9205378059963
 70
   192
  0
VERTEX
  5
1161
  8
0
 10
-1502.24752084507
 20
167.4001819543945
 30
-438.0245574044985
 70
   192
  0
VERTEX
  5
1162
  8
0
 10
-1500.809049473513
 20
163.2649246981089
 30
-438.0027852835548
 70
   192
  0
VERTEX
  5
1163
  8
0
 10
-1497.542717286527
 20
160.3186071924999
 30
-438.0223522534176
 70
   192
  0
VERTEX
  5
1164
  8
0
 10
-1493.034067463798
 20
159.2195899873375
 30
-438.081293606525
 70
   192
  0
VERTEX
  5
1165
  8
0
 10
-1423.36749599322
 20
507.7369921524082
 30
-441.7058352410024
 70
   192
  0
VERTEX
  5
1166
  8
0
 10
-1528.795712184285
 20
481.254726998919
 30
-439.6455014966485
 70
   192
  0
VERTEX
  5
1167
  8
0
 10
-1520.328390816455
 20
381.8535709796381
 30
-439.4519698058496
 70
   192
  0
VERTEX
  5
1168
  8
0
 10
-1521.31669939908
 20
490.801480484837
 30
-439.8056017532145
 70
   192
  0
VERTEX
  5
1169
  8
0
 10
-1525.574150224949
 20
488.8645345459877
 30
-439.7209244113474
 70
   192
  0
VERTEX
  5
116A
  8
0
 10
-1528.170087822202
 20
485.3599329518617
 30
-439.6651447148446
 70
   192
  0
VERTEX
  5
116B
  8
0
 10
-1327.963234180374
 20
524.228903323809
 30
-443.5524617722351
 70
   192
  0
VERTEX
  5
116C
  8
0
 10
-971.8949804038563
 20
502.3439663057217
 30
-449.9796706365821
 70
   192
  0
VERTEX
  5
116D
  8
0
 10
-1158.596315752004
 20
160.555012449476
 30
-442.5019743621492
 70
   192
  0
VERTEX
  5
116E
  8
0
 10
0.0
 20
0.0
 30
0.0
 70
   128
 71
     1
 72
     2
 73
     3
  0
VERTEX
  5
116F
  8
0
 10
0.0
 20
0.0
 30
0.0
 70
   128
 71
     4
 72
     5
 73
     6
  0
VERTEX
  5
1170
  8
0
 10
0.0
 20
0.0
 30
0.0
 70
   128
 71
     6
 72
     7
 73
     4
  0
VERTEX
  5
1171
  8
0
 10
0.0
 20
0.0
 30
0.0
 70
   128
 71
     6
 72
     8
 73
     7
  0
VERTEX
  5
1172
  8
0
 10
0.0
 20
0.0
 30
0.0
 70
   128
 71
     6
 72
     9
 73
    10
  0
VERTEX
  5
1173
  8
0
 10
0.0
 20
0.0
 30
0.0
 70
   128
 71
     6
 72
    10
 73
    11
  0
VERTEX
  5
1174
  8
0
 10
0.0
 20
0.0
 30
0.0
 70
   128
 71
     6
 72
    11
 73
    12
  0
VERTEX
  5
1175
  8
0
 10
0.0
 20
0.0
 30
0.0
 70
   128
 71
     6
 72
    12
 73
     8
  0
VERTEX
  5
1176
  8
0
 10
0.0
 20
0.0
 30
0.0
 70
   128
 71
    13
 72
    14
 73
    15
  0
VERTEX
  5
1177
  8
0
 10
0.0
 20
0.0
 30
0.0
 70
   128
 71
    13
 72
    15
 73
    16
  0
VERTEX
  5
1178
  8
0
 10
0.0
 20
0.0
 30
0.0
 70
   128
 71
    17
 72
    18
 73
    19
  0
VERTEX
  5
1179
  8
0
 10
0.0
 20
0.0
 30
0.0
 70
   128
 71
    17
 72
    19
 73
    20
  0
VERTEX
  5
117A
  8
0
 10
0.0
 20
0.0
 30
0.0
 70
   128
 71
    17
 72
    20
 73
    21
  0
VERTEX
  5
117B
  8
0
 10
0.0
 20
0.0
 30
0.0
 70
   128
 71
    22
 72
    23
 73
    24
  0
VERTEX
  5
117C
  8
0
 10
0.0
 20
0.0
 30
0.0
 70
   128
 71
    22
 72
    25
 73
    26
  0
VERTEX
  5
117D
  8
0
 10
0.0
 20
0.0
 30
0.0
 70
   128
 71
    22
 72
    26
 73
    27
  0
VERTEX
  5
117E
  8
0
 10
0.0
 20
0.0
 30
0.0
 70
   128
 71
    22
 72
    27
 73
    23
  0
VERTEX
  5
117F
  8
0
 10
0.0
 20
0.0
 30
0.0
 70
   128
 71
    13
 72
    16
 73
    28
  0
VERTEX
  5
1180
  8
0
 10
0.0
 20
0.0
 30
0.0
 70
   128
 71
     6
 72
     3
 73
     2
  0
VERTEX
  5
1181
  8
0
 10
0.0
 20
0.0
 30
0.0
 70
   128
 71
     6
 72
     2
 73
     9
  0
VERTEX
  5
1182
  8
0
 10
0.0
 20
0.0
 30
0.0
 70
   128
 71
     3
 72
    29
 73
    30
  0
VERTEX
  5
1183
  8
0
 10
0.0
 20
0.0
 30
0.0
 70
   128
 71
     3
 72
    30
 73
     1
  0
VERTEX
  5
1184
  8
0
 10
0.0
 20
0.0
 30
0.0
 70
   128
 71
    17
 72
    21
 73
    30
  0
VERTEX
  5
1185
  8
0
 10
0.0
 20
0.0
 30
0.0
 70
   128
 71
    17
 72
    30
 73
    29
  0
VERTEX
  5
1186
  8
0
 10
0.0
 20
0.0
 30
0.0
 70
   128
 71
    17
 72
    29
 73
    13
  0
VERTEX
  5
1187
  8
0
 10
0.0
 20
0.0
 30
0.0
 70
   128
 71
    13
 72
    28
 73
    22
  0
VERTEX
  5
1188
  8
0
 10
0.0
 20
0.0
 30
0.0
 70
   128
 71
    13
 72
    22
 73
    24
  0
VERTEX
  5
1189
  8
0
 10
0.0
 20
0.0
 30
0.0
 70
   128
 71
    13
 72
    24
 73
    17
  0
SEQEND
  5
179D
  8
0
  0
POLYLINE
  5
118A
  8
0
 66
     1
 10
0.0
 20
0.0
 30
0.0
 70
    64
 71
    12
 72
    10
  0
VERTEX
  5
118B
  8
0
 10
-1521.31669939908
 20
490.801480484837
 30
-439.8056017532145
 70
   192
  0
VERTEX
  5
118C
  8
0
 10
-1523.660420414985
 20
504.7626971608398
 30
-436.2298574751794
 70
   192
  0
VERTEX
  5
118D
  8
0
 10
-1525.313029087515
 20
515.4284002307302
 30
-426.3960237656145
 70
   192
  0
VERTEX
  5
118E
  8
0
 10
-1525.883063065445
 20
520.272165795598
 30
-412.633500911142
 70
   192
  0
VERTEX
  5
118F
  8
0
 10
-1543.771542156819
 20
511.7280859995888
 30
-414.9450375297162
 70
   192
  0
VERTEX
  5
1190
  8
0
 10
-1554.829380606627
 20
496.5212656485238
 30
-415.5879337961894
 70
   192
  0
VERTEX
  5
1191
  8
0
 10
-1557.694155281435
 20
478.796472349805
 30
-414.6613096243209
 70
   192
  0
VERTEX
  5
1192
  8
0
 10
-1552.391741763484
 20
479.2450353636262
 30
-427.3026447710218
 70
   192
  0
VERTEX
  5
1193
  8
0
 10
-1542.037540855369
 20
480.1258181032294
 30
-436.2543853779388
 70
   192
  0
VERTEX
  5
1194
  8
0
 10
-1528.795712184285
 20
481.254726998919
 30
-439.6455014966485
 70
   192
  0
VERTEX
  5
1195
  8
0
 10
-1528.170087822202
 20
485.3599329518617
 30
-439.6651447148446
 70
   192
  0
VERTEX
  5
1196
  8
0
 10
-1525.574150224949
 20
488.8645345459877
 30
-439.7209244113474
 70
   192
  0
VERTEX
  5
1197
  8
0
 10
0.0
 20
0.0
 30
0.0
 70
   128
 71
     6
 72
     7
 73
     8
  0
VERTEX
  5
1198
  8
0
 10
0.0
 20
0.0
 30
0.0
 70
   128
 71
     9
 72
    11
 73
     6
  0
VERTEX
  5
1199
  8
0
 10
0.0
 20
0.0
 30
0.0
 70
   128
 71
     8
 72
     9
 73
     6
  0
VERTEX
  5
119A
  8
0
 10
0.0
 20
0.0
 30
0.0
 70
   128
 71
     9
 72
    10
 73
    11
  0
VERTEX
  5
119B
  8
0
 10
0.0
 20
0.0
 30
0.0
 70
   128
 71
    12
 72
     5
 73
     6
  0
VERTEX
  5
119C
  8
0
 10
0.0
 20
0.0
 30
0.0
 70
   128
 71
    11
 72
    12
 73
     6
  0
VERTEX
  5
119D
  8
0
 10
0.0
 20
0.0
 30
0.0
 70
   128
 71
    12
 72
     1
 73
     2
  0
VERTEX
  5
119E
  8
0
 10
0.0
 20
0.0
 30
0.0
 70
   128
 71
     3
 72
     5
 73
    12
  0
VERTEX
  5
119F
  8
0
 10
0.0
 20
0.0
 30
0.0
 70
   128
 71
     2
 72
     3
 73
    12
  0
VERTEX
  5
11A0
  8
0
 10
0.0
 20
0.0
 30
0.0
 70
   128
 71
     3
 72
     4
 73
     5
  0
SEQEND
  5
179E
  8
0
  0
POLYLINE
  5
11A1
  8
0
 66
     1
 10
0.0
 20
0.0
 30
0.0
 70
    64
 71
     9
 72
     7
  0
VERTEX
  5
11A2
  8
0
 10
1.047436862768096
 20
2.951192437133333
 30
-40.0
 70
   192
  0
VERTEX
  5
11A3
  8
0
 10
0.1022445740924945
 20
3.896384725811506
 30
-3.904562756082399
 70
   192
  0
VERTEX
  5
11A4
  8
0
 10
0.1022454727966187
 20
3.896383045040982
 30
-3.904597076277354
 70
   192
  0
VERTEX
  5
11A5
  8
0
 10
-0.434382412302972
 20
1.89785927561759
 30
-3.86631598530809
 70
   192
  0
VERTEX
  5
11A6
  8
0
 10
0.5116019200478417
 20
0.9518183769230102
 30
-39.9982348929282
 70
   192
  0
VERTEX
  5
11A7
  8
0
 10
-1.897859952764527
 20
0.4343820210942617
 30
-3.866315992795645
 70
   192
  0
VERTEX
  5
11A8
  8
0
 10
-0.951818376919638
 20
-0.5116019200458943
 30
-39.99823489292817
 70
   192
  0
VERTEX
  5
11A9
  8
0
 10
-3.896383826839853
 20
-0.1022454733324083
 30
-3.904597096735448
 70
   192
  0
VERTEX
  5
11AA
  8
0
 10
-2.951192437130003
 20
-1.047436862769997
 30
-39.9999999999999
 70
   192
  0
VERTEX
  5
11AB
  8
0
 10
0.0
 20
0.0
 30
0.0
 70
   128
 71
     1
 72
     2
 73
     3
  0
VERTEX
  5
11AC
  8
0
 10
0.0
 20
0.0
 30
0.0
 70
   128
 71
     1
 72
     3
 73
     4
  0
VERTEX
  5
11AD
  8
0
 10
0.0
 20
0.0
 30
0.0
 70
   128
 71
     1
 72
     4
 73
     5
  0
VERTEX
  5
11AE
  8
0
 10
0.0
 20
0.0
 30
0.0
 70
   128
 71
     5
 72
     4
 73
     6
  0
VERTEX
  5
11AF
  8
0
 10
0.0
 20
0.0
 30
0.0
 70
   128
 71
     5
 72
     6
 73
     7
  0
VERTEX
  5
11B0
  8
0
 10
0.0
 20
0.0
 30
0.0
 70
   128
 71
     7
 72
     6
 73
     8
  0
VERTEX
  5
11B1
  8
0
 10
0.0
 20
0.0
 30
0.0
 70
   128
 71
     7
 72
     8
 73
     9
  0
SEQEND
  5
179F
  8
0
  0
POLYLINE
  5
11B2
  8
0
 66
     1
 10
0.0
 20
0.0
 30
0.0
 70
    64
 71
    13
 72
    11
  0
VERTEX
  5
11B3
  8
0
 10
-1528.795712184285
 20
481.254726998919
 30
-439.6455014966485
 70
   192
  0
VERTEX
  5
11B4
  8
0
 10
-1520.328390816455
 20
381.8535709796381
 30
-439.4519698058496
 70
   192
  0
VERTEX
  5
11B5
  8
0
 10
-1511.562959168999
 20
278.3526291324735
 30
-438.9205378059963
 70
   192
  0
VERTEX
  5
11B6
  8
0
 10
-1502.247520903836
 20
167.4001826612162
 30
-438.024557410615
 70
   192
  0
VERTEX
  5
11B7
  8
0
 10
-1514.879055715864
 20
166.378477976281
 30
-434.9809580288122
 70
   192
  0
VERTEX
  5
11B8
  8
0
 10
-1525.036448655344
 20
165.6104012381668
 30
-426.8507380954429
 70
   192
  0
VERTEX
  5
11B9
  8
0
 10
-1530.802625559592
 20
165.240916817
 30
-415.1683695625201
 70
   192
  0
VERTEX
  5
11BA
  8
0
 10
-1530.802627709975
 20
165.24090751265
 30
-415.168370191125
 70
   192
  0
VERTEX
  5
11BB
  8
0
 10
-1540.25100197362
 20
276.172855640209
 30
-415.3220486224457
 70
   192
  0
VERTEX
  5
11BC
  8
0
 10
-1549.125043422523
 20
379.5420734585576
 30
-415.1505581943599
 70
   192
  0
VERTEX
  5
11BD
  8
0
 10
-1557.694155281435
 20
478.796472349805
 30
-414.6613096243209
 70
   192
  0
VERTEX
  5
11BE
  8
0
 10
-1552.391741763484
 20
479.2450353636262
 30
-427.3026447710218
 70
   192
  0
VERTEX
  5
11BF
  8
0
 10
-1542.037540855369
 20
480.1258181032294
 30
-436.2543853779388
 70
   192
  0
VERTEX
  5
11C0
  8
0
 10
0.0
 20
0.0
 30
0.0
 70
   128
 71
     7
 72
     6
 73
     9
  0
VERTEX
  5
11C1
  8
0
 10
0.0
 20
0.0
 30
0.0
 70
   128
 71
     9
 72
     8
 73
     7
  0
VERTEX
  5
11C2
  8
0
 10
0.0
 20
0.0
 30
0.0
 70
   128
 71
     6
 72
    10
 73
     9
  0
VERTEX
  5
11C3
  8
0
 10
0.0
 20
0.0
 30
0.0
 70
   128
 71
     6
 72
    12
 73
    10
  0
VERTEX
  5
11C4
  8
0
 10
0.0
 20
0.0
 30
0.0
 70
   128
 71
    12
 72
    11
 73
    10
  0
VERTEX
  5
11C5
  8
0
 10
0.0
 20
0.0
 30
0.0
 70
   128
 71
     6
 72
     5
 73
    13
  0
VERTEX
  5
11C6
  8
0
 10
0.0
 20
0.0
 30
0.0
 70
   128
 71
     6
 72
    13
 73
    12
  0
VERTEX
  5
11C7
  8
0
 10
0.0
 20
0.0
 30
0.0
 70
   128
 71
     2
 72
     1
 73
    13
  0
VERTEX
  5
11C8
  8
0
 10
0.0
 20
0.0
 30
0.0
 70
   128
 71
    13
 72
     3
 73
     2
  0
VERTEX
  5
11C9
  8
0
 10
0.0
 20
0.0
 30
0.0
 70
   128
 71
    13
 72
     5
 73
     3
  0
VERTEX
  5
11CA
  8
0
 10
0.0
 20
0.0
 30
0.0
 70
   128
 71
     5
 72
     4
 73
     3
  0
SEQEND
  5
17A0
  8
0
  0
POLYLINE
  5
11CB
  8
0
 66
     1
 10
0.0
 20
0.0
 30
0.0
 70
    64
 71
    14
 72
    12
  0
VERTEX
  5
11CC
  8
0
 10
-1502.247520903836
 20
167.4001826612162
 30
-438.024557410615
 70
   192
  0
VERTEX
  5
11CD
  8
0
 10
-1514.879055715864
 20
166.378477976281
 30
-434.9809580288122
 70
   192
  0
VERTEX
  5
11CE
  8
0
 10
-1525.036448655344
 20
165.6104012381668
 30
-426.8507380954429
 70
   192
  0
VERTEX
  5
11CF
  8
0
 10
-1530.802625559592
 20
165.240916817
 30
-415.1683695625201
 70
   192
  0
VERTEX
  5
11D0
  8
0
 10
-1530.802627709975
 20
165.24090751265
 30
-415.168370191125
 70
   192
  0
VERTEX
  5
11D1
  8
0
 10
-1524.468365375244
 20
147.5350603445836
 30
-415.7409224209327
 70
   192
  0
VERTEX
  5
11D2
  8
0
 10
-1510.860018635733
 20
134.7482143372062
 30
-414.2793608935018
 70
   192
  0
VERTEX
  5
11D3
  8
0
 10
-1492.4748345731
 20
129.6928316526566
 30
-411.0068735224725
 70
   192
  0
VERTEX
  5
11D4
  8
0
 10
-1492.711689021874
 20
134.5371404894489
 30
-424.6494837878781
 70
   192
  0
VERTEX
  5
11D5
  8
0
 10
-1492.913798777427
 20
145.2079154306911
 30
-434.4339998001179
 70
   192
  0
VERTEX
  5
11D6
  8
0
 10
-1493.034067463798
 20
159.2195899873375
 30
-438.081293606525
 70
   192
  0
VERTEX
  5
11D7
  8
0
 10
-1497.542717286527
 20
160.3186071924999
 30
-438.0223522534176
 70
   192
  0
VERTEX
  5
11D8
  8
0
 10
-1500.809049473513
 20
163.2649246981089
 30
-438.0027852835548
 70
   192
  0
VERTEX
  5
11D9
  8
0
 10
-1502.24752084507
 20
167.4001819543945
 30
-438.0245574044985
 70
   192
  0
VERTEX
  5
11DA
  8
0
 10
0.0
 20
0.0
 30
0.0
 70
   128
 71
     7
 72
     8
 73
     9
  0
VERTEX
  5
11DB
  8
0
 10
0.0
 20
0.0
 30
0.0
 70
   128
 71
    10
 72
    12
 73
     7
  0
VERTEX
  5
11DC
  8
0
 10
0.0
 20
0.0
 30
0.0
 70
   128
 71
     9
 72
    10
 73
     7
  0
VERTEX
  5
11DD
  8
0
 10
0.0
 20
0.0
 30
0.0
 70
   128
 71
    10
 72
    11
 73
    12
  0
VERTEX
  5
11DE
  8
0
 10
0.0
 20
0.0
 30
0.0
 70
   128
 71
    13
 72
     6
 73
     7
  0
VERTEX
  5
11DF
  8
0
 10
0.0
 20
0.0
 30
0.0
 70
   128
 71
    12
 72
    13
 73
     7
  0
VERTEX
  5
11E0
  8
0
 10
0.0
 20
0.0
 30
0.0
 70
   128
 71
    13
 72
    14
 73
     2
  0
VERTEX
  5
11E1
  8
0
 10
0.0
 20
0.0
 30
0.0
 70
   128
 71
     3
 72
     6
 73
    13
  0
VERTEX
  5
11E2
  8
0
 10
0.0
 20
0.0
 30
0.0
 70
   128
 71
     2
 72
     3
 73
    13
  0
VERTEX
  5
11E3
  8
0
 10
0.0
 20
0.0
 30
0.0
 70
   128
 71
     4
 72
     5
 73
     6
  0
VERTEX
  5
11E4
  8
0
 10
0.0
 20
0.0
 30
0.0
 70
   128
 71
     3
 72
     4
 73
     6
  0
VERTEX
  5
11E5
  8
0
 10
0.0
 20
0.0
 30
0.0
 70
   128
 71
    14
 72
     1
 73
     2
  0
SEQEND
  5
17A1
  8
0
  0
POLYLINE
  5
11E6
  8
0
 66
     1
 10
0.0
 20
0.0
 30
0.0
 70
    64
 71
    14
 72
    12
  0
VERTEX
  5
11E7
  8
0
 10
-336.0103079165813
 20
149.1005884204623
 30
-433.6631415460884
 70
   192
  0
VERTEX
  5
11E8
  8
0
 10
-335.9586893232465
 20
162.5066540663275
 30
-436.976037077482
 70
   192
  0
VERTEX
  5
11E9
  8
0
 10
-694.5753434923164
 20
162.0253582813247
 30
-442.0568038860087
 70
   192
  0
VERTEX
  5
11EA
  8
0
 10
-336.1549438153196
 20
138.5990547884185
 30
-424.6967247793555
 70
   192
  0
VERTEX
  5
11EB
  8
0
 10
-1492.711689021874
 20
134.5371404894489
 30
-424.6494837878781
 70
   192
  0
VERTEX
  5
11EC
  8
0
 10
-1492.4748345731
 20
129.6928316526566
 30
-411.0068735224725
 70
   192
  0
VERTEX
  5
11ED
  8
0
 10
-1158.221841166655
 20
131.2688889256518
 30
-416.0427272798765
 70
   192
  0
VERTEX
  5
11EE
  8
0
 10
-694.8014826274582
 20
132.825783369702
 30
-416.4533240380156
 70
   192
  0
VERTEX
  5
11EF
  8
0
 10
-336.361955436663
 20
133.2271737896916
 30
-411.976637311376
 70
   192
  0
VERTEX
  5
11F0
  8
0
 10
-931.447169414138
 20
132.1963724256152
 30
-417.5036674149518
 70
   192
  0
VERTEX
  5
11F1
  8
0
 10
-931.5180128664772
 20
161.358350404613
 30
-443.5370949943318
 70
   192
  0
VERTEX
  5
11F2
  8
0
 10
-1158.596315752004
 20
160.555012449476
 30
-442.5019743621492
 70
   192
  0
VERTEX
  5
11F3
  8
0
 10
-1492.913798777427
 20
145.2079154306911
 30
-434.4339998001179
 70
   192
  0
VERTEX
  5
11F4
  8
0
 10
-1493.034067463798
 20
159.2195899873375
 30
-438.081293606525
 70
   192
  0
VERTEX
  5
11F5
  8
0
 10
0.0
 20
0.0
 30
0.0
 70
   128
 71
     1
 72
     2
 73
     3
  0
VERTEX
  5
11F6
  8
0
 10
0.0
 20
0.0
 30
0.0
 70
   128
 71
     3
 72
     4
 73
     1
  0
VERTEX
  5
11F7
  8
0
 10
0.0
 20
0.0
 30
0.0
 70
   128
 71
     5
 72
     6
 73
     7
  0
VERTEX
  5
11F8
  8
0
 10
0.0
 20
0.0
 30
0.0
 70
   128
 71
     4
 72
     3
 73
     8
  0
VERTEX
  5
11F9
  8
0
 10
0.0
 20
0.0
 30
0.0
 70
   128
 71
     4
 72
     8
 73
     9
  0
VERTEX
  5
11FA
  8
0
 10
0.0
 20
0.0
 30
0.0
 70
   128
 71
    10
 72
     8
 73
     3
  0
VERTEX
  5
11FB
  8
0
 10
0.0
 20
0.0
 30
0.0
 70
   128
 71
    10
 72
     3
 73
    11
  0
VERTEX
  5
11FC
  8
0
 10
0.0
 20
0.0
 30
0.0
 70
   128
 71
     7
 72
    10
 73
    11
  0
VERTEX
  5
11FD
  8
0
 10
0.0
 20
0.0
 30
0.0
 70
   128
 71
     7
 72
    11
 73
    12
  0
VERTEX
  5
11FE
  8
0
 10
0.0
 20
0.0
 30
0.0
 70
   128
 71
    13
 72
     5
 73
     7
  0
VERTEX
  5
11FF
  8
0
 10
0.0
 20
0.0
 30
0.0
 70
   128
 71
    13
 72
     7
 73
    12
  0
VERTEX
  5
1200
  8
0
 10
0.0
 20
0.0
 30
0.0
 70
   128
 71
    12
 72
    14
 73
    13
  0
SEQEND
  5
17A2
  8
0
  0
POLYLINE
  5
1201
  8
0
 66
     1
 10
0.0
 20
0.0
 30
0.0
 70
    64
 71
    13
 72
    11
  0
VERTEX
  5
1202
  8
0
 10
-335.9586893232465
 20
162.5066540663275
 30
-436.976037077482
 70
   192
  0
VERTEX
  5
1203
  8
0
 10
-336.0103079165813
 20
149.1005884204623
 30
-433.6631415460884
 70
   192
  0
VERTEX
  5
1204
  8
0
 10
-336.1549438153196
 20
138.5990547884185
 30
-424.6967247793555
 70
   192
  0
VERTEX
  5
1205
  8
0
 10
-336.361955436663
 20
133.2271737896916
 30
-411.976637311376
 70
   192
  0
VERTEX
  5
1206
  8
0
 10
-318.7729250830091
 20
139.5277590551842
 30
-419.3044912183187
 70
   192
  0
VERTEX
  5
1207
  8
0
 10
-305.5887888650555
 20
154.3600993750636
 30
-423.3827095104644
 70
   192
  0
VERTEX
  5
1208
  8
0
 10
-300.5026439970945
 20
174.596820041084
 30
-422.8989126938855
 70
   192
  0
VERTEX
  5
1209
  8
0
 10
-307.0415279572263
 20
173.9038378141225
 30
-430.2760013531895
 70
   192
  0
VERTEX
  5
120A
  8
0
 10
-315.6145556637251
 20
173.0498065187303
 30
-435.1167124157924
 70
   192
  0
VERTEX
  5
120B
  8
0
 10
-325.2914730552057
 20
172.1273953836464
 30
-436.8957808792995
 70
   192
  0
VERTEX
  5
120C
  8
0
 10
-325.291473591333
 20
172.1274011297255
 30
-436.8957809231055
 70
   192
  0
VERTEX
  5
120D
  8
0
 10
-326.4348744746345
 20
167.1795723222227
 30
-436.8661809593248
 70
   192
  0
VERTEX
  5
120E
  8
0
 10
-330.3428638597046
 20
163.7382501021085
 30
-436.8963514417899
 70
   192
  0
VERTEX
  5
120F
  8
0
 10
0.0
 20
0.0
 30
0.0
 70
   128
 71
     6
 72
     7
 73
     8
  0
VERTEX
  5
1210
  8
0
 10
0.0
 20
0.0
 30
0.0
 70
   128
 71
     9
 72
    12
 73
     6
  0
VERTEX
  5
1211
  8
0
 10
0.0
 20
0.0
 30
0.0
 70
   128
 71
     8
 72
     9
 73
     6
  0
VERTEX
  5
1212
  8
0
 10
0.0
 20
0.0
 30
0.0
 70
   128
 71
     9
 72
    10
 73
    12
  0
VERTEX
  5
1213
  8
0
 10
0.0
 20
0.0
 30
0.0
 70
   128
 71
    10
 72
    11
 73
    12
  0
VERTEX
  5
1214
  8
0
 10
0.0
 20
0.0
 30
0.0
 70
   128
 71
    13
 72
     5
 73
     6
  0
VERTEX
  5
1215
  8
0
 10
0.0
 20
0.0
 30
0.0
 70
   128
 71
    12
 72
    13
 73
     6
  0
VERTEX
  5
1216
  8
0
 10
0.0
 20
0.0
 30
0.0
 70
   128
 71
    13
 72
     1
 73
     2
  0
VERTEX
  5
1217
  8
0
 10
0.0
 20
0.0
 30
0.0
 70
   128
 71
     3
 72
     5
 73
    13
  0
VERTEX
  5
1218
  8
0
 10
0.0
 20
0.0
 30
0.0
 70
   128
 71
     2
 72
     3
 73
    13
  0
VERTEX
  5
1219
  8
0
 10
0.0
 20
0.0
 30
0.0
 70
   128
 71
     3
 72
     4
 73
     5
  0
SEQEND
  5
17A3
  8
0
  0
POLYLINE
  5
121A
  8
0
 66
     1
 10
0.0
 20
0.0
 30
0.0
 70
    64
 71
    14
 72
    12
  0
VERTEX
  5
121B
  8
0
 10
-325.2914730552057
 20
172.1273953836464
 30
-436.8957808792995
 70
   192
  0
VERTEX
  5
121C
  8
0
 10
-325.291473591333
 20
172.1274011297255
 30
-436.8957809231055
 70
   192
  0
VERTEX
  5
121D
  8
0
 10
-337.5677112575911
 20
304.8855578373303
 30
-438.2199638731231
 70
   192
  0
VERTEX
  5
121E
  8
0
 10
-348.6328239646625
 20
426.1880645655908
 30
-439.0642330872802
 70
   192
  0
VERTEX
  5
121F
  8
0
 10
-358.8020445077045
 20
539.999999784486
 30
-439.464460212951
 70
   192
  0
VERTEX
  5
1220
  8
0
 10
-349.856533626006
 20
540.7927475294307
 30
-437.9078705122681
 70
   192
  0
VERTEX
  5
1221
  8
0
 10
-341.7898943231091
 20
541.5123236185557
 30
-433.7263520743103
 70
   192
  0
VERTEX
  5
1222
  8
0
 10
-335.3467069468885
 20
542.092308541835
 30
-427.305874663224
 70
   192
  0
VERTEX
  5
1223
  8
0
 10
-324.7809984412834
 20
428.491479486641
 30
-426.3602855458977
 70
   192
  0
VERTEX
  5
1224
  8
0
 10
-313.2743881338101
 20
307.3307041496669
 30
-424.9114030705596
 70
   192
  0
VERTEX
  5
1225
  8
0
 10
-300.5026439970945
 20
174.596820041084
 30
-422.8989126938855
 70
   192
  0
VERTEX
  5
1226
  8
0
 10
-300.5026459031448
 20
174.5968186596123
 30
-422.8989114030732
 70
   192
  0
VERTEX
  5
1227
  8
0
 10
-307.0415279572263
 20
173.9038378141225
 30
-430.2760013531895
 70
   192
  0
VERTEX
  5
1228
  8
0
 10
-315.6145556637251
 20
173.0498065187303
 30
-435.1167124157924
 70
   192
  0
VERTEX
  5
1229
  8
0
 10
0.0
 20
0.0
 30
0.0
 70
   128
 71
     9
 72
     8
 73
     7
  0
VERTEX
  5
122A
  8
0
 10
0.0
 20
0.0
 30
0.0
 70
   128
 71
     7
 72
    10
 73
     9
  0
VERTEX
  5
122B
  8
0
 10
0.0
 20
0.0
 30
0.0
 70
   128
 71
     7
 72
    13
 73
    10
  0
VERTEX
  5
122C
  8
0
 10
0.0
 20
0.0
 30
0.0
 70
   128
 71
    13
 72
    11
 73
    10
  0
VERTEX
  5
122D
  8
0
 10
0.0
 20
0.0
 30
0.0
 70
   128
 71
    13
 72
    12
 73
    11
  0
VERTEX
  5
122E
  8
0
 10
0.0
 20
0.0
 30
0.0
 70
   128
 71
     7
 72
     6
 73
    14
  0
VERTEX
  5
122F
  8
0
 10
0.0
 20
0.0
 30
0.0
 70
   128
 71
     7
 72
    14
 73
    13
  0
VERTEX
  5
1230
  8
0
 10
0.0
 20
0.0
 30
0.0
 70
   128
 71
     2
 72
     1
 73
    14
  0
VERTEX
  5
1231
  8
0
 10
0.0
 20
0.0
 30
0.0
 70
   128
 71
    14
 72
     3
 73
     2
  0
VERTEX
  5
1232
  8
0
 10
0.0
 20
0.0
 30
0.0
 70
   128
 71
    14
 72
     4
 73
     3
  0
VERTEX
  5
1233
  8
0
 10
0.0
 20
0.0
 30
0.0
 70
   128
 71
    14
 72
     6
 73
     4
  0
VERTEX
  5
1234
  8
0
 10
0.0
 20
0.0
 30
0.0
 70
   128
 71
     6
 72
     5
 73
     4
  0
SEQEND
  5
17A4
  8
0
  0
POLYLINE
  5
1235
  8
0
 66
     1
 10
0.0
 20
0.0
 30
0.0
 70
    64
 71
    12
 72
    10
  0
VERTEX
  5
1236
  8
0
 10
-358.8020445077045
 20
539.999999784486
 30
-439.464460212951
 70
   192
  0
VERTEX
  5
1237
  8
0
 10
-362.9445899759177
 20
587.2197395529735
 30
-439.5075973606008
 70
   192
  0
VERTEX
  5
1238
  8
0
 10
-367.0340916495057
 20
634.4181876866369
 30
-439.4766639077058
 70
   192
  0
VERTEX
  5
1239
  8
0
 10
-371.099410452205
 20
681.968048087079
 30
-439.371214760431
 70
   192
  0
VERTEX
  5
123A
  8
0
 10
-362.4063461442627
 20
682.700493993887
 30
-437.9008266015561
 70
   192
  0
VERTEX
  5
123B
  8
0
 10
-354.517841610457
 20
683.3573213528497
 30
-433.9500113310672
 70
   192
  0
VERTEX
  5
123C
  8
0
 10
-348.119904825276
 20
683.881408277979
 30
-427.8623418543395
 70
   192
  0
VERTEX
  5
123D
  8
0
 10
-343.8972338253399
 20
636.376277705846
 30
-427.7541392179903
 70
   192
  0
VERTEX
  5
123E
  8
0
 10
-339.650677108553
 20
589.2504874753796
 30
-427.5690718137672
 70
   192
  0
VERTEX
  5
123F
  8
0
 10
-335.3467069468885
 20
542.092308541835
 30
-427.305874663224
 70
   192
  0
VERTEX
  5
1240
  8
0
 10
-341.7898943231091
 20
541.5123236185557
 30
-433.7263520743103
 70
   192
  0
VERTEX
  5
1241
  8
0
 10
-349.856533626006
 20
540.7927475294307
 30
-437.9078705122681
 70
   192
  0
VERTEX
  5
1242
  8
0
 10
0.0
 20
0.0
 30
0.0
 70
   128
 71
     8
 72
     7
 73
     6
  0
VERTEX
  5
1243
  8
0
 10
0.0
 20
0.0
 30
0.0
 70
   128
 71
     6
 72
    11
 73
     9
  0
VERTEX
  5
1244
  8
0
 10
0.0
 20
0.0
 30
0.0
 70
   128
 71
     6
 72
     9
 73
     8
  0
VERTEX
  5
1245
  8
0
 10
0.0
 20
0.0
 30
0.0
 70
   128
 71
    11
 72
    10
 73
     9
  0
VERTEX
  5
1246
  8
0
 10
0.0
 20
0.0
 30
0.0
 70
   128
 71
     6
 72
     5
 73
    12
  0
VERTEX
  5
1247
  8
0
 10
0.0
 20
0.0
 30
0.0
 70
   128
 71
     6
 72
    12
 73
    11
  0
VERTEX
  5
1248
  8
0
 10
0.0
 20
0.0
 30
0.0
 70
   128
 71
     2
 72
     1
 73
    12
  0
VERTEX
  5
1249
  8
0
 10
0.0
 20
0.0
 30
0.0
 70
   128
 71
    12
 72
     5
 73
     3
  0
VERTEX
  5
124A
  8
0
 10
0.0
 20
0.0
 30
0.0
 70
   128
 71
    12
 72
     3
 73
     2
  0
VERTEX
  5
124B
  8
0
 10
0.0
 20
0.0
 30
0.0
 70
   128
 71
     5
 72
     4
 73
     3
  0
SEQEND
  5
17A5
  8
0
  0
POLYLINE
  5
124C
  8
0
 66
     1
 10
0.0
 20
0.0
 30
0.0
 70
    64
 71
    13
 72
    11
  0
VERTEX
  5
124D
  8
0
 10
-991.6884445759711
 20
540.0
 30
-450.680975856965
 70
   192
  0
VERTEX
  5
124E
  8
0
 10
-991.6884441566634
 20
540.0000108479965
 30
-450.6809753571792
 70
   192
  0
VERTEX
  5
124F
  8
0
 10
-992.2532804536548
 20
540.000007648545
 30
-450.3068826993613
 70
   192
  0
VERTEX
  5
1250
  8
0
 10
-992.8876541290658
 20
540.0000040483461
 30
-450.0690689088131
 70
   192
  0
VERTEX
  5
1251
  8
0
 10
-993.559213336925
 20
539.999999561668
 30
-449.9796620264185
 70
   192
  0
VERTEX
  5
1252
  8
0
 10
-972.0158669941441
 20
577.5853629578768
 30
-449.9796727737267
 70
   192
  0
VERTEX
  5
1253
  8
0
 10
-928.1275948402362
 20
577.6684888130412
 30
-449.9796730778662
 70
   192
  0
VERTEX
  5
1254
  8
0
 10
-906.4407855543993
 20
540.0
 30
-449.9796620435659
 70
   192
  0
VERTEX
  5
1255
  8
0
 10
-907.1123450204891
 20
540.0
 30
-450.0690690171031
 70
   192
  0
VERTEX
  5
1256
  8
0
 10
-907.7467189229918
 20
540.0
 30
-450.3068829679879
 70
   192
  0
VERTEX
  5
1257
  8
0
 10
-908.311555401763
 20
540.0
 30
-450.680975838282
 70
   192
  0
VERTEX
  5
1258
  8
0
 10
-929.1251026413623
 20
576.0856760070993
 30
-450.6809758382824
 70
   192
  0
VERTEX
  5
1259
  8
0
 10
-970.8220351073594
 20
576.1161239077998
 30
-450.6809758382965
 70
   192
  0
VERTEX
  5
125A
  8
0
 10
0.0
 20
0.0
 30
0.0
 70
   128
 71
     9
 72
     8
 73
     7
  0
VERTEX
  5
125B
  8
0
 10
0.0
 20
0.0
 30
0.0
 70
   128
 71
     7
 72
    10
 73
     9
  0
VERTEX
  5
125C
  8
0
 10
0.0
 20
0.0
 30
0.0
 70
   128
 71
     7
 72
    12
 73
    11
  0
VERTEX
  5
125D
  8
0
 10
0.0
 20
0.0
 30
0.0
 70
   128
 71
     7
 72
    11
 73
    10
  0
VERTEX
  5
125E
  8
0
 10
0.0
 20
0.0
 30
0.0
 70
   128
 71
     7
 72
     6
 73
    13
  0
VERTEX
  5
125F
  8
0
 10
0.0
 20
0.0
 30
0.0
 70
   128
 71
     7
 72
    13
 73
    12
  0
VERTEX
  5
1260
  8
0
 10
0.0
 20
0.0
 30
0.0
 70
   128
 71
     2
 72
     1
 73
    13
  0
VERTEX
  5
1261
  8
0
 10
0.0
 20
0.0
 30
0.0
 70
   128
 71
    13
 72
     6
 73
     3
  0
VERTEX
  5
1262
  8
0
 10
0.0
 20
0.0
 30
0.0
 70
   128
 71
    13
 72
     3
 73
     2
  0
VERTEX
  5
1263
  8
0
 10
0.0
 20
0.0
 30
0.0
 70
   128
 71
     6
 72
     4
 73
     3
  0
VERTEX
  5
1264
  8
0
 10
0.0
 20
0.0
 30
0.0
 70
   128
 71
     6
 72
     5
 73
     4
  0
SEQEND
  5
17A6
  8
0
  0
POLYLINE
  5
1265
  8
0
 66
     1
 10
0.0
 20
0.0
 30
0.0
 70
    64
 71
    12
 72
    10
  0
VERTEX
  5
1266
  8
0
 10
-908.3115554019996
 20
540.0
 30
-450.680975838
 70
   192
  0
VERTEX
  5
1267
  8
0
 10
-907.7467189229918
 20
540.0
 30
-450.3068829679879
 70
   192
  0
VERTEX
  5
1268
  8
0
 10
-907.1123450204891
 20
540.0
 30
-450.0690690171031
 70
   192
  0
VERTEX
  5
1269
  8
0
 10
-906.440785554505
 20
540.0
 30
-449.9796620380605
 70
   192
  0
VERTEX
  5
126A
  8
0
 10
-928.579847397918
 20
502.0719108755338
 30
-449.9796689225259
 70
   192
  0
VERTEX
  5
126B
  8
0
 10
-971.8949804038563
 20
502.3439663057217
 30
-449.9796706365821
 70
   192
  0
VERTEX
  5
126C
  8
0
 10
-993.5592133370866
 20
540.0000002310032
 30
-449.9796620346348
 70
   192
  0
VERTEX
  5
126D
  8
0
 10
-992.8876541290658
 20
540.0000040483461
 30
-450.0690689088131
 70
   192
  0
VERTEX
  5
126E
  8
0
 10
-992.2532804536548
 20
540.000007648545
 30
-450.3068826993613
 70
   192
  0
VERTEX
  5
126F
  8
0
 10
-991.6884445759711
 20
540.0
 30
-450.680975856965
 70
   192
  0
VERTEX
  5
1270
  8
0
 10
-970.8748830891765
 20
503.91431626433
 30
-450.6809758875483
 70
   192
  0
VERTEX
  5
1271
  8
0
 10
-929.1779726399038
 20
503.8838717104795
 30
-450.6809758878593
 70
   192
  0
VERTEX
  5
1272
  8
0
 10
0.0
 20
0.0
 30
0.0
 70
   128
 71
     8
 72
     7
 73
     6
  0
VERTEX
  5
1273
  8
0
 10
0.0
 20
0.0
 30
0.0
 70
   128
 71
     6
 72
    11
 73
     9
  0
VERTEX
  5
1274
  8
0
 10
0.0
 20
0.0
 30
0.0
 70
   128
 71
     6
 72
     9
 73
     8
  0
VERTEX
  5
1275
  8
0
 10
0.0
 20
0.0
 30
0.0
 70
   128
 71
    11
 72
    10
 73
     9
  0
VERTEX
  5
1276
  8
0
 10
0.0
 20
0.0
 30
0.0
 70
   128
 71
     6
 72
     5
 73
    12
  0
VERTEX
  5
1277
  8
0
 10
0.0
 20
0.0
 30
0.0
 70
   128
 71
     6
 72
    12
 73
    11
  0
VERTEX
  5
1278
  8
0
 10
0.0
 20
0.0
 30
0.0
 70
   128
 71
     2
 72
     1
 73
    12
  0
VERTEX
  5
1279
  8
0
 10
0.0
 20
0.0
 30
0.0
 70
   128
 71
    12
 72
     5
 73
     3
  0
VERTEX
  5
127A
  8
0
 10
0.0
 20
0.0
 30
0.0
 70
   128
 71
    12
 72
     3
 73
     2
  0
VERTEX
  5
127B
  8
0
 10
0.0
 20
0.0
 30
0.0
 70
   128
 71
     5
 72
     4
 73
     3
  0
SEQEND
  5
17A7
  8
0
  0
POLYLINE
  5
127C
  8
0
 66
     1
 10
0.0
 20
0.0
 30
0.0
 70
    64
 71
     8
 72
     6
  0
VERTEX
  5
127D
  8
0
 10
-925.3763038892629
 20
539.9999999999999
 30
-464.9999999999112
 70
   192
  0
VERTEX
  5
127E
  8
0
 10
-937.6708458887396
 20
561.3151296795576
 30
-465.0000000000601
 70
   192
  0
VERTEX
  5
127F
  8
0
 10
-962.2979467936452
 20
561.3330059668219
 30
-465.000000000049
 70
   192
  0
VERTEX
  5
1280
  8
0
 10
-974.6236961107393
 20
540.0
 30
-464.9999999999047
 70
   192
  0
VERTEX
  5
1281
  8
0
 10
-991.6884445759711
 20
540.0
 30
-450.680975856965
 70
   192
  0
VERTEX
  5
1282
  8
0
 10
-970.8220351073594
 20
576.1161239077998
 30
-450.6809758382965
 70
   192
  0
VERTEX
  5
1283
  8
0
 10
-929.1251026413623
 20
576.0856760070993
 30
-450.6809758382824
 70
   192
  0
VERTEX
  5
1284
  8
0
 10
-908.3115554017629
 20
540.0
 30
-450.6809758382821
 70
   192
  0
VERTEX
  5
1285
  8
0
 10
0.0
 20
0.0
 30
0.0
 70
   128
 71
     6
 72
     5
 73
     4
  0
VERTEX
  5
1286
  8
0
 10
0.0
 20
0.0
 30
0.0
 70
   128
 71
     6
 72
     4
 73
     3
  0
VERTEX
  5
1287
  8
0
 10
0.0
 20
0.0
 30
0.0
 70
   128
 71
     3
 72
     2
 73
     7
  0
VERTEX
  5
1288
  8
0
 10
0.0
 20
0.0
 30
0.0
 70
   128
 71
     3
 72
     7
 73
     6
  0
VERTEX
  5
1289
  8
0
 10
0.0
 20
0.0
 30
0.0
 70
   128
 71
     2
 72
     1
 73
     8
  0
VERTEX
  5
128A
  8
0
 10
0.0
 20
0.0
 30
0.0
 70
   128
 71
     2
 72
     8
 73
     7
  0
SEQEND
  5
17A8
  8
0
  0
POLYLINE
  5
128B
  8
0
 66
     1
 10
0.0
 20
0.0
 30
0.0
 70
    64
 71
     8
 72
     6
  0
VERTEX
  5
128C
  8
0
 10
-974.623696110737
 20
540.0
 30
-464.9999999999021
 70
   192
  0
VERTEX
  5
128D
  8
0
 10
-962.3291539027631
 20
518.6848702580817
 30
-464.9999999997988
 70
   192
  0
VERTEX
  5
128E
  8
0
 10
-937.7020530141517
 20
518.6669941196777
 30
-464.99999999981
 70
   192
  0
VERTEX
  5
128F
  8
0
 10
-925.3763038892652
 20
540.0
 30
-464.9999999999085
 70
   192
  0
VERTEX
  5
1290
  8
0
 10
-908.311555401763
 20
540.0
 30
-450.680975838282
 70
   192
  0
VERTEX
  5
1291
  8
0
 10
-929.1779726399038
 20
503.8838717104795
 30
-450.6809758878593
 70
   192
  0
VERTEX
  5
1292
  8
0
 10
-970.8748830891765
 20
503.91431626433
 30
-450.6809758875483
 70
   192
  0
VERTEX
  5
1293
  8
0
 10
-991.6884445759712
 20
540.0
 30
-450.6809758569652
 70
   192
  0
VERTEX
  5
1294
  8
0
 10
0.0
 20
0.0
 30
0.0
 70
   128
 71
     6
 72
     5
 73
     4
  0
VERTEX
  5
1295
  8
0
 10
0.0
 20
0.0
 30
0.0
 70
   128
 71
     6
 72
     4
 73
     3
  0
VERTEX
  5
1296
  8
0
 10
0.0
 20
0.0
 30
0.0
 70
   128
 71
     3
 72
     2
 73
     7
  0
VERTEX
  5
1297
  8
0
 10
0.0
 20
0.0
 30
0.0
 70
   128
 71
     3
 72
     7
 73
     6
  0
VERTEX
  5
1298
  8
0
 10
0.0
 20
0.0
 30
0.0
 70
   128
 71
     2
 72
     1
 73
     8
  0
VERTEX
  5
1299
  8
0
 10
0.0
 20
0.0
 30
0.0
 70
   128
 71
     2
 72
     8
 73
     7
  0
SEQEND
  5
17A9
  8
0
  0
POLYLINE
  5
129A
  8
0
 66
     1
 10
0.0
 20
0.0
 30
0.0
 70
    64
 71
     6
 72
     4
  0
VERTEX
  5
129B
  8
0
 10
-974.9876663449829
 20
539.999999999793
 30
-465.9999999999179
 70
   192
  0
VERTEX
  5
129C
  8
0
 10
-962.5016676029471
 20
518.3646032469675
 30
-465.9999999997971
 70
   192
  0
VERTEX
  5
129D
  8
0
 10
-937.5163295627075
 20
518.3542177526598
 30
-465.9999999998082
 70
   192
  0
VERTEX
  5
129E
  8
0
 10
-925.0123336550452
 20
540.0000000002071
 30
-465.9999999999409
 70
   192
  0
VERTEX
  5
129F
  8
0
 10
-937.4983323432896
 20
561.635396781467
 30
-466.0000000000621
 70
   192
  0
VERTEX
  5
12A0
  8
0
 10
-962.4836703997598
 20
561.6457822446814
 30
-466.0000000000508
 70
   192
  0
VERTEX
  5
12A1
  8
0
 10
0.0
 20
0.0
 30
0.0
 70
   128
 71
     1
 72
     6
 73
    -5
  0
VERTEX
  5
12A2
  8
0
 10
0.0
 20
0.0
 30
0.0
 70
   128
 71
    -1
 72
     5
 73
    -4
  0
VERTEX
  5
12A3
  8
0
 10
0.0
 20
0.0
 30
0.0
 70
   128
 71
    -1
 72
     4
 73
    -3
  0
VERTEX
  5
12A4
  8
0
 10
0.0
 20
0.0
 30
0.0
 70
   128
 71
    -1
 72
     3
 73
     2
  0
SEQEND
  5
17AA
  8
0
  0
POLYLINE
  5
12A5
  8
0
 66
     1
 10
0.0
 20
0.0
 30
0.0
 70
    64
 71
    12
 72
    10
  0
VERTEX
  5
12A6
  8
0
 10
-1612.869338856251
 20
547.6899836240943
 30
-3.422439694025058
 70
   192
  0
VERTEX
  5
12A7
  8
0
 10
-1110.682019152191
 20
636.3672662921273
 30
-3.236115786209349
 70
   192
  0
VERTEX
  5
12A8
  8
0
 10
-605.1779690238031
 20
725.6076438887991
 30
-3.25441574206629
 70
   192
  0
VERTEX
  5
12A9
  8
0
 10
-100.4634382035426
 20
814.6972430483303
 30
-3.462467721009615
 70
   192
  0
VERTEX
  5
12AA
  8
0
 10
-100.2151281487144
 20
813.3128730604687
 30
-3.847223084705014
 70
   192
  0
VERTEX
  5
12AB
  8
0
 10
-100.0226794143729
 20
812.2715038681013
 30
-4.849546458735602
 70
   192
  0
VERTEX
  5
12AC
  8
0
 10
-99.9315428853475
 20
811.8190730875795
 30
-6.232722112430543
 70
   192
  0
VERTEX
  5
12AD
  8
0
 10
-604.6711955464523
 20
722.7299704487945
 30
-6.007774236276045
 70
   192
  0
VERTEX
  5
12AE
  8
0
 10
-1110.173003415688
 20
633.4920205404983
 30
-5.972494577838484
 70
   192
  0
VERTEX
  5
12AF
  8
0
 10
-1612.395286416373
 20
544.8140318001724
 30
-6.141688482000721
 70
   192
  0
VERTEX
  5
12B0
  8
0
 10
-1612.462387635681
 20
545.2835365836572
 30
-4.782975531951053
 70
   192
  0
VERTEX
  5
12B1
  8
0
 10
-1612.633530996155
 20
546.3217994149594
 30
-3.80128179047925
 70
   192
  0
VERTEX
  5
12B2
  8
0
 10
0.0
 20
0.0
 30
0.0
 70
   128
 71
     6
 72
     7
 73
     8
  0
VERTEX
  5
12B3
  8
0
 10
0.0
 20
0.0
 30
0.0
 70
   128
 71
     8
 72
     9
 73
     6
  0
VERTEX
  5
12B4
  8
0
 10
0.0
 20
0.0
 30
0.0
 70
   128
 71
     9
 72
    11
 73
     6
  0
VERTEX
  5
12B5
  8
0
 10
0.0
 20
0.0
 30
0.0
 70
   128
 71
     9
 72
    10
 73
    11
  0
VERTEX
  5
12B6
  8
0
 10
0.0
 20
0.0
 30
0.0
 70
   128
 71
    12
 72
     5
 73
     6
  0
VERTEX
  5
12B7
  8
0
 10
0.0
 20
0.0
 30
0.0
 70
   128
 71
    11
 72
    12
 73
     6
  0
VERTEX
  5
12B8
  8
0
 10
0.0
 20
0.0
 30
0.0
 70
   128
 71
    12
 72
     1
 73
     2
  0
VERTEX
  5
12B9
  8
0
 10
0.0
 20
0.0
 30
0.0
 70
   128
 71
     2
 72
     3
 73
    12
  0
VERTEX
  5
12BA
  8
0
 10
0.0
 20
0.0
 30
0.0
 70
   128
 71
     3
 72
     5
 73
    12
  0
VERTEX
  5
12BB
  8
0
 10
0.0
 20
0.0
 30
0.0
 70
   128
 71
     3
 72
     4
 73
     5
  0
SEQEND
  5
17AB
  8
0
  0
POLYLINE
  5
12BC
  8
0
 66
     1
 10
0.0
 20
0.0
 30
0.0
 70
    64
 71
    36
 72
    36
  0
VERTEX
  5
12BD
  8
0
 10
-1696.09633682078
 20
3.903696927458084
 30
-1.009819656279118
 70
   192
  0
VERTEX
  5
12BE
  8
0
 10
-1128.879524179325
 20
4.026342259821859
 30
-1.184887452016164
 70
   192
  0
VERTEX
  5
12BF
  8
0
 10
-566.7944547725117
 20
4.025661515588043
 30
-1.183838650703761
 70
   192
  0
VERTEX
  5
12C0
  8
0
 10
-3.903376768503443
 20
3.903368358583931
 30
-1.009321239122205
 70
   192
  0
VERTEX
  5
12C1
  8
0
 10
-4.048608384903864
 20
300.2088665495983
 30
-1.218803018810405
 70
   192
  0
VERTEX
  5
12C2
  8
0
 10
-4.046495444329556
 20
596.5670664150404
 30
-1.215609198953044
 70
   192
  0
VERTEX
  5
12C3
  8
0
 10
-3.901836434971679
 20
895.3492023822655
 30
-1.008861380996841
 70
   192
  0
VERTEX
  5
12C4
  8
0
 10
-569.7912471122488
 20
795.3598584030791
 30
-1.185171081191743
 70
   192
  0
VERTEX
  5
12C5
  8
0
 10
-1133.632012651247
 20
695.8620705216753
 30
-1.179890283617124
 70
   192
  0
VERTEX
  5
12C6
  8
0
 10
-1696.094401936407
 20
596.7233142706922
 30
-1.010498429012478
 70
   192
  0
VERTEX
  5
12C7
  8
0
 10
-1695.93862408882
 20
418.0386195518134
 30
-1.2380320679947
 70
   192
  0
VERTEX
  5
12C8
  8
0
 10
-1695.941835738926
 20
178.6700508449329
 30
-1.233606075249987
 70
   192
  0
VERTEX
  5
12C9
  8
0
 10
-1612.869338856251
 20
547.6899836240943
 30
-3.422439694025058
 70
   192
  0
VERTEX
  5
12CA
  8
0
 10
-1110.682019152191
 20
636.3672662921273
 30
-3.236115786209349
 70
   192
  0
VERTEX
  5
12CB
  8
0
 10
-605.1779690238031
 20
725.6076438887991
 30
-3.25441574206629
 70
   192
  0
VERTEX
  5
12CC
  8
0
 10
-100.4634382035426
 20
814.6972430483303
 30
-3.462467721009615
 70
   192
  0
VERTEX
  5
12CD
  8
0
 10
-86.71312370857484
 20
814.2270441752781
 30
-3.381967736823726
 70
   192
  0
VERTEX
  5
12CE
  8
0
 10
-74.34882475004696
 20
806.8547037389218
 30
-3.365685856972447
 70
   192
  0
VERTEX
  5
12CF
  8
0
 10
-69.05569219233335
 20
792.7833005418918
 30
-3.461016258631528
 70
   192
  0
VERTEX
  5
12D0
  8
0
 10
-68.91928802167762
 20
564.1374085559253
 30
-3.491209596583814
 70
   192
  0
VERTEX
  5
12D1
  8
0
 10
-68.77815322331523
 20
340.2750523415477
 30
-3.522743161017953
 70
   192
  0
VERTEX
  5
12D2
  8
0
 10
-68.6367044370496
 20
110.0401392681892
 30
-3.575637463171224
 70
   192
  0
VERTEX
  5
12D3
  8
0
 10
-72.70963628929466
 20
97.25113733181882
 30
-3.570705610565065
 70
   192
  0
VERTEX
  5
12D4
  8
0
 10
-82.75174714813832
 20
89.01426600304059
 30
-3.653502159993494
 70
   192
  0
VERTEX
  5
12D5
  8
0
 10
-95.10532491790725
 20
86.35553152356228
 30
-3.762552367031371
 70
   192
  0
VERTEX
  5
12D6
  8
0
 10
-595.6247167931451
 20
86.46300088223583
 30
-3.636297088315601
 70
   192
  0
VERTEX
  5
12D7
  8
0
 10
-1100.812334675171
 20
86.56457958553806
 30
-3.634729177089913
 70
   192
  0
VERTEX
  5
12D8
  8
0
 10
-1607.91150385116
 20
86.66603048320381
 30
-3.781237211563656
 70
   192
  0
VERTEX
  5
12D9
  8
0
 10
-1619.911991321603
 20
89.62440250958736
 30
-3.672921149296701
 70
   192
  0
VERTEX
  5
12DA
  8
0
 10
-1629.055119375539
 20
98.22476667969516
 30
-3.600170018327236
 70
   192
  0
VERTEX
  5
12DB
  8
0
 10
-1632.449743357253
 20
110.3947059587839
 30
-3.609125022811441
 70
   192
  0
VERTEX
  5
12DC
  8
0
 10
-1632.586448787793
 20
250.3894630743971
 30
-3.64978133409508
 70
   192
  0
VERTEX
  5
12DD
  8
0
 10
-1632.717341189965
 20
387.3231481807569
 30
-3.700534073933914
 70
   192
  0
VERTEX
  5
12DE
  8
0
 10
-1632.89223427891
 20
524.0612349563374
 30
-3.442731661410799
 70
   192
  0
VERTEX
  5
12DF
  8
0
 10
-1630.365061977168
 20
534.8194237180106
 30
-3.346211562202745
 70
   192
  0
VERTEX
  5
12E0
  8
0
 10
-1623.083705279343
 20
543.3771929076511
 30
-3.339400009830812
 70
   192
  0
VERTEX
  5
12E1
  8
0
 10
0.0
 20
0.0
 30
0.0
 70
   128
 71
    34
 72
    33
 73
    11
  0
VERTEX
  5
12E2
  8
0
 10
0.0
 20
0.0
 30
0.0
 70
   128
 71
    34
 72
    11
 73
    10
  0
VERTEX
  5
12E3
  8
0
 10
0.0
 20
0.0
 30
0.0
 70
   128
 71
    10
 72
    35
 73
    34
  0
VERTEX
  5
12E4
  8
0
 10
0.0
 20
0.0
 30
0.0
 70
   128
 71
    10
 72
    36
 73
    35
  0
VERTEX
  5
12E5
  8
0
 10
0.0
 20
0.0
 30
0.0
 70
   128
 71
    10
 72
    13
 73
    36
  0
VERTEX
  5
12E6
  8
0
 10
0.0
 20
0.0
 30
0.0
 70
   128
 71
    32
 72
    31
 73
    12
  0
VERTEX
  5
12E7
  8
0
 10
0.0
 20
0.0
 30
0.0
 70
   128
 71
    12
 72
    11
 73
    33
  0
VERTEX
  5
12E8
  8
0
 10
0.0
 20
0.0
 30
0.0
 70
   128
 71
    12
 72
    33
 73
    32
  0
VERTEX
  5
12E9
  8
0
 10
0.0
 20
0.0
 30
0.0
 70
   128
 71
    28
 72
    27
 73
     2
  0
VERTEX
  5
12EA
  8
0
 10
0.0
 20
0.0
 30
0.0
 70
   128
 71
    28
 72
     2
 73
     1
  0
VERTEX
  5
12EB
  8
0
 10
0.0
 20
0.0
 30
0.0
 70
   128
 71
     1
 72
    29
 73
    28
  0
VERTEX
  5
12EC
  8
0
 10
0.0
 20
0.0
 30
0.0
 70
   128
 71
     1
 72
    30
 73
    29
  0
VERTEX
  5
12ED
  8
0
 10
0.0
 20
0.0
 30
0.0
 70
   128
 71
     1
 72
    12
 73
    30
  0
VERTEX
  5
12EE
  8
0
 10
0.0
 20
0.0
 30
0.0
 70
   128
 71
    12
 72
    31
 73
    30
  0
VERTEX
  5
12EF
  8
0
 10
0.0
 20
0.0
 30
0.0
 70
   128
 71
    27
 72
    26
 73
     3
  0
VERTEX
  5
12F0
  8
0
 10
0.0
 20
0.0
 30
0.0
 70
   128
 71
    27
 72
     3
 73
     2
  0
VERTEX
  5
12F1
  8
0
 10
0.0
 20
0.0
 30
0.0
 70
   128
 71
    22
 72
    21
 73
     5
  0
VERTEX
  5
12F2
  8
0
 10
0.0
 20
0.0
 30
0.0
 70
   128
 71
    22
 72
     5
 73
     4
  0
VERTEX
  5
12F3
  8
0
 10
0.0
 20
0.0
 30
0.0
 70
   128
 71
     4
 72
    23
 73
    22
  0
VERTEX
  5
12F4
  8
0
 10
0.0
 20
0.0
 30
0.0
 70
   128
 71
     4
 72
    24
 73
    23
  0
VERTEX
  5
12F5
  8
0
 10
0.0
 20
0.0
 30
0.0
 70
   128
 71
     4
 72
    25
 73
    24
  0
VERTEX
  5
12F6
  8
0
 10
0.0
 20
0.0
 30
0.0
 70
   128
 71
     4
 72
     3
 73
    26
  0
VERTEX
  5
12F7
  8
0
 10
0.0
 20
0.0
 30
0.0
 70
   128
 71
     4
 72
    26
 73
    25
  0
VERTEX
  5
12F8
  8
0
 10
0.0
 20
0.0
 30
0.0
 70
   128
 71
    21
 72
    20
 73
     6
  0
VERTEX
  5
12F9
  8
0
 10
0.0
 20
0.0
 30
0.0
 70
   128
 71
    21
 72
     6
 73
     5
  0
VERTEX
  5
12FA
  8
0
 10
0.0
 20
0.0
 30
0.0
 70
   128
 71
    16
 72
    15
 73
     8
  0
VERTEX
  5
12FB
  8
0
 10
0.0
 20
0.0
 30
0.0
 70
   128
 71
    16
 72
     8
 73
     7
  0
VERTEX
  5
12FC
  8
0
 10
0.0
 20
0.0
 30
0.0
 70
   128
 71
     7
 72
    17
 73
    16
  0
VERTEX
  5
12FD
  8
0
 10
0.0
 20
0.0
 30
0.0
 70
   128
 71
     7
 72
    18
 73
    17
  0
VERTEX
  5
12FE
  8
0
 10
0.0
 20
0.0
 30
0.0
 70
   128
 71
     7
 72
    19
 73
    18
  0
VERTEX
  5
12FF
  8
0
 10
0.0
 20
0.0
 30
0.0
 70
   128
 71
     7
 72
     6
 73
    20
  0
VERTEX
  5
1300
  8
0
 10
0.0
 20
0.0
 30
0.0
 70
   128
 71
     7
 72
    20
 73
    19
  0
VERTEX
  5
1301
  8
0
 10
0.0
 20
0.0
 30
0.0
 70
   128
 71
    15
 72
    14
 73
     9
  0
VERTEX
  5
1302
  8
0
 10
0.0
 20
0.0
 30
0.0
 70
   128
 71
    15
 72
     9
 73
     8
  0
VERTEX
  5
1303
  8
0
 10
0.0
 20
0.0
 30
0.0
 70
   128
 71
    14
 72
    13
 73
    10
  0
VERTEX
  5
1304
  8
0
 10
0.0
 20
0.0
 30
0.0
 70
   128
 71
    14
 72
    10
 73
     9
  0
SEQEND
  5
17AC
  8
0
  0
POLYLINE
  5
1305
  8
0
 66
     1
 10
0.0
 20
0.0
 30
0.0
 70
    64
 71
    12
 72
    10
  0
VERTEX
  5
1306
  8
0
 10
-100.4634382035426
 20
814.6972430483303
 30
-3.462467721009615
 70
   192
  0
VERTEX
  5
1307
  8
0
 10
-100.2151281487144
 20
813.3128730604687
 30
-3.847223084705014
 70
   192
  0
VERTEX
  5
1308
  8
0
 10
-100.0226794143729
 20
812.2715038681013
 30
-4.849546458735602
 70
   192
  0
VERTEX
  5
1309
  8
0
 10
-99.9315428853475
 20
811.8190730875795
 30
-6.232722112430543
 70
   192
  0
VERTEX
  5
130A
  8
0
 10
-87.16484787407992
 20
811.4737683312844
 30
-5.42721809427481
 70
   192
  0
VERTEX
  5
130B
  8
0
 10
-76.14116100543278
 20
805.0230604372155
 30
-4.911799271136168
 70
   192
  0
VERTEX
  5
130C
  8
0
 10
-71.6220399947984
 20
792.8130467723591
 30
-5.008463129656811
 70
   192
  0
VERTEX
  5
130D
  8
0
 10
-70.96775988151785
 20
792.8010709139132
 30
-4.199275646975939
 70
   192
  0
VERTEX
  5
130E
  8
0
 10
-70.07674725491337
 20
792.7907432760605
 30
-3.662015492590099
 70
   192
  0
VERTEX
  5
130F
  8
0
 10
-69.05569219233335
 20
792.7833005418918
 30
-3.461016258631528
 70
   192
  0
VERTEX
  5
1310
  8
0
 10
-74.34882475004696
 20
806.8547037389218
 30
-3.365685856972447
 70
   192
  0
VERTEX
  5
1311
  8
0
 10
-86.71312370857484
 20
814.2270441752781
 30
-3.381967736823726
 70
   192
  0
VERTEX
  5
1312
  8
0
 10
0.0
 20
0.0
 30
0.0
 70
   128
 71
     8
 72
     7
 73
     6
  0
VERTEX
  5
1313
  8
0
 10
0.0
 20
0.0
 30
0.0
 70
   128
 71
     6
 72
    11
 73
     9
  0
VERTEX
  5
1314
  8
0
 10
0.0
 20
0.0
 30
0.0
 70
   128
 71
     6
 72
     9
 73
     8
  0
VERTEX
  5
1315
  8
0
 10
0.0
 20
0.0
 30
0.0
 70
   128
 71
    11
 72
    10
 73
     9
  0
VERTEX
  5
1316
  8
0
 10
0.0
 20
0.0
 30
0.0
 70
   128
 71
     6
 72
     5
 73
    12
  0
VERTEX
  5
1317
  8
0
 10
0.0
 20
0.0
 30
0.0
 70
   128
 71
     6
 72
    12
 73
    11
  0
VERTEX
  5
1318
  8
0
 10
0.0
 20
0.0
 30
0.0
 70
   128
 71
     2
 72
     1
 73
    12
  0
VERTEX
  5
1319
  8
0
 10
0.0
 20
0.0
 30
0.0
 70
   128
 71
    12
 72
     5
 73
     3
  0
VERTEX
  5
131A
  8
0
 10
0.0
 20
0.0
 30
0.0
 70
   128
 71
    12
 72
     3
 73
     2
  0
VERTEX
  5
131B
  8
0
 10
0.0
 20
0.0
 30
0.0
 70
   128
 71
     5
 72
     4
 73
     3
  0
SEQEND
  5
17AD
  8
0
  0
POLYLINE
  5
131C
  8
0
 66
     1
 10
0.0
 20
0.0
 30
0.0
 70
    64
 71
    20
 72
    18
  0
VERTEX
  5
131D
  8
0
 10
-1612.395286416373
 20
544.8140318001724
 30
-6.141688482000721
 70
   192
  0
VERTEX
  5
131E
  8
0
 10
-1583.771479530472
 20
536.8504802040308
 30
-142.993039274343
 70
   192
  0
VERTEX
  5
131F
  8
0
 10
-1555.007857343206
 20
528.9992658949278
 30
-278.6235570400739
 70
   192
  0
VERTEX
  5
1320
  8
0
 10
-1526.054402393054
 20
521.252876161788
 30
-412.7275800792764
 70
   192
  0
VERTEX
  5
1321
  8
0
 10
-1428.10148397037
 20
538.1707977482131
 30
-414.7087986925277
 70
   192
  0
VERTEX
  5
1322
  8
0
 10
-1332.692911933109
 20
554.6392278706838
 30
-416.6360516460406
 70
   192
  0
VERTEX
  5
1323
  8
0
 10
-1241.450524279018
 20
570.3795336164684
 30
-418.4728673210197
 70
   192
  0
VERTEX
  5
1324
  8
0
 10
-1116.102621477617
 20
591.9914421509488
 30
-420.9623963623017
 70
   192
  0
VERTEX
  5
1325
  8
0
 10
-1051.469796898063
 20
603.1347552068876
 30
-422.1849329849525
 70
   192
  0
VERTEX
  5
1326
  8
0
 10
-1000.224800386976
 20
611.9830470717851
 30
-423.0059815800421
 70
   192
  0
VERTEX
  5
1327
  8
0
 10
-954.1859452068975
 20
619.9836193272027
 30
-423.2693634259834
 70
   192
  0
VERTEX
  5
1328
  8
0
 10
-882.1946450222708
 20
632.6350329429899
 30
-422.4383162420762
 70
   192
  0
VERTEX
  5
1329
  8
0
 10
-824.8413249113834
 20
642.7527000338519
 30
-421.4636621759406
 70
   192
  0
VERTEX
  5
132A
  8
0
 10
-708.102671352749
 20
663.3716270636568
 30
-419.3487768003818
 70
   192
  0
VERTEX
  5
132B
  8
0
 10
-390.3207961706507
 20
719.5865418223635
 30
-413.4362206400946
 70
   192
  0
VERTEX
  5
132C
  8
0
 10
-288.3625447608416
 20
752.7827357910488
 30
-283.62806010876
 70
   192
  0
VERTEX
  5
132D
  8
0
 10
-190.8685792697528
 20
783.7650647506505
 30
-147.0443780390406
 70
   192
  0
VERTEX
  5
132E
  8
0
 10
-99.9315428853475
 20
811.8190730875795
 30
-6.232722112430543
 70
   192
  0
VERTEX
  5
132F
  8
0
 10
-604.6711955464523
 20
722.7299704487945
 30
-6.007774236276045
 70
   192
  0
VERTEX
  5
1330
  8
0
 10
-1110.173003415688
 20
633.4920205404983
 30
-5.972494577838484
 70
   192
  0
VERTEX
  5
1331
  8
0
 10
0.0
 20
0.0
 30
0.0
 70
   128
 71
    16
 72
    15
 73
    14
  0
VERTEX
  5
1332
  8
0
 10
0.0
 20
0.0
 30
0.0
 70
   128
 71
    14
 72
    19
 73
    17
  0
VERTEX
  5
1333
  8
0
 10
0.0
 20
0.0
 30
0.0
 70
   128
 71
    14
 72
    17
 73
    16
  0
VERTEX
  5
1334
  8
0
 10
0.0
 20
0.0
 30
0.0
 70
   128
 71
    19
 72
    18
 73
    17
  0
VERTEX
  5
1335
  8
0
 10
0.0
 20
0.0
 30
0.0
 70
   128
 71
     9
 72
     8
 73
    20
  0
VERTEX
  5
1336
  8
0
 10
0.0
 20
0.0
 30
0.0
 70
   128
 71
    20
 72
    10
 73
     9
  0
VERTEX
  5
1337
  8
0
 10
0.0
 20
0.0
 30
0.0
 70
   128
 71
    20
 72
    19
 73
    11
  0
VERTEX
  5
1338
  8
0
 10
0.0
 20
0.0
 30
0.0
 70
   128
 71
    20
 72
    11
 73
    10
  0
VERTEX
  5
1339
  8
0
 10
0.0
 20
0.0
 30
0.0
 70
   128
 71
    19
 72
    12
 73
    11
  0
VERTEX
  5
133A
  8
0
 10
0.0
 20
0.0
 30
0.0
 70
   128
 71
    19
 72
    13
 73
    12
  0
VERTEX
  5
133B
  8
0
 10
0.0
 20
0.0
 30
0.0
 70
   128
 71
    19
 72
    14
 73
    13
  0
VERTEX
  5
133C
  8
0
 10
0.0
 20
0.0
 30
0.0
 70
   128
 71
     2
 72
     1
 73
     5
  0
VERTEX
  5
133D
  8
0
 10
0.0
 20
0.0
 30
0.0
 70
   128
 71
     5
 72
     3
 73
     2
  0
VERTEX
  5
133E
  8
0
 10
0.0
 20
0.0
 30
0.0
 70
   128
 71
     5
 72
     4
 73
     3
  0
VERTEX
  5
133F
  8
0
 10
0.0
 20
0.0
 30
0.0
 70
   128
 71
     1
 72
    20
 73
     6
  0
VERTEX
  5
1340
  8
0
 10
0.0
 20
0.0
 30
0.0
 70
   128
 71
     1
 72
     6
 73
     5
  0
VERTEX
  5
1341
  8
0
 10
0.0
 20
0.0
 30
0.0
 70
   128
 71
    20
 72
     7
 73
     6
  0
VERTEX
  5
1342
  8
0
 10
0.0
 20
0.0
 30
0.0
 70
   128
 71
    20
 72
     8
 73
     7
  0
SEQEND
  5
17AE
  8
0
  0
POLYLINE
  5
1343
  8
0
 66
     1
 10
0.0
 20
0.0
 30
0.0
 70
    64
 71
    12
 72
    10
  0
VERTEX
  5
1344
  8
0
 10
-1632.89223427891
 20
524.0612349563374
 30
-3.442731661410799
 70
   192
  0
VERTEX
  5
1345
  8
0
 10
-1631.568731330978
 20
524.0695491029678
 30
-3.785017967958267
 70
   192
  0
VERTEX
  5
1346
  8
0
 10
-1630.534511342348
 20
524.0837429168992
 30
-4.678916133482648
 70
   192
  0
VERTEX
  5
1347
  8
0
 10
-1630.004274110425
 20
524.1008691374676
 30
-5.938854455500292
 70
   192
  0
VERTEX
  5
1348
  8
0
 10
-1627.766786752242
 20
533.6121989656924
 30
-5.774929611853833
 70
   192
  0
VERTEX
  5
1349
  8
0
 10
-1621.444000766218
 20
541.0122122161276
 30
-5.849312526527145
 70
   192
  0
VERTEX
  5
134A
  8
0
 10
-1612.395286416373
 20
544.8140318001724
 30
-6.141688482000721
 70
   192
  0
VERTEX
  5
134B
  8
0
 10
-1612.462387635681
 20
545.2835365836572
 30
-4.782975531951053
 70
   192
  0
VERTEX
  5
134C
  8
0
 10
-1612.633530996155
 20
546.3217994149594
 30
-3.80128179047925
 70
   192
  0
VERTEX
  5
134D
  8
0
 10
-1612.869338856251
 20
547.6899836240943
 30
-3.422439694025058
 70
   192
  0
VERTEX
  5
134E
  8
0
 10
-1623.083705279343
 20
543.3771929076511
 30
-3.339400009830812
 70
   192
  0
VERTEX
  5
134F
  8
0
 10
-1630.365061977168
 20
534.8194237180106
 30
-3.346211562202745
 70
   192
  0
VERTEX
  5
1350
  8
0
 10
0.0
 20
0.0
 30
0.0
 70
   128
 71
     8
 72
     7
 73
     6
  0
VERTEX
  5
1351
  8
0
 10
0.0
 20
0.0
 30
0.0
 70
   128
 71
     6
 72
    11
 73
     9
  0
VERTEX
  5
1352
  8
0
 10
0.0
 20
0.0
 30
0.0
 70
   128
 71
     6
 72
     9
 73
     8
  0
VERTEX
  5
1353
  8
0
 10
0.0
 20
0.0
 30
0.0
 70
   128
 71
    11
 72
    10
 73
     9
  0
VERTEX
  5
1354
  8
0
 10
0.0
 20
0.0
 30
0.0
 70
   128
 71
     6
 72
     5
 73
    12
  0
VERTEX
  5
1355
  8
0
 10
0.0
 20
0.0
 30
0.0
 70
   128
 71
     6
 72
    12
 73
    11
  0
VERTEX
  5
1356
  8
0
 10
0.0
 20
0.0
 30
0.0
 70
   128
 71
     2
 72
     1
 73
    12
  0
VERTEX
  5
1357
  8
0
 10
0.0
 20
0.0
 30
0.0
 70
   128
 71
    12
 72
     5
 73
     3
  0
VERTEX
  5
1358
  8
0
 10
0.0
 20
0.0
 30
0.0
 70
   128
 71
    12
 72
     3
 73
     2
  0
VERTEX
  5
1359
  8
0
 10
0.0
 20
0.0
 30
0.0
 70
   128
 71
     5
 72
     4
 73
     3
  0
SEQEND
  5
17AF
  8
0
  0
POLYLINE
  5
135A
  8
0
 66
     1
 10
0.0
 20
0.0
 30
0.0
 70
    64
 71
    12
 72
    10
  0
VERTEX
  5
135B
  8
0
 10
-1699.102600288521
 20
3.896370951212924
 30
-3.931237667775436
 70
   192
  0
VERTEX
  5
135C
  8
0
 10
-1699.108393088214
 20
204.0524075251923
 30
-4.152455730347582
 70
   192
  0
VERTEX
  5
135D
  8
0
 10
-1699.108485757862
 20
397.7163492138885
 30
-4.155994633145097
 70
   192
  0
VERTEX
  5
135E
  8
0
 10
-1699.102619062449
 20
596.7310339375982
 30
-3.931954464177352
 70
   192
  0
VERTEX
  5
135F
  8
0
 10
-1698.673442499204
 20
596.7272244325341
 30
-2.462816253943918
 70
   192
  0
VERTEX
  5
1360
  8
0
 10
-1697.575474576874
 20
596.7244065990546
 30
-1.396523066140202
 70
   192
  0
VERTEX
  5
1361
  8
0
 10
-1696.094401936407
 20
596.7233142706922
 30
-1.010498429012478
 70
   192
  0
VERTEX
  5
1362
  8
0
 10
-1695.93862408882
 20
418.0386195518134
 30
-1.2380320679947
 70
   192
  0
VERTEX
  5
1363
  8
0
 10
-1695.941835738926
 20
178.6700508449329
 30
-1.233606075249987
 70
   192
  0
VERTEX
  5
1364
  8
0
 10
-1696.09633682078
 20
3.903696927458084
 30
-1.009819656279118
 70
   192
  0
VERTEX
  5
1365
  8
0
 10
-1697.774249048816
 20
3.902348790143778
 30
-1.517389759205308
 70
   192
  0
VERTEX
  5
1366
  8
0
 10
-1698.888709378543
 20
3.898685327265302
 30
-2.89439469821554
 70
   192
  0
VERTEX
  5
1367
  8
0
 10
0.0
 20
0.0
 30
0.0
 70
   128
 71
     6
 72
     7
 73
     8
  0
VERTEX
  5
1368
  8
0
 10
0.0
 20
0.0
 30
0.0
 70
   128
 71
     8
 72
     9
 73
     6
  0
VERTEX
  5
1369
  8
0
 10
0.0
 20
0.0
 30
0.0
 70
   128
 71
     9
 72
    11
 73
     6
  0
VERTEX
  5
136A
  8
0
 10
0.0
 20
0.0
 30
0.0
 70
   128
 71
     9
 72
    10
 73
    11
  0
VERTEX
  5
136B
  8
0
 10
0.0
 20
0.0
 30
0.0
 70
   128
 71
    12
 72
     5
 73
     6
  0
VERTEX
  5
136C
  8
0
 10
0.0
 20
0.0
 30
0.0
 70
   128
 71
    11
 72
    12
 73
     6
  0
VERTEX
  5
136D
  8
0
 10
0.0
 20
0.0
 30
0.0
 70
   128
 71
    12
 72
     1
 73
     2
  0
VERTEX
  5
136E
  8
0
 10
0.0
 20
0.0
 30
0.0
 70
   128
 71
     2
 72
     3
 73
    12
  0
VERTEX
  5
136F
  8
0
 10
0.0
 20
0.0
 30
0.0
 70
   128
 71
     3
 72
     5
 73
    12
  0
VERTEX
  5
1370
  8
0
 10
0.0
 20
0.0
 30
0.0
 70
   128
 71
     3
 72
     4
 73
     5
  0
SEQEND
  5
17B0
  8
0
  0
POLYLINE
  5
1371
  8
0
 66
     1
 10
0.0
 20
0.0
 30
0.0
 70
    64
 71
    18
 72
    16
  0
VERTEX
  5
1372
  8
0
 10
-1696.624824147095
 20
599.6843721188683
 30
-3.931943578804416
 70
   192
  0
VERTEX
  5
1373
  8
0
 10
-1134.175801707856
 20
698.9445106260566
 30
-4.098495004141997
 70
   192
  0
VERTEX
  5
1374
  8
0
 10
-570.3360033085893
 20
798.4457881129608
 30
-4.10363173397017
 70
   192
  0
VERTEX
  5
1375
  8
0
 10
-4.417573105129247
 20
898.3091378931309
 30
-3.93031834991368
 70
   192
  0
VERTEX
  5
1376
  8
0
 10
-4.346451096052942
 20
897.8876983389434
 30
-2.464141821168705
 70
   192
  0
VERTEX
  5
1377
  8
0
 10
-4.158716889059913
 20
896.810205542535
 30
-1.398282411388735
 70
   192
  0
VERTEX
  5
1378
  8
0
 10
-3.903000274979498
 20
895.3557996
 30
-1.008856553385062
 70
   192
  0
VERTEX
  5
1379
  8
0
 10
-3.902612332515359
 20
895.3536005302342
 30
-1.008856480694851
 70
   192
  0
VERTEX
  5
137A
  8
0
 10
-3.902224385776472
 20
895.3514014572605
 30
-1.008858089820706
 70
   192
  0
VERTEX
  5
137B
  8
0
 10
-3.901836434971679
 20
895.3492023822655
 30
-1.008861380996841
 70
   192
  0
VERTEX
  5
137C
  8
0
 10
-569.7912471122488
 20
795.3598584030791
 30
-1.185171081191743
 70
   192
  0
VERTEX
  5
137D
  8
0
 10
-1133.632012651247
 20
695.8620705216753
 30
-1.179890283617124
 70
   192
  0
VERTEX
  5
137E
  8
0
 10
-1696.094401936407
 20
596.7233142706922
 30
-1.010498429012478
 70
   192
  0
VERTEX
  5
137F
  8
0
 10
-1696.094855635358
 20
596.7258876528525
 30
-1.010492375757956
 70
   192
  0
VERTEX
  5
1380
  8
0
 10
-1696.095309682856
 20
596.7284609584837
 30
-1.010487925220627
 70
   192
  0
VERTEX
  5
1381
  8
0
 10
-1696.095763900911
 20
596.7310342250587
 30
-1.010485212598
 70
   192
  0
VERTEX
  5
1382
  8
0
 10
-1696.353662190343
 20
598.1861295982081
 30
-1.399083276561402
 70
   192
  0
VERTEX
  5
1383
  8
0
 10
-1696.546703961422
 20
599.263728402793
 30
-2.465049955511391
 70
   192
  0
VERTEX
  5
1384
  8
0
 10
0.0
 20
0.0
 30
0.0
 70
   128
 71
    12
 72
    13
 73
    14
  0
VERTEX
  5
1385
  8
0
 10
0.0
 20
0.0
 30
0.0
 70
   128
 71
    14
 72
    15
 73
    12
  0
VERTEX
  5
1386
  8
0
 10
0.0
 20
0.0
 30
0.0
 70
   128
 71
    15
 72
    16
 73
    12
  0
VERTEX
  5
1387
  8
0
 10
0.0
 20
0.0
 30
0.0
 70
   128
 71
     6
 72
     7
 73
    -8
  0
VERTEX
  5
1388
  8
0
 10
0.0
 20
0.0
 30
0.0
 70
   128
 71
     8
 72
     9
 73
    -6
  0
VERTEX
  5
1389
  8
0
 10
0.0
 20
0.0
 30
0.0
 70
   128
 71
    11
 72
     6
 73
     9
  0
VERTEX
  5
138A
  8
0
 10
0.0
 20
0.0
 30
0.0
 70
   128
 71
     9
 72
    10
 73
    11
  0
VERTEX
  5
138B
  8
0
 10
0.0
 20
0.0
 30
0.0
 70
   128
 71
    11
 72
    12
 73
     6
  0
VERTEX
  5
138C
  8
0
 10
0.0
 20
0.0
 30
0.0
 70
   128
 71
    12
 72
    17
 73
     6
  0
VERTEX
  5
138D
  8
0
 10
0.0
 20
0.0
 30
0.0
 70
   128
 71
    12
 72
    16
 73
    17
  0
VERTEX
  5
138E
  8
0
 10
0.0
 20
0.0
 30
0.0
 70
   128
 71
    18
 72
     5
 73
     6
  0
VERTEX
  5
138F
  8
0
 10
0.0
 20
0.0
 30
0.0
 70
   128
 71
    17
 72
    18
 73
     6
  0
VERTEX
  5
1390
  8
0
 10
0.0
 20
0.0
 30
0.0
 70
   128
 71
    18
 72
     1
 73
     2
  0
VERTEX
  5
1391
  8
0
 10
0.0
 20
0.0
 30
0.0
 70
   128
 71
     2
 72
     3
 73
    18
  0
VERTEX
  5
1392
  8
0
 10
0.0
 20
0.0
 30
0.0
 70
   128
 71
     3
 72
     5
 73
    18
  0
VERTEX
  5
1393
  8
0
 10
0.0
 20
0.0
 30
0.0
 70
   128
 71
     3
 72
     4
 73
     5
  0
SEQEND
  5
17B1
  8
0
  0
POLYLINE
  5
1394
  8
0
 66
     1
 10
0.0
 20
0.0
 30
0.0
 70
    64
 71
    12
 72
    10
  0
VERTEX
  5
1395
  8
0
 10
-0.8974238384969871
 20
895.3557996160989
 30
-3.930316285548576
 70
   192
  0
VERTEX
  5
1396
  8
0
 10
-0.8921127728439502
 20
600.5873945718917
 30
-4.133137700002758
 70
   192
  0
VERTEX
  5
1397
  8
0
 10
-0.8920375269201316
 20
302.5682617886359
 30
-4.136011225906835
 70
   192
  0
VERTEX
  5
1398
  8
0
 10
-0.8974127512869413
 20
3.89638413966481
 30
-3.930739689052097
 70
   192
  0
VERTEX
  5
1399
  8
0
 10
-1.326198326282692
 20
3.899825891495833
 30
-2.462239103260539
 70
   192
  0
VERTEX
  5
139A
  8
0
 10
-2.423245772216007
 20
3.902375936497317
 30
-1.396034614047524
 70
   192
  0
VERTEX
  5
139B
  8
0
 10
-3.903376768503443
 20
3.903368358583931
 30
-1.009321239122205
 70
   192
  0
VERTEX
  5
139C
  8
0
 10
-4.048608384903864
 20
300.2088665495983
 30
-1.218803018810405
 70
   192
  0
VERTEX
  5
139D
  8
0
 10
-4.046495444329556
 20
596.5670664150404
 30
-1.215609198953044
 70
   192
  0
VERTEX
  5
139E
  8
0
 10
-3.901836434971679
 20
895.3492023822655
 30
-1.008861380996841
 70
   192
  0
VERTEX
  5
139F
  8
0
 10
-2.224993932251667
 20
895.350417587114
 30
-1.516961776602392
 70
   192
  0
VERTEX
  5
13A0
  8
0
 10
-1.111154815985581
 20
895.3537163011298
 30
-2.893843322073507
 70
   192
  0
VERTEX
  5
13A1
  8
0
 10
0.0
 20
0.0
 30
0.0
 70
   128
 71
     6
 72
     7
 73
     8
  0
VERTEX
  5
13A2
  8
0
 10
0.0
 20
0.0
 30
0.0
 70
   128
 71
     8
 72
     9
 73
     6
  0
VERTEX
  5
13A3
  8
0
 10
0.0
 20
0.0
 30
0.0
 70
   128
 71
     9
 72
    11
 73
     6
  0
VERTEX
  5
13A4
  8
0
 10
0.0
 20
0.0
 30
0.0
 70
   128
 71
     9
 72
    10
 73
    11
  0
VERTEX
  5
13A5
  8
0
 10
0.0
 20
0.0
 30
0.0
 70
   128
 71
    12
 72
     5
 73
     6
  0
VERTEX
  5
13A6
  8
0
 10
0.0
 20
0.0
 30
0.0
 70
   128
 71
    11
 72
    12
 73
     6
  0
VERTEX
  5
13A7
  8
0
 10
0.0
 20
0.0
 30
0.0
 70
   128
 71
    12
 72
     1
 73
     2
  0
VERTEX
  5
13A8
  8
0
 10
0.0
 20
0.0
 30
0.0
 70
   128
 71
     2
 72
     3
 73
    12
  0
VERTEX
  5
13A9
  8
0
 10
0.0
 20
0.0
 30
0.0
 70
   128
 71
     3
 72
     5
 73
    12
  0
VERTEX
  5
13AA
  8
0
 10
0.0
 20
0.0
 30
0.0
 70
   128
 71
     3
 72
     4
 73
     5
  0
SEQEND
  5
17B2
  8
0
  0
POLYLINE
  5
13AB
  8
0
 66
     1
 10
0.0
 20
0.0
 30
0.0
 70
    64
 71
    18
 72
    16
  0
VERTEX
  5
13AC
  8
0
 10
-1696.09633682078
 20
3.903696927458084
 30
-1.009819656279118
 70
   192
  0
VERTEX
  5
13AD
  8
0
 10
-1128.879524179325
 20
4.026342259821859
 30
-1.184887452016164
 70
   192
  0
VERTEX
  5
13AE
  8
0
 10
-566.7944547725117
 20
4.025661515588043
 30
-1.183838650703761
 70
   192
  0
VERTEX
  5
13AF
  8
0
 10
-3.903376768503443
 20
3.903368358583931
 30
-1.009321239122205
 70
   192
  0
VERTEX
  5
13B0
  8
0
 10
-3.903376761572074
 20
3.901040179657173
 30
-1.009316730844362
 70
   192
  0
VERTEX
  5
13B1
  8
0
 10
-3.903376749878721
 20
3.898712002847243
 30
-1.009314051023581
 70
   192
  0
VERTEX
  5
13B2
  8
0
 10
-3.903376733425057
 20
3.896383829519999
 30
-1.009313199394974
 70
   192
  0
VERTEX
  5
13B3
  8
0
 10
-3.902398625203141
 20
2.419187302426577
 30
-1.398362130299182
 70
   192
  0
VERTEX
  5
13B4
  8
0
 10
-3.899839763839762
 20
1.324995714384466
 30
-2.464270015930399
 70
   192
  0
VERTEX
  5
13B5
  8
0
 10
-3.896383826325004
 20
0.897411855932245
 30
-3.930774062205221
 70
   192
  0
VERTEX
  5
13B6
  8
0
 10
-566.7945030500864
 20
0.892919653057508
 30
-4.10232418780924
 70
   192
  0
VERTEX
  5
13B7
  8
0
 10
-1128.879582929838
 20
0.8928892949842199
 30
-4.103483515849375
 70
   192
  0
VERTEX
  5
13B8
  8
0
 10
-1696.1036291825
 20
0.8973988471179867
 30
-3.931270929386663
 70
   192
  0
VERTEX
  5
13B9
  8
0
 10
-1696.100029141255
 20
1.324982702554904
 30
-2.464767143932964
 70
   192
  0
VERTEX
  5
13BA
  8
0
 10
-1696.097360848696
 20
2.419174363229243
 30
-1.398859572303534
 70
   192
  0
VERTEX
  5
13BB
  8
0
 10
-1696.09633686127
 20
3.89637082012
 30
-1.00981080825482
 70
   192
  0
VERTEX
  5
13BC
  8
0
 10
-1696.096336842268
 20
3.898812852673953
 30
-1.009811746134434
 70
   192
  0
VERTEX
  5
13BD
  8
0
 10
-1696.09633682877
 20
3.901254888978727
 30
-1.009814695374023
 70
   192
  0
VERTEX
  5
13BE
  8
0
 10
0.0
 20
0.0
 30
0.0
 70
   128
 71
     9
 72
    10
 73
    11
  0
VERTEX
  5
13BF
  8
0
 10
0.0
 20
0.0
 30
0.0
 70
   128
 71
    11
 72
    12
 73
     9
  0
VERTEX
  5
13C0
  8
0
 10
0.0
 20
0.0
 30
0.0
 70
   128
 71
    12
 72
    14
 73
     9
  0
VERTEX
  5
13C1
  8
0
 10
0.0
 20
0.0
 30
0.0
 70
   128
 71
    12
 72
    13
 73
    14
  0
VERTEX
  5
13C2
  8
0
 10
0.0
 20
0.0
 30
0.0
 70
   128
 71
    15
 72
     8
 73
     9
  0
VERTEX
  5
13C3
  8
0
 10
0.0
 20
0.0
 30
0.0
 70
   128
 71
    14
 72
    15
 73
     9
  0
VERTEX
  5
13C4
  8
0
 10
0.0
 20
0.0
 30
0.0
 70
   128
 71
    16
 72
     7
 73
     8
  0
VERTEX
  5
13C5
  8
0
 10
0.0
 20
0.0
 30
0.0
 70
   128
 71
    15
 72
    16
 73
     8
  0
VERTEX
  5
13C6
  8
0
 10
0.0
 20
0.0
 30
0.0
 70
   128
 71
    17
 72
     6
 73
     7
  0
VERTEX
  5
13C7
  8
0
 10
0.0
 20
0.0
 30
0.0
 70
   128
 71
    16
 72
    17
 73
     7
  0
VERTEX
  5
13C8
  8
0
 10
0.0
 20
0.0
 30
0.0
 70
   128
 71
    18
 72
     5
 73
     6
  0
VERTEX
  5
13C9
  8
0
 10
0.0
 20
0.0
 30
0.0
 70
   128
 71
    17
 72
    18
 73
     6
  0
VERTEX
  5
13CA
  8
0
 10
0.0
 20
0.0
 30
0.0
 70
   128
 71
    18
 72
     1
 73
     2
  0
VERTEX
  5
13CB
  8
0
 10
0.0
 20
0.0
 30
0.0
 70
   128
 71
     2
 72
     3
 73
    18
  0
VERTEX
  5
13CC
  8
0
 10
0.0
 20
0.0
 30
0.0
 70
   128
 71
     3
 72
     5
 73
    18
  0
VERTEX
  5
13CD
  8
0
 10
0.0
 20
0.0
 30
0.0
 70
   128
 71
     3
 72
     4
 73
     5
  0
SEQEND
  5
17B3
  8
0
  0
POLYLINE
  5
13CE
  8
0
 66
     1
 10
0.0
 20
0.0
 30
0.0
 70
    64
 71
    12
 72
    10
  0
VERTEX
  5
13CF
  8
0
 10
-1632.449743357253
 20
110.3947059587839
 30
-3.609125022811441
 70
   192
  0
VERTEX
  5
13D0
  8
0
 10
-1632.586448787793
 20
250.3894630743971
 30
-3.64978133409508
 70
   192
  0
VERTEX
  5
13D1
  8
0
 10
-1632.717341189965
 20
387.3231481807569
 30
-3.700534073933914
 70
   192
  0
VERTEX
  5
13D2
  8
0
 10
-1632.89223427891
 20
524.0612349563374
 30
-3.442731661410799
 70
   192
  0
VERTEX
  5
13D3
  8
0
 10
-1631.568731330978
 20
524.0695491029678
 30
-3.785017967958267
 70
   192
  0
VERTEX
  5
13D4
  8
0
 10
-1630.534511342348
 20
524.0837429168992
 30
-4.678916133482648
 70
   192
  0
VERTEX
  5
13D5
  8
0
 10
-1630.004274110425
 20
524.1008691374676
 30
-5.938854455500292
 70
   192
  0
VERTEX
  5
13D6
  8
0
 10
-1629.829338793175
 20
387.3253737913552
 30
-6.126207645289329
 70
   192
  0
VERTEX
  5
13D7
  8
0
 10
-1629.706107199147
 20
243.1057875302481
 30
-6.004257910722192
 70
   192
  0
VERTEX
  5
13D8
  8
0
 10
-1629.59685851119
 20
110.3835134069447
 30
-5.90059352955822
 70
   192
  0
VERTEX
  5
13D9
  8
0
 10
-1630.170952867031
 20
110.3890899027829
 30
-4.7327338841241
 70
   192
  0
VERTEX
  5
13DA
  8
0
 10
-1631.185535420084
 20
110.3930682564223
 30
-3.917809996880599
 70
   192
  0
VERTEX
  5
13DB
  8
0
 10
0.0
 20
0.0
 30
0.0
 70
   128
 71
     6
 72
     7
 73
     8
  0
VERTEX
  5
13DC
  8
0
 10
0.0
 20
0.0
 30
0.0
 70
   128
 71
     8
 72
     9
 73
     6
  0
VERTEX
  5
13DD
  8
0
 10
0.0
 20
0.0
 30
0.0
 70
   128
 71
     9
 72
    11
 73
     6
  0
VERTEX
  5
13DE
  8
0
 10
0.0
 20
0.0
 30
0.0
 70
   128
 71
     9
 72
    10
 73
    11
  0
VERTEX
  5
13DF
  8
0
 10
0.0
 20
0.0
 30
0.0
 70
   128
 71
    12
 72
     5
 73
     6
  0
VERTEX
  5
13E0
  8
0
 10
0.0
 20
0.0
 30
0.0
 70
   128
 71
    11
 72
    12
 73
     6
  0
VERTEX
  5
13E1
  8
0
 10
0.0
 20
0.0
 30
0.0
 70
   128
 71
    12
 72
     1
 73
     2
  0
VERTEX
  5
13E2
  8
0
 10
0.0
 20
0.0
 30
0.0
 70
   128
 71
     2
 72
     3
 73
    12
  0
VERTEX
  5
13E3
  8
0
 10
0.0
 20
0.0
 30
0.0
 70
   128
 71
     3
 72
     5
 73
    12
  0
VERTEX
  5
13E4
  8
0
 10
0.0
 20
0.0
 30
0.0
 70
   128
 71
     3
 72
     4
 73
     5
  0
SEQEND
  5
17B4
  8
0
  0
POLYLINE
  5
13E5
  8
0
 66
     1
 10
0.0
 20
0.0
 30
0.0
 70
    64
 71
    12
 72
    10
  0
VERTEX
  5
13E6
  8
0
 10
-1607.91150385116
 20
86.66603048320381
 30
-3.781237211563656
 70
   192
  0
VERTEX
  5
13E7
  8
0
 10
-1607.915805930348
 20
88.06785220833066
 30
-4.147922773732324
 70
   192
  0
VERTEX
  5
13E8
  8
0
 10
-1607.925497481324
 20
89.13433371820116
 30
-5.128774932905893
 70
   192
  0
VERTEX
  5
13E9
  8
0
 10
-1607.938323505254
 20
89.61675663604994
 30
-6.495042137878863
 70
   192
  0
VERTEX
  5
13EA
  8
0
 10
-1618.671975726741
 20
92.22933050464556
 30
-6.038127137884902
 70
   192
  0
VERTEX
  5
13EB
  8
0
 10
-1626.663282338903
 20
99.7379475171601
 30
-5.806561745594652
 70
   192
  0
VERTEX
  5
13EC
  8
0
 10
-1629.59685851119
 20
110.3835134069447
 30
-5.90059352955822
 70
   192
  0
VERTEX
  5
13ED
  8
0
 10
-1630.170952867031
 20
110.3890899027829
 30
-4.7327338841241
 70
   192
  0
VERTEX
  5
13EE
  8
0
 10
-1631.185535420084
 20
110.3930682564223
 30
-3.917809996880599
 70
   192
  0
VERTEX
  5
13EF
  8
0
 10
-1632.449743357253
 20
110.3947059587839
 30
-3.609125022811441
 70
   192
  0
VERTEX
  5
13F0
  8
0
 10
-1629.055119375539
 20
98.22476667969516
 30
-3.600170018327236
 70
   192
  0
VERTEX
  5
13F1
  8
0
 10
-1619.911991321603
 20
89.62440250958736
 30
-3.672921149296701
 70
   192
  0
VERTEX
  5
13F2
  8
0
 10
0.0
 20
0.0
 30
0.0
 70
   128
 71
     8
 72
     7
 73
     6
  0
VERTEX
  5
13F3
  8
0
 10
0.0
 20
0.0
 30
0.0
 70
   128
 71
     6
 72
    11
 73
     9
  0
VERTEX
  5
13F4
  8
0
 10
0.0
 20
0.0
 30
0.0
 70
   128
 71
     6
 72
     9
 73
     8
  0
VERTEX
  5
13F5
  8
0
 10
0.0
 20
0.0
 30
0.0
 70
   128
 71
    11
 72
    10
 73
     9
  0
VERTEX
  5
13F6
  8
0
 10
0.0
 20
0.0
 30
0.0
 70
   128
 71
     6
 72
     5
 73
    12
  0
VERTEX
  5
13F7
  8
0
 10
0.0
 20
0.0
 30
0.0
 70
   128
 71
     6
 72
    12
 73
    11
  0
VERTEX
  5
13F8
  8
0
 10
0.0
 20
0.0
 30
0.0
 70
   128
 71
     2
 72
     1
 73
    12
  0
VERTEX
  5
13F9
  8
0
 10
0.0
 20
0.0
 30
0.0
 70
   128
 71
    12
 72
     5
 73
     3
  0
VERTEX
  5
13FA
  8
0
 10
0.0
 20
0.0
 30
0.0
 70
   128
 71
    12
 72
     3
 73
     2
  0
VERTEX
  5
13FB
  8
0
 10
0.0
 20
0.0
 30
0.0
 70
   128
 71
     5
 72
     4
 73
     3
  0
SEQEND
  5
17B5
  8
0
  0
POLYLINE
  5
13FC
  8
0
 66
     1
 10
0.0
 20
0.0
 30
0.0
 70
    64
 71
    12
 72
    10
  0
VERTEX
  5
13FD
  8
0
 10
-95.10532491790725
 20
86.35553152356228
 30
-3.762552367031371
 70
   192
  0
VERTEX
  5
13FE
  8
0
 10
-595.6247167931451
 20
86.46300088223583
 30
-3.636297088315601
 70
   192
  0
VERTEX
  5
13FF
  8
0
 10
-1100.812334675171
 20
86.56457958553806
 30
-3.634729177089913
 70
   192
  0
VERTEX
  5
1400
  8
0
 10
-1607.91150385116
 20
86.66603048320381
 30
-3.781237211563656
 70
   192
  0
VERTEX
  5
1401
  8
0
 10
-1607.915805930348
 20
88.06785220833066
 30
-4.147922773732324
 70
   192
  0
VERTEX
  5
1402
  8
0
 10
-1607.925497481324
 20
89.13433371820116
 30
-5.128774932905893
 70
   192
  0
VERTEX
  5
1403
  8
0
 10
-1607.938323505254
 20
89.61675663604994
 30
-6.495042137878863
 70
   192
  0
VERTEX
  5
1404
  8
0
 10
-1104.091010269138
 20
89.50613815938883
 30
-6.397647367841097
 70
   192
  0
VERTEX
  5
1405
  8
0
 10
-605.2514133759124
 20
89.40879268543735
 30
-6.441074760179351
 70
   192
  0
VERTEX
  5
1406
  8
0
 10
-95.07834177783302
 20
89.31436564753834
 30
-6.617037887872893
 70
   192
  0
VERTEX
  5
1407
  8
0
 10
-95.09117455646562
 20
88.8727061949841
 30
-5.189951689881238
 70
   192
  0
VERTEX
  5
1408
  8
0
 10
-95.10097918845308
 20
87.79758899077798
 30
-4.152750487413459
 70
   192
  0
VERTEX
  5
1409
  8
0
 10
0.0
 20
0.0
 30
0.0
 70
   128
 71
     6
 72
     7
 73
     8
  0
VERTEX
  5
140A
  8
0
 10
0.0
 20
0.0
 30
0.0
 70
   128
 71
     8
 72
     9
 73
     6
  0
VERTEX
  5
140B
  8
0
 10
0.0
 20
0.0
 30
0.0
 70
   128
 71
     9
 72
    11
 73
     6
  0
VERTEX
  5
140C
  8
0
 10
0.0
 20
0.0
 30
0.0
 70
   128
 71
     9
 72
    10
 73
    11
  0
VERTEX
  5
140D
  8
0
 10
0.0
 20
0.0
 30
0.0
 70
   128
 71
    12
 72
     5
 73
     6
  0
VERTEX
  5
140E
  8
0
 10
0.0
 20
0.0
 30
0.0
 70
   128
 71
    11
 72
    12
 73
     6
  0
VERTEX
  5
140F
  8
0
 10
0.0
 20
0.0
 30
0.0
 70
   128
 71
    12
 72
     1
 73
     2
  0
VERTEX
  5
1410
  8
0
 10
0.0
 20
0.0
 30
0.0
 70
   128
 71
     2
 72
     3
 73
    12
  0
VERTEX
  5
1411
  8
0
 10
0.0
 20
0.0
 30
0.0
 70
   128
 71
     3
 72
     5
 73
    12
  0
VERTEX
  5
1412
  8
0
 10
0.0
 20
0.0
 30
0.0
 70
   128
 71
     3
 72
     4
 73
     5
  0
SEQEND
  5
17B6
  8
0
  0
POLYLINE
  5
1413
  8
0
 66
     1
 10
0.0
 20
0.0
 30
0.0
 70
    64
 71
    12
 72
    10
  0
VERTEX
  5
1414
  8
0
 10
-68.6367044370496
 20
110.0401392681892
 30
-3.575637463171224
 70
   192
  0
VERTEX
  5
1415
  8
0
 10
-69.73144322521443
 20
110.0356368857502
 30
-3.808159559757329
 70
   192
  0
VERTEX
  5
1416
  8
0
 10
-70.66510999778171
 20
110.0297032805559
 30
-4.425186517897832
 70
   192
  0
VERTEX
  5
1417
  8
0
 10
-71.30818920449295
 20
110.0231444581654
 30
-5.34111612957027
 70
   192
  0
VERTEX
  5
1418
  8
0
 10
-74.9005757405404
 20
98.84488057555035
 30
-5.421952931388174
 70
   192
  0
VERTEX
  5
1419
  8
0
 10
-83.8849496868368
 20
91.64110233476258
 30
-5.92440652623689
 70
   192
  0
VERTEX
  5
141A
  8
0
 10
-95.07834177783302
 20
89.31436564753834
 30
-6.617037887872893
 70
   192
  0
VERTEX
  5
141B
  8
0
 10
-95.09117455646562
 20
88.8727061949841
 30
-5.189951689881238
 70
   192
  0
VERTEX
  5
141C
  8
0
 10
-95.10097918845308
 20
87.79758899077798
 30
-4.152750487413459
 70
   192
  0
VERTEX
  5
141D
  8
0
 10
-95.10532491790725
 20
86.35553152356228
 30
-3.762552367031371
 70
   192
  0
VERTEX
  5
141E
  8
0
 10
-82.75174714813832
 20
89.01426600304059
 30
-3.653502159993494
 70
   192
  0
VERTEX
  5
141F
  8
0
 10
-72.70963628929466
 20
97.25113733181882
 30
-3.570705610565065
 70
   192
  0
VERTEX
  5
1420
  8
0
 10
0.0
 20
0.0
 30
0.0
 70
   128
 71
     8
 72
     7
 73
     6
  0
VERTEX
  5
1421
  8
0
 10
0.0
 20
0.0
 30
0.0
 70
   128
 71
     6
 72
    11
 73
     9
  0
VERTEX
  5
1422
  8
0
 10
0.0
 20
0.0
 30
0.0
 70
   128
 71
     6
 72
     9
 73
     8
  0
VERTEX
  5
1423
  8
0
 10
0.0
 20
0.0
 30
0.0
 70
   128
 71
    11
 72
    10
 73
     9
  0
VERTEX
  5
1424
  8
0
 10
0.0
 20
0.0
 30
0.0
 70
   128
 71
     6
 72
     5
 73
    12
  0
VERTEX
  5
1425
  8
0
 10
0.0
 20
0.0
 30
0.0
 70
   128
 71
     6
 72
    12
 73
    11
  0
VERTEX
  5
1426
  8
0
 10
0.0
 20
0.0
 30
0.0
 70
   128
 71
     2
 72
     1
 73
    12
  0
VERTEX
  5
1427
  8
0
 10
0.0
 20
0.0
 30
0.0
 70
   128
 71
    12
 72
     5
 73
     3
  0
VERTEX
  5
1428
  8
0
 10
0.0
 20
0.0
 30
0.0
 70
   128
 71
    12
 72
     3
 73
     2
  0
VERTEX
  5
1429
  8
0
 10
0.0
 20
0.0
 30
0.0
 70
   128
 71
     5
 72
     4
 73
     3
  0
SEQEND
  5
17B7
  8
0
  0
POLYLINE
  5
142A
  8
0
 66
     1
 10
0.0
 20
0.0
 30
0.0
 70
    64
 71
    12
 72
    10
  0
VERTEX
  5
142B
  8
0
 10
-69.05569219233335
 20
792.7833005418918
 30
-3.461016258631528
 70
   192
  0
VERTEX
  5
142C
  8
0
 10
-68.91928802167762
 20
564.1374085559253
 30
-3.491209596583814
 70
   192
  0
VERTEX
  5
142D
  8
0
 10
-68.77815322331523
 20
340.2750523415477
 30
-3.522743161017953
 70
   192
  0
VERTEX
  5
142E
  8
0
 10
-68.6367044370496
 20
110.0401392681892
 30
-3.575637463171224
 70
   192
  0
VERTEX
  5
142F
  8
0
 10
-69.73144322521443
 20
110.0356368857502
 30
-3.808159559757329
 70
   192
  0
VERTEX
  5
1430
  8
0
 10
-70.66510999778171
 20
110.0297032805559
 30
-4.425186517897832
 70
   192
  0
VERTEX
  5
1431
  8
0
 10
-71.30818920449295
 20
110.0231444581654
 30
-5.34111612957027
 70
   192
  0
VERTEX
  5
1432
  8
0
 10
-71.41444957313607
 20
334.8356337524055
 30
-5.21371623975719
 70
   192
  0
VERTEX
  5
1433
  8
0
 10
-71.5280889931262
 20
574.1508105625081
 30
-5.105910363350324
 70
   192
  0
VERTEX
  5
1434
  8
0
 10
-71.6220399947984
 20
792.8130467723591
 30
-5.008463129656811
 70
   192
  0
VERTEX
  5
1435
  8
0
 10
-70.96775988151785
 20
792.8010709139132
 30
-4.199275646975939
 70
   192
  0
VERTEX
  5
1436
  8
0
 10
-70.07674725491337
 20
792.7907432760605
 30
-3.662015492590099
 70
   192
  0
VERTEX
  5
1437
  8
0
 10
0.0
 20
0.0
 30
0.0
 70
   128
 71
     6
 72
     7
 73
     8
  0
VERTEX
  5
1438
  8
0
 10
0.0
 20
0.0
 30
0.0
 70
   128
 71
     8
 72
     9
 73
     6
  0
VERTEX
  5
1439
  8
0
 10
0.0
 20
0.0
 30
0.0
 70
   128
 71
     9
 72
    11
 73
     6
  0
VERTEX
  5
143A
  8
0
 10
0.0
 20
0.0
 30
0.0
 70
   128
 71
     9
 72
    10
 73
    11
  0
VERTEX
  5
143B
  8
0
 10
0.0
 20
0.0
 30
0.0
 70
   128
 71
    12
 72
     5
 73
     6
  0
VERTEX
  5
143C
  8
0
 10
0.0
 20
0.0
 30
0.0
 70
   128
 71
    11
 72
    12
 73
     6
  0
VERTEX
  5
143D
  8
0
 10
0.0
 20
0.0
 30
0.0
 70
   128
 71
    12
 72
     1
 73
     2
  0
VERTEX
  5
143E
  8
0
 10
0.0
 20
0.0
 30
0.0
 70
   128
 71
     2
 72
     3
 73
    12
  0
VERTEX
  5
143F
  8
0
 10
0.0
 20
0.0
 30
0.0
 70
   128
 71
     3
 72
     5
 73
    12
  0
VERTEX
  5
1440
  8
0
 10
0.0
 20
0.0
 30
0.0
 70
   128
 71
     3
 72
     4
 73
     5
  0
SEQEND
  5
17B8
  8
0
  0
POLYLINE
  5
1441
  8
0
 66
     1
 10
0.0
 20
0.0
 30
0.0
 70
    64
 71
    14
 72
    12
  0
VERTEX
  5
1442
  8
0
 10
-71.6220399947984
 20
792.8130467723591
 30
-5.008463129656811
 70
   192
  0
VERTEX
  5
1443
  8
0
 10
-155.8300383025049
 20
759.3371964938186
 30
-149.1665869070365
 70
   192
  0
VERTEX
  5
1444
  8
0
 10
-202.1536531967203
 20
740.9860090275232
 30
-222.2686819472189
 70
   192
  0
VERTEX
  5
1445
  8
0
 10
-272.9459693845606
 20
713.0687146956687
 30
-326.7839635028687
 70
   192
  0
VERTEX
  5
1446
  8
0
 10
-326.467334193845
 20
692.0908629784788
 30
-400.7195254881679
 70
   192
  0
VERTEX
  5
1447
  8
0
 10
-347.3352763045164
 20
683.9497613420107
 30
-428.4785284681596
 70
   192
  0
VERTEX
  5
1448
  8
0
 10
-355.5986046467129
 20
703.1885185050646
 30
-428.1144221023789
 70
   192
  0
VERTEX
  5
1449
  8
0
 10
-371.2676906591535
 20
716.2186340244557
 30
-422.6226464557115
 70
   192
  0
VERTEX
  5
144A
  8
0
 10
-390.3207961706507
 20
719.5865418223635
 30
-413.4362206400946
 70
   192
  0
VERTEX
  5
144B
  8
0
 10
-288.3625447608416
 20
752.7827357910488
 30
-283.62806010876
 70
   192
  0
VERTEX
  5
144C
  8
0
 10
-190.8685792697528
 20
783.7650647506505
 30
-147.0443780390406
 70
   192
  0
VERTEX
  5
144D
  8
0
 10
-99.9315428853475
 20
811.8190730875795
 30
-6.232722112430543
 70
   192
  0
VERTEX
  5
144E
  8
0
 10
-87.16484787407992
 20
811.4737683312844
 30
-5.42721809427481
 70
   192
  0
VERTEX
  5
144F
  8
0
 10
-76.14116100543278
 20
805.0230604372155
 30
-4.911799271136168
 70
   192
  0
VERTEX
  5
1450
  8
0
 10
0.0
 20
0.0
 30
0.0
 70
   128
 71
     7
 72
     4
 73
     5
  0
VERTEX
  5
1451
  8
0
 10
0.0
 20
0.0
 30
0.0
 70
   128
 71
     5
 72
     6
 73
     7
  0
VERTEX
  5
1452
  8
0
 10
0.0
 20
0.0
 30
0.0
 70
   128
 71
     8
 72
    10
 73
     4
  0
VERTEX
  5
1453
  8
0
 10
0.0
 20
0.0
 30
0.0
 70
   128
 71
     7
 72
     8
 73
     4
  0
VERTEX
  5
1454
  8
0
 10
0.0
 20
0.0
 30
0.0
 70
   128
 71
     8
 72
     9
 73
    10
  0
VERTEX
  5
1455
  8
0
 10
0.0
 20
0.0
 30
0.0
 70
   128
 71
    11
 72
     2
 73
     3
  0
VERTEX
  5
1456
  8
0
 10
0.0
 20
0.0
 30
0.0
 70
   128
 71
     4
 72
    10
 73
    11
  0
VERTEX
  5
1457
  8
0
 10
0.0
 20
0.0
 30
0.0
 70
   128
 71
     3
 72
     4
 73
    11
  0
VERTEX
  5
1458
  8
0
 10
0.0
 20
0.0
 30
0.0
 70
   128
 71
    14
 72
     1
 73
     2
  0
VERTEX
  5
1459
  8
0
 10
0.0
 20
0.0
 30
0.0
 70
   128
 71
    13
 72
    14
 73
     2
  0
VERTEX
  5
145A
  8
0
 10
0.0
 20
0.0
 30
0.0
 70
   128
 71
    12
 72
    13
 73
     2
  0
VERTEX
  5
145B
  8
0
 10
0.0
 20
0.0
 30
0.0
 70
   128
 71
    11
 72
    12
 73
     2
  0
SEQEND
  5
17B9
  8
0
  0
POLYLINE
  5
145C
  8
0
 66
     1
 10
0.0
 20
0.0
 30
0.0
 70
    64
 71
    22
 72
    20
  0
VERTEX
  5
145D
  8
0
 10
-995.366306311739
 20
582.0297142049628
 30
-450.6287738663856
 70
   192
  0
VERTEX
  5
145E
  8
0
 10
-1000.224800386976
 20
611.9830470717851
 30
-423.0059815800421
 70
   192
  0
VERTEX
  5
145F
  8
0
 10
-954.1859452068975
 20
619.9836193272027
 30
-423.2693634259834
 70
   192
  0
VERTEX
  5
1460
  8
0
 10
-948.8785946578109
 20
590.2251660360457
 30
-450.8516132091036
 70
   192
  0
VERTEX
  5
1461
  8
0
 10
-1051.469796898063
 20
603.1347552068876
 30
-422.1849329849525
 70
   192
  0
VERTEX
  5
1462
  8
0
 10
-1046.736495502142
 20
572.9640999228575
 30
-449.8539103220224
 70
   192
  0
VERTEX
  5
1463
  8
0
 10
-1116.102621477617
 20
591.9914421509488
 30
-420.9623963623017
 70
   192
  0
VERTEX
  5
1464
  8
0
 10
-1111.393723080128
 20
561.7022047427548
 30
-448.6894174276839
 70
   192
  0
VERTEX
  5
1465
  8
0
 10
-1236.742878802468
 20
539.9999986285211
 30
-446.310481468909
 70
   192
  0
VERTEX
  5
1466
  8
0
 10
-1239.146220315235
 20
554.3366163540816
 30
-442.6377243663259
 70
   192
  0
VERTEX
  5
1467
  8
0
 10
-1240.84813721705
 20
565.319485177728
 30
-432.5738153213707
 70
   192
  0
VERTEX
  5
1468
  8
0
 10
-1241.450524279018
 20
570.3795336164684
 30
-418.4728673210197
 70
   192
  0
VERTEX
  5
1469
  8
0
 10
-708.102671352749
 20
663.3716270636568
 30
-419.3487768003818
 70
   192
  0
VERTEX
  5
146A
  8
0
 10
-390.3207961706507
 20
719.5865418223635
 30
-413.4362206400946
 70
   192
  0
VERTEX
  5
146B
  8
0
 10
-389.1394624393565
 20
714.4329099253571
 30
-427.2442220724504
 70
   192
  0
VERTEX
  5
146C
  8
0
 10
-387.0226967780196
 20
703.558488197771
 30
-437.0361169309143
 70
   192
  0
VERTEX
  5
146D
  8
0
 10
-819.0274415045027
 20
612.7001099870847
 30
-448.9399782166252
 70
   192
  0
VERTEX
  5
146E
  8
0
 10
-824.8413249113834
 20
642.7527000338519
 30
-421.4636621759406
 70
   192
  0
VERTEX
  5
146F
  8
0
 10
-702.25220142898
 20
633.2506135759031
 30
-446.7334164938574
 70
   192
  0
VERTEX
  5
1470
  8
0
 10
-882.1946450222708
 20
632.6350329429899
 30
-422.4383162420762
 70
   192
  0
VERTEX
  5
1471
  8
0
 10
-876.4480441496187
 20
602.6742973591834
 30
-449.9607764773951
 70
   192
  0
VERTEX
  5
1472
  8
0
 10
-384.4520153589461
 20
689.4369729816315
 30
-440.5844592188672
 70
   192
  0
VERTEX
  5
1473
  8
0
 10
0.0
 20
0.0
 30
0.0
 70
   128
 71
     1
 72
     2
 73
     3
  0
VERTEX
  5
1474
  8
0
 10
0.0
 20
0.0
 30
0.0
 70
   128
 71
     4
 72
     1
 73
     3
  0
VERTEX
  5
1475
  8
0
 10
0.0
 20
0.0
 30
0.0
 70
   128
 71
     5
 72
     2
 73
     6
  0
VERTEX
  5
1476
  8
0
 10
0.0
 20
0.0
 30
0.0
 70
   128
 71
     7
 72
     5
 73
     8
  0
VERTEX
  5
1477
  8
0
 10
0.0
 20
0.0
 30
0.0
 70
   128
 71
     8
 72
     9
 73
    10
  0
VERTEX
  5
1478
  8
0
 10
0.0
 20
0.0
 30
0.0
 70
   128
 71
    11
 72
     7
 73
     8
  0
VERTEX
  5
1479
  8
0
 10
0.0
 20
0.0
 30
0.0
 70
   128
 71
    10
 72
    11
 73
     8
  0
VERTEX
  5
147A
  8
0
 10
0.0
 20
0.0
 30
0.0
 70
   128
 71
    11
 72
    12
 73
     7
  0
VERTEX
  5
147B
  8
0
 10
0.0
 20
0.0
 30
0.0
 70
   128
 71
    13
 72
    14
 73
    15
  0
VERTEX
  5
147C
  8
0
 10
0.0
 20
0.0
 30
0.0
 70
   128
 71
    15
 72
    16
 73
    13
  0
VERTEX
  5
147D
  8
0
 10
0.0
 20
0.0
 30
0.0
 70
   128
 71
    17
 72
    18
 73
    13
  0
VERTEX
  5
147E
  8
0
 10
0.0
 20
0.0
 30
0.0
 70
   128
 71
    19
 72
    17
 73
    13
  0
VERTEX
  5
147F
  8
0
 10
0.0
 20
0.0
 30
0.0
 70
   128
 71
     2
 72
     1
 73
     6
  0
VERTEX
  5
1480
  8
0
 10
0.0
 20
0.0
 30
0.0
 70
   128
 71
    20
 72
    21
 73
     4
  0
VERTEX
  5
1481
  8
0
 10
0.0
 20
0.0
 30
0.0
 70
   128
 71
     3
 72
    20
 73
     4
  0
VERTEX
  5
1482
  8
0
 10
0.0
 20
0.0
 30
0.0
 70
   128
 71
     5
 72
     6
 73
     8
  0
VERTEX
  5
1483
  8
0
 10
0.0
 20
0.0
 30
0.0
 70
   128
 71
    18
 72
    17
 73
    21
  0
VERTEX
  5
1484
  8
0
 10
0.0
 20
0.0
 30
0.0
 70
   128
 71
    20
 72
    18
 73
    21
  0
VERTEX
  5
1485
  8
0
 10
0.0
 20
0.0
 30
0.0
 70
   128
 71
    16
 72
    22
 73
    19
  0
VERTEX
  5
1486
  8
0
 10
0.0
 20
0.0
 30
0.0
 70
   128
 71
    13
 72
    16
 73
    19
  0
SEQEND
  5
17BA
  8
0
  0
POLYLINE
  5
1487
  8
0
 66
     1
 10
0.0
 20
0.0
 30
0.0
 70
    64
 71
    12
 72
    10
  0
VERTEX
  5
1488
  8
0
 10
-1241.450524279018
 20
570.3795336164684
 30
-418.4728673210197
 70
   192
  0
VERTEX
  5
1489
  8
0
 10
-1240.84813721705
 20
565.319485177728
 30
-432.5738153213707
 70
   192
  0
VERTEX
  5
148A
  8
0
 10
-1239.146220315235
 20
554.3366163540816
 30
-442.6377243663259
 70
   192
  0
VERTEX
  5
148B
  8
0
 10
-1236.742878802468
 20
539.9999986285211
 30
-446.310481468909
 70
   192
  0
VERTEX
  5
148C
  8
0
 10
-1327.981870570087
 20
524.2273220638494
 30
-444.5522873292774
 70
   192
  0
VERTEX
  5
148D
  8
0
 10
-1423.386649640287
 20
507.7356935819025
 30
-442.7056509498022
 70
   192
  0
VERTEX
  5
148E
  8
0
 10
-1521.335826127599
 20
490.7998336695343
 30
-440.8054174291798
 70
   192
  0
VERTEX
  5
148F
  8
0
 10
-1523.757665673455
 20
505.226388350558
 30
-437.1104116432518
 70
   192
  0
VERTEX
  5
1490
  8
0
 10
-1525.465357347335
 20
516.2475930396511
 30
-426.9488037936537
 70
   192
  0
VERTEX
  5
1491
  8
0
 10
-1526.054402393054
 20
521.252876161788
 30
-412.7275800792764
 70
   192
  0
VERTEX
  5
1492
  8
0
 10
-1428.10148397037
 20
538.1707977482131
 30
-414.7087986925277
 70
   192
  0
VERTEX
  5
1493
  8
0
 10
-1332.692911933109
 20
554.6392278706838
 30
-416.6360516460406
 70
   192
  0
VERTEX
  5
1494
  8
0
 10
0.0
 20
0.0
 30
0.0
 70
   128
 71
     6
 72
     7
 73
     8
  0
VERTEX
  5
1495
  8
0
 10
0.0
 20
0.0
 30
0.0
 70
   128
 71
     9
 72
    11
 73
     6
  0
VERTEX
  5
1496
  8
0
 10
0.0
 20
0.0
 30
0.0
 70
   128
 71
     8
 72
     9
 73
     6
  0
VERTEX
  5
1497
  8
0
 10
0.0
 20
0.0
 30
0.0
 70
   128
 71
     9
 72
    10
 73
    11
  0
VERTEX
  5
1498
  8
0
 10
0.0
 20
0.0
 30
0.0
 70
   128
 71
    12
 72
     5
 73
     6
  0
VERTEX
  5
1499
  8
0
 10
0.0
 20
0.0
 30
0.0
 70
   128
 71
    11
 72
    12
 73
     6
  0
VERTEX
  5
149A
  8
0
 10
0.0
 20
0.0
 30
0.0
 70
   128
 71
    12
 72
     1
 73
     2
  0
VERTEX
  5
149B
  8
0
 10
0.0
 20
0.0
 30
0.0
 70
   128
 71
     3
 72
     5
 73
    12
  0
VERTEX
  5
149C
  8
0
 10
0.0
 20
0.0
 30
0.0
 70
   128
 71
     2
 72
     3
 73
    12
  0
VERTEX
  5
149D
  8
0
 10
0.0
 20
0.0
 30
0.0
 70
   128
 71
     3
 72
     4
 73
     5
  0
SEQEND
  5
17BB
  8
0
  0
POLYLINE
  5
149E
  8
0
 66
     1
 10
0.0
 20
0.0
 30
0.0
 70
    64
 71
    12
 72
    10
  0
VERTEX
  5
149F
  8
0
 10
-1612.395286416373
 20
544.8140318001724
 30
-6.141688482000721
 70
   192
  0
VERTEX
  5
14A0
  8
0
 10
-1583.771479530472
 20
536.8504802040308
 30
-142.993039274343
 70
   192
  0
VERTEX
  5
14A1
  8
0
 10
-1555.007857343206
 20
528.9992658949278
 30
-278.6235570400739
 70
   192
  0
VERTEX
  5
14A2
  8
0
 10
-1526.054402393054
 20
521.252876161788
 30
-412.7275800792764
 70
   192
  0
VERTEX
  5
14A3
  8
0
 10
-1543.737411163162
 20
513.0348388651058
 30
-415.0512721432514
 70
   192
  0
VERTEX
  5
14A4
  8
0
 10
-1556.354528075657
 20
495.2912271907603
 30
-415.7618304452581
 70
   192
  0
VERTEX
  5
14A5
  8
0
 10
-1558.676536073949
 20
478.7125920620701
 30
-414.8283189651219
 70
   192
  0
VERTEX
  5
14A6
  8
0
 10
-1582.224983767131
 20
493.8381863209436
 30
-282.4224400048104
 70
   192
  0
VERTEX
  5
14A7
  8
0
 10
-1606.023956290848
 20
508.9754691644619
 30
-145.862487356431
 70
   192
  0
VERTEX
  5
14A8
  8
0
 10
-1630.004274110425
 20
524.1008691374676
 30
-5.938854455500292
 70
   192
  0
VERTEX
  5
14A9
  8
0
 10
-1627.766786752242
 20
533.6121989656924
 30
-5.774929611853833
 70
   192
  0
VERTEX
  5
14AA
  8
0
 10
-1621.444000766218
 20
541.0122122161276
 30
-5.849312526527145
 70
   192
  0
VERTEX
  5
14AB
  8
0
 10
0.0
 20
0.0
 30
0.0
 70
   128
 71
     3
 72
     4
 73
     5
  0
VERTEX
  5
14AC
  8
0
 10
0.0
 20
0.0
 30
0.0
 70
   128
 71
     8
 72
     3
 73
     5
  0
VERTEX
  5
14AD
  8
0
 10
0.0
 20
0.0
 30
0.0
 70
   128
 71
     5
 72
     6
 73
     8
  0
VERTEX
  5
14AE
  8
0
 10
0.0
 20
0.0
 30
0.0
 70
   128
 71
     6
 72
     7
 73
     8
  0
VERTEX
  5
14AF
  8
0
 10
0.0
 20
0.0
 30
0.0
 70
   128
 71
     9
 72
     2
 73
     3
  0
VERTEX
  5
14B0
  8
0
 10
0.0
 20
0.0
 30
0.0
 70
   128
 71
     8
 72
     9
 73
     3
  0
VERTEX
  5
14B1
  8
0
 10
0.0
 20
0.0
 30
0.0
 70
   128
 71
    12
 72
     1
 73
     2
  0
VERTEX
  5
14B2
  8
0
 10
0.0
 20
0.0
 30
0.0
 70
   128
 71
    11
 72
    12
 73
     2
  0
VERTEX
  5
14B3
  8
0
 10
0.0
 20
0.0
 30
0.0
 70
   128
 71
    10
 72
    11
 73
     2
  0
VERTEX
  5
14B4
  8
0
 10
0.0
 20
0.0
 30
0.0
 70
   128
 71
     9
 72
    10
 73
     2
  0
SEQEND
  5
17BC
  8
0
  0
POLYLINE
  5
14B5
  8
0
 66
     1
 10
0.0
 20
0.0
 30
0.0
 70
    64
 71
    14
 72
    12
  0
VERTEX
  5
14B6
  8
0
 10
-1696.098391526191
 20
596.731033822
 30
-1.010478855419816
 70
   192
  0
VERTEX
  5
14B7
  8
0
 10
-1696.101019157087
 20
596.731033822
 30
-1.010475403192675
 70
   192
  0
VERTEX
  5
14B8
  8
0
 10
-1696.10364679
 20
596.731033822
 30
-1.01047425245
 70
   192
  0
VERTEX
  5
14B9
  8
0
 10
-1696.095763900911
 20
596.7310342250587
 30
-1.010485212598
 70
   192
  0
VERTEX
  5
14BA
  8
0
 10
-1696.095763899325
 20
596.731033822
 30
-1.010484609128776
 70
   192
  0
VERTEX
  5
14BB
  8
0
 10
-1697.894271278635
 20
599.1359701999212
 30
-3.910750103361346
 70
   192
  0
VERTEX
  5
14BC
  8
0
 10
-1696.624824145931
 20
599.6843721050543
 30
-3.931943636300266
 70
   192
  0
VERTEX
  5
14BD
  8
0
 10
-1696.624824147095
 20
599.6843721188683
 30
-3.931943578804416
 70
   192
  0
VERTEX
  5
14BE
  8
0
 10
-1696.546703961422
 20
599.263728402793
 30
-2.465049955511391
 70
   192
  0
VERTEX
  5
14BF
  8
0
 10
-1696.353662190343
 20
598.1861295982081
 30
-1.399083276561402
 70
   192
  0
VERTEX
  5
14C0
  8
0
 10
-1697.58092067921
 20
596.731033822
 30
-1.399408980140639
 70
   192
  0
VERTEX
  5
14C1
  8
0
 10
-1698.675152489869
 20
596.731033822
 30
-2.465366348276422
 70
   192
  0
VERTEX
  5
14C2
  8
0
 10
-1699.10261905444
 20
596.731033822
 30
-3.931954464387045
 70
   192
  0
VERTEX
  5
14C3
  8
0
 10
-1698.78317294061
 20
598.0764685843203
 30
-3.910750104197911
 70
   192
  0
VERTEX
  5
14C4
  8
0
 10
0.0
 20
0.0
 30
0.0
 70
   128
 71
     1
 72
     2
 73
     3
  0
VERTEX
  5
14C5
  8
0
 10
0.0
 20
0.0
 30
0.0
 70
   128
 71
     4
 72
     5
 73
     1
  0
VERTEX
  5
14C6
  8
0
 10
0.0
 20
0.0
 30
0.0
 70
   128
 71
     6
 72
     7
 73
     8
  0
VERTEX
  5
14C7
  8
0
 10
0.0
 20
0.0
 30
0.0
 70
   128
 71
     8
 72
     9
 73
     6
  0
VERTEX
  5
14C8
  8
0
 10
0.0
 20
0.0
 30
0.0
 70
   128
 71
    10
 72
     3
 73
     6
  0
VERTEX
  5
14C9
  8
0
 10
0.0
 20
0.0
 30
0.0
 70
   128
 71
     9
 72
    10
 73
     6
  0
VERTEX
  5
14CA
  8
0
 10
0.0
 20
0.0
 30
0.0
 70
   128
 71
    11
 72
    12
 73
     3
  0
VERTEX
  5
14CB
  8
0
 10
0.0
 20
0.0
 30
0.0
 70
   128
 71
    12
 72
    13
 73
    14
  0
VERTEX
  5
14CC
  8
0
 10
0.0
 20
0.0
 30
0.0
 70
   128
 71
     4
 72
     1
 73
     3
  0
VERTEX
  5
14CD
  8
0
 10
0.0
 20
0.0
 30
0.0
 70
   128
 71
    10
 72
     4
 73
     3
  0
VERTEX
  5
14CE
  8
0
 10
0.0
 20
0.0
 30
0.0
 70
   128
 71
    12
 72
    14
 73
     6
  0
VERTEX
  5
14CF
  8
0
 10
0.0
 20
0.0
 30
0.0
 70
   128
 71
     3
 72
    12
 73
     6
  0
SEQEND
  5
17BD
  8
0
  0
POLYLINE
  5
14D0
  8
0
 66
     1
 10
0.0
 20
0.0
 30
0.0
 70
    64
 71
    13
 72
    11
  0
VERTEX
  5
14D1
  8
0
 10
-1698.700130198131
 20
2.397477315308117
 30
-3.902560069969341
 70
   192
  0
VERTEX
  5
14D2
  8
0
 10
-1699.102601162305
 20
3.896370081379232
 30
-3.931270885280596
 70
   192
  0
VERTEX
  5
14D3
  8
0
 10
-1699.102600291828
 20
3.89637082012
 30
-3.9312376676888
 70
   192
  0
VERTEX
  5
14D4
  8
0
 10
-1698.67511964218
 20
3.89637082012
 30
-2.464668567362003
 70
   192
  0
VERTEX
  5
14D5
  8
0
 10
-1696.097360848696
 20
2.419174363229243
 30
-1.398859572303534
 70
   192
  0
VERTEX
  5
14D6
  8
0
 10
-1696.100029141255
 20
1.324982702554904
 30
-2.464767143932964
 70
   192
  0
VERTEX
  5
14D7
  8
0
 10
-1696.10362919
 20
3.89637082012
 30
-1.009801847809999
 70
   192
  0
VERTEX
  5
14D8
  8
0
 10
-1696.10119841155
 20
3.89637082012
 30
-1.009802832590807
 70
   192
  0
VERTEX
  5
14D9
  8
0
 10
-1696.098767634696
 20
3.89637082012
 30
-1.009805786932582
 70
   192
  0
VERTEX
  5
14DA
  8
0
 10
-1696.096336861033
 20
3.89637082012
 30
-1.009810710833386
 70
   192
  0
VERTEX
  5
14DB
  8
0
 10
-1697.602522047051
 20
1.299869435059766
 30
-3.902560077061305
 70
   192
  0
VERTEX
  5
14DC
  8
0
 10
-1696.1036291825
 20
0.8973988471179867
 30
-3.931270929386663
 70
   192
  0
VERTEX
  5
14DD
  8
0
 10
-1697.580890195824
 20
3.89637082012
 30
-1.398729286452887
 70
   192
  0
VERTEX
  5
14DE
  8
0
 10
0.0
 20
0.0
 30
0.0
 70
   128
 71
     1
 72
     2
 73
     3
  0
VERTEX
  5
14DF
  8
0
 10
0.0
 20
0.0
 30
0.0
 70
   128
 71
     1
 72
     3
 73
     4
  0
VERTEX
  5
14E0
  8
0
 10
0.0
 20
0.0
 30
0.0
 70
   128
 71
     5
 72
     6
 73
     7
  0
VERTEX
  5
14E1
  8
0
 10
0.0
 20
0.0
 30
0.0
 70
   128
 71
     7
 72
     8
 73
    -9
  0
VERTEX
  5
14E2
  8
0
 10
0.0
 20
0.0
 30
0.0
 70
   128
 71
     9
 72
    10
 73
    -7
  0
VERTEX
  5
14E3
  8
0
 10
0.0
 20
0.0
 30
0.0
 70
   128
 71
    11
 72
     7
 73
     6
  0
VERTEX
  5
14E4
  8
0
 10
0.0
 20
0.0
 30
0.0
 70
   128
 71
     6
 72
    12
 73
    11
  0
VERTEX
  5
14E5
  8
0
 10
0.0
 20
0.0
 30
0.0
 70
   128
 71
     1
 72
     4
 73
    13
  0
VERTEX
  5
14E6
  8
0
 10
0.0
 20
0.0
 30
0.0
 70
   128
 71
    11
 72
     1
 73
    13
  0
VERTEX
  5
14E7
  8
0
 10
0.0
 20
0.0
 30
0.0
 70
   128
 71
     7
 72
    11
 73
    13
  0
VERTEX
  5
14E8
  8
0
 10
0.0
 20
0.0
 30
0.0
 70
   128
 71
     7
 72
    10
 73
     5
  0
SEQEND
  5
17BE
  8
0
  0
POLYLINE
  5
14E9
  8
0
 66
     1
 10
0.0
 20
0.0
 30
0.0
 70
    64
 71
    12
 72
    10
  0
VERTEX
  5
14EA
  8
0
 10
-3.902224385776472
 20
895.3514014572605
 30
-1.008858089820706
 70
   192
  0
VERTEX
  5
14EB
  8
0
 10
-3.902612332515359
 20
895.3536005302342
 30
-1.008856480694851
 70
   192
  0
VERTEX
  5
14EC
  8
0
 10
-3.896395759400001
 20
895.3557996
 30
-1.0088491936
 70
   192
  0
VERTEX
  5
14ED
  8
0
 10
-3.900798771894086
 20
895.3557996
 30
-1.008852424688244
 70
   192
  0
VERTEX
  5
14EE
  8
0
 10
-3.903000275177269
 20
895.3557996
 30
-1.008856463546917
 70
   192
  0
VERTEX
  5
14EF
  8
0
 10
-3.898597266239815
 20
895.3557996
 30
-1.00885000137217
 70
   192
  0
VERTEX
  5
14F0
  8
0
 10
-1.324894565929669
 20
895.3557996
 30
-2.463733789502084
 70
   192
  0
VERTEX
  5
14F1
  8
0
 10
-0.8974238384989395
 20
895.3557996
 30
-3.930316285548627
 70
   192
  0
VERTEX
  5
14F2
  8
0
 10
-1.111154815985581
 20
895.3537163011298
 30
-2.893843322073507
 70
   192
  0
VERTEX
  5
14F3
  8
0
 10
-2.224993932251667
 20
895.350417587114
 30
-1.516961776602392
 70
   192
  0
VERTEX
  5
14F4
  8
0
 10
-2.419125677846486
 20
895.3557996
 30
-1.397781767020044
 70
   192
  0
VERTEX
  5
14F5
  8
0
 10
-3.901836434971679
 20
895.3492023822655
 30
-1.008861380996841
 70
   192
  0
VERTEX
  5
14F6
  8
0
 10
0.0
 20
0.0
 30
0.0
 70
   128
 71
     1
 72
     2
 73
     3
  0
VERTEX
  5
14F7
  8
0
 10
0.0
 20
0.0
 30
0.0
 70
   128
 71
     2
 72
     4
 73
     3
  0
VERTEX
  5
14F8
  8
0
 10
0.0
 20
0.0
 30
0.0
 70
   128
 71
     2
 72
     5
 73
     4
  0
VERTEX
  5
14F9
  8
0
 10
0.0
 20
0.0
 30
0.0
 70
   128
 71
     4
 72
     6
 73
     3
  0
VERTEX
  5
14FA
  8
0
 10
0.0
 20
0.0
 30
0.0
 70
   128
 71
     7
 72
     8
 73
     9
  0
VERTEX
  5
14FB
  8
0
 10
0.0
 20
0.0
 30
0.0
 70
   128
 71
     9
 72
    10
 73
     7
  0
VERTEX
  5
14FC
  8
0
 10
0.0
 20
0.0
 30
0.0
 70
   128
 71
    10
 72
    11
 73
     7
  0
VERTEX
  5
14FD
  8
0
 10
0.0
 20
0.0
 30
0.0
 70
   128
 71
     3
 72
    12
 73
     1
  0
VERTEX
  5
14FE
  8
0
 10
0.0
 20
0.0
 30
0.0
 70
   128
 71
    10
 72
    12
 73
     3
  0
VERTEX
  5
14FF
  8
0
 10
0.0
 20
0.0
 30
0.0
 70
   128
 71
     3
 72
    11
 73
    10
  0
SEQEND
  5
17BF
  8
0
  0
POLYLINE
  5
1500
  8
0
 66
     1
 10
0.0
 20
0.0
 30
0.0
 70
    64
 71
    13
 72
    11
  0
VERTEX
  5
1501
  8
0
 10
-3.901045766363511
 20
3.89638382952
 30
-1.009308580545408
 70
   192
  0
VERTEX
  5
1502
  8
0
 10
-3.898714796275376
 20
3.89638382952
 30
-1.009305863831488
 70
   192
  0
VERTEX
  5
1503
  8
0
 10
-3.896383824780001
 20
3.89638382952
 30
-1.00930495826
 70
   192
  0
VERTEX
  5
1504
  8
0
 10
-3.899839763839762
 20
1.324995714384466
 30
-2.464270015930399
 70
   192
  0
VERTEX
  5
1505
  8
0
 10
-3.902398625203141
 20
2.419187302426577
 30
-1.398362130299182
 70
   192
  0
VERTEX
  5
1506
  8
0
 10
-1.29988276587001
 20
2.397490413356413
 30
-3.902063211471105
 70
   192
  0
VERTEX
  5
1507
  8
0
 10
-2.419123135027906
 20
3.89638382952
 30
-1.398232218079603
 70
   192
  0
VERTEX
  5
1508
  8
0
 10
-1.324893746678812
 20
3.89638382952
 30
-2.46417105525122
 70
   192
  0
VERTEX
  5
1509
  8
0
 10
-0.897412751482511
 20
3.89638382952
 30
-3.93073968905722
 70
   192
  0
VERTEX
  5
150A
  8
0
 10
-0.8974118520454781
 20
3.896383240423349
 30
-3.930774029698042
 70
   192
  0
VERTEX
  5
150B
  8
0
 10
-2.397490921215494
 20
1.299882472464124
 30
-3.902063217086759
 70
   192
  0
VERTEX
  5
150C
  8
0
 10
-3.896383826771204
 20
0.8974118516436351
 30
-3.930774045041578
 70
   192
  0
VERTEX
  5
150D
  8
0
 10
-3.903376733637165
 20
3.89638382952
 30
-1.009313108400118
 70
   192
  0
VERTEX
  5
150E
  8
0
 10
0.0
 20
0.0
 30
0.0
 70
   128
 71
     1
 72
     2
 73
    -3
  0
VERTEX
  5
150F
  8
0
 10
0.0
 20
0.0
 30
0.0
 70
   128
 71
     4
 72
     5
 73
     3
  0
VERTEX
  5
1510
  8
0
 10
0.0
 20
0.0
 30
0.0
 70
   128
 71
     6
 72
     7
 73
     8
  0
VERTEX
  5
1511
  8
0
 10
0.0
 20
0.0
 30
0.0
 70
   128
 71
     8
 72
     9
 73
     6
  0
VERTEX
  5
1512
  8
0
 10
0.0
 20
0.0
 30
0.0
 70
   128
 71
     9
 72
    10
 73
     6
  0
VERTEX
  5
1513
  8
0
 10
0.0
 20
0.0
 30
0.0
 70
   128
 71
    11
 72
    12
 73
     4
  0
VERTEX
  5
1514
  8
0
 10
0.0
 20
0.0
 30
0.0
 70
   128
 71
     4
 72
     3
 73
    11
  0
VERTEX
  5
1515
  8
0
 10
0.0
 20
0.0
 30
0.0
 70
   128
 71
    13
 72
    -1
 73
     3
  0
VERTEX
  5
1516
  8
0
 10
0.0
 20
0.0
 30
0.0
 70
   128
 71
     5
 72
    13
 73
     3
  0
VERTEX
  5
1517
  8
0
 10
0.0
 20
0.0
 30
0.0
 70
   128
 71
     7
 72
     6
 73
    11
  0
VERTEX
  5
1518
  8
0
 10
0.0
 20
0.0
 30
0.0
 70
   128
 71
     3
 72
     7
 73
    11
  0
SEQEND
  5
17C0
  8
0
  0
POLYLINE
  5
1519
  8
0
 66
     1
 10
0.0
 20
0.0
 30
0.0
 70
    64
 71
    12
 72
    10
  0
VERTEX
  5
151A
  8
0
 10
-1629.59685851119
 20
110.3835134069447
 30
-5.90059352955822
 70
   192
  0
VERTEX
  5
151B
  8
0
 10
-1596.429688488762
 20
129.0683926200958
 30
-143.2520962184824
 70
   192
  0
VERTEX
  5
151C
  8
0
 10
-1563.80200165042
 20
147.3180307986799
 30
-279.7922998980449
 70
   192
  0
VERTEX
  5
151D
  8
0
 10
-1531.770377885932
 20
165.1581907193219
 30
-415.4063131262803
 70
   192
  0
VERTEX
  5
151E
  8
0
 10
-1541.2244071634
 20
276.0890296395228
 30
-415.5352379083851
 70
   192
  0
VERTEX
  5
151F
  8
0
 10
-1550.103296927875
 20
379.4583468380599
 30
-415.3403117612392
 70
   192
  0
VERTEX
  5
1520
  8
0
 10
-1558.676536073949
 20
478.7125920620701
 30
-414.8283189651219
 70
   192
  0
VERTEX
  5
1521
  8
0
 10
-1582.224983767131
 20
493.8381863209436
 30
-282.4224400048104
 70
   192
  0
VERTEX
  5
1522
  8
0
 10
-1606.023956290848
 20
508.9754691644619
 30
-145.862487356431
 70
   192
  0
VERTEX
  5
1523
  8
0
 10
-1630.004274110425
 20
524.1008691374676
 30
-5.938854455500292
 70
   192
  0
VERTEX
  5
1524
  8
0
 10
-1629.829338793175
 20
387.3253737913552
 30
-6.126207645289329
 70
   192
  0
VERTEX
  5
1525
  8
0
 10
-1629.706107199147
 20
243.1057875302481
 30
-6.004257910722192
 70
   192
  0
VERTEX
  5
1526
  8
0
 10
0.0
 20
0.0
 30
0.0
 70
   128
 71
     8
 72
     7
 73
     6
  0
VERTEX
  5
1527
  8
0
 10
0.0
 20
0.0
 30
0.0
 70
   128
 71
     6
 72
    11
 73
     9
  0
VERTEX
  5
1528
  8
0
 10
0.0
 20
0.0
 30
0.0
 70
   128
 71
     6
 72
     9
 73
     8
  0
VERTEX
  5
1529
  8
0
 10
0.0
 20
0.0
 30
0.0
 70
   128
 71
    11
 72
    10
 73
     9
  0
VERTEX
  5
152A
  8
0
 10
0.0
 20
0.0
 30
0.0
 70
   128
 71
     6
 72
     5
 73
    12
  0
VERTEX
  5
152B
  8
0
 10
0.0
 20
0.0
 30
0.0
 70
   128
 71
     6
 72
    12
 73
    11
  0
VERTEX
  5
152C
  8
0
 10
0.0
 20
0.0
 30
0.0
 70
   128
 71
     2
 72
     1
 73
    12
  0
VERTEX
  5
152D
  8
0
 10
0.0
 20
0.0
 30
0.0
 70
   128
 71
    12
 72
     5
 73
     3
  0
VERTEX
  5
152E
  8
0
 10
0.0
 20
0.0
 30
0.0
 70
   128
 71
    12
 72
     3
 73
     2
  0
VERTEX
  5
152F
  8
0
 10
0.0
 20
0.0
 30
0.0
 70
   128
 71
     5
 72
     4
 73
     3
  0
SEQEND
  5
17C1
  8
0
  0
POLYLINE
  5
1530
  8
0
 66
     1
 10
0.0
 20
0.0
 30
0.0
 70
    64
 71
    12
 72
    10
  0
VERTEX
  5
1531
  8
0
 10
-1629.59685851119
 20
110.3835134069447
 30
-5.90059352955822
 70
   192
  0
VERTEX
  5
1532
  8
0
 10
-1596.429688488762
 20
129.0683926200958
 30
-143.2520962184824
 70
   192
  0
VERTEX
  5
1533
  8
0
 10
-1563.80200165042
 20
147.3180307986799
 30
-279.7922998980449
 70
   192
  0
VERTEX
  5
1534
  8
0
 10
-1531.770377885932
 20
165.1581907193219
 30
-415.4063131262803
 70
   192
  0
VERTEX
  5
1535
  8
0
 10
-1525.666150861313
 20
147.6122132151517
 30
-416.0163763494659
 70
   192
  0
VERTEX
  5
1536
  8
0
 10
-1511.830076043832
 20
134.1796799776386
 30
-414.5630747934815
 70
   192
  0
VERTEX
  5
1537
  8
0
 10
-1492.471911019374
 20
128.6975840863971
 30
-411.1042085784154
 70
   192
  0
VERTEX
  5
1538
  8
0
 10
-1530.047843637877
 20
115.7510946874823
 30
-278.5523492933495
 70
   192
  0
VERTEX
  5
1539
  8
0
 10
-1568.521305233033
 20
102.752099962749
 30
-143.6549098907529
 70
   192
  0
VERTEX
  5
153A
  8
0
 10
-1607.938323505254
 20
89.61675663604994
 30
-6.495042137878863
 70
   192
  0
VERTEX
  5
153B
  8
0
 10
-1618.671975726741
 20
92.22933050464556
 30
-6.038127137884902
 70
   192
  0
VERTEX
  5
153C
  8
0
 10
-1626.663282338903
 20
99.7379475171601
 30
-5.806561745594652
 70
   192
  0
VERTEX
  5
153D
  8
0
 10
0.0
 20
0.0
 30
0.0
 70
   128
 71
     3
 72
     4
 73
     5
  0
VERTEX
  5
153E
  8
0
 10
0.0
 20
0.0
 30
0.0
 70
   128
 71
     8
 72
     3
 73
     5
  0
VERTEX
  5
153F
  8
0
 10
0.0
 20
0.0
 30
0.0
 70
   128
 71
     5
 72
     6
 73
     8
  0
VERTEX
  5
1540
  8
0
 10
0.0
 20
0.0
 30
0.0
 70
   128
 71
     6
 72
     7
 73
     8
  0
VERTEX
  5
1541
  8
0
 10
0.0
 20
0.0
 30
0.0
 70
   128
 71
     9
 72
     2
 73
     3
  0
VERTEX
  5
1542
  8
0
 10
0.0
 20
0.0
 30
0.0
 70
   128
 71
     8
 72
     9
 73
     3
  0
VERTEX
  5
1543
  8
0
 10
0.0
 20
0.0
 30
0.0
 70
   128
 71
    12
 72
     1
 73
     2
  0
VERTEX
  5
1544
  8
0
 10
0.0
 20
0.0
 30
0.0
 70
   128
 71
    11
 72
    12
 73
     2
  0
VERTEX
  5
1545
  8
0
 10
0.0
 20
0.0
 30
0.0
 70
   128
 71
    10
 72
    11
 73
     2
  0
VERTEX
  5
1546
  8
0
 10
0.0
 20
0.0
 30
0.0
 70
   128
 71
     9
 72
    10
 73
     2
  0
SEQEND
  5
17C2
  8
0
  0
POLYLINE
  5
1547
  8
0
 66
     1
 10
0.0
 20
0.0
 30
0.0
 70
    64
 71
    13
 72
    11
  0
VERTEX
  5
1548
  8
0
 10
-95.07834177783302
 20
89.31436564753834
 30
-6.617037887872893
 70
   192
  0
VERTEX
  5
1549
  8
0
 10
-168.8717606393779
 20
98.64748915552656
 30
-145.2707307909211
 70
   192
  0
VERTEX
  5
154A
  8
0
 10
-246.8055520185318
 20
112.4875464539314
 30
-276.4951177337437
 70
   192
  0
VERTEX
  5
154B
  8
0
 10
-336.3590433887594
 20
132.2411353577005
 30
-412.1431399827135
 70
   192
  0
VERTEX
  5
154C
  8
0
 10
-694.7975058832336
 20
131.836559812068
 30
-416.5996844211282
 70
   192
  0
VERTEX
  5
154D
  8
0
 10
-931.4441855361129
 20
131.2051379545559
 30
-417.6357485631677
 70
   192
  0
VERTEX
  5
154E
  8
0
 10
-1158.218751042197
 20
130.27586772558
 30
-416.1606228603637
 70
   192
  0
VERTEX
  5
154F
  8
0
 10
-1492.471911019374
 20
128.6975840863971
 30
-411.1042085784154
 70
   192
  0
VERTEX
  5
1550
  8
0
 10
-1530.047843637877
 20
115.7510946874823
 30
-278.5523492933495
 70
   192
  0
VERTEX
  5
1551
  8
0
 10
-1568.521305233033
 20
102.752099962749
 30
-143.6549098907529
 70
   192
  0
VERTEX
  5
1552
  8
0
 10
-1607.938323505254
 20
89.61675663604994
 30
-6.495042137878863
 70
   192
  0
VERTEX
  5
1553
  8
0
 10
-1104.091010269138
 20
89.50613815938883
 30
-6.397647367841097
 70
   192
  0
VERTEX
  5
1554
  8
0
 10
-605.2514133759124
 20
89.40879268543735
 30
-6.441074760179351
 70
   192
  0
VERTEX
  5
1555
  8
0
 10
0.0
 20
0.0
 30
0.0
 70
   128
 71
     9
 72
     8
 73
     7
  0
VERTEX
  5
1556
  8
0
 10
0.0
 20
0.0
 30
0.0
 70
   128
 71
     7
 72
    12
 73
    10
  0
VERTEX
  5
1557
  8
0
 10
0.0
 20
0.0
 30
0.0
 70
   128
 71
     7
 72
    10
 73
     9
  0
VERTEX
  5
1558
  8
0
 10
0.0
 20
0.0
 30
0.0
 70
   128
 71
    12
 72
    11
 73
    10
  0
VERTEX
  5
1559
  8
0
 10
0.0
 20
0.0
 30
0.0
 70
   128
 71
     6
 72
     5
 73
    13
  0
VERTEX
  5
155A
  8
0
 10
0.0
 20
0.0
 30
0.0
 70
   128
 71
     6
 72
    13
 73
    12
  0
VERTEX
  5
155B
  8
0
 10
0.0
 20
0.0
 30
0.0
 70
   128
 71
    12
 72
     7
 73
     6
  0
VERTEX
  5
155C
  8
0
 10
0.0
 20
0.0
 30
0.0
 70
   128
 71
     2
 72
     1
 73
    13
  0
VERTEX
  5
155D
  8
0
 10
0.0
 20
0.0
 30
0.0
 70
   128
 71
    13
 72
     5
 73
     3
  0
VERTEX
  5
155E
  8
0
 10
0.0
 20
0.0
 30
0.0
 70
   128
 71
    13
 72
     3
 73
     2
  0
VERTEX
  5
155F
  8
0
 10
0.0
 20
0.0
 30
0.0
 70
   128
 71
     5
 72
     4
 73
     3
  0
SEQEND
  5
17C3
  8
0
  0
POLYLINE
  5
1560
  8
0
 66
     1
 10
0.0
 20
0.0
 30
0.0
 70
    64
 71
    12
 72
    10
  0
VERTEX
  5
1561
  8
0
 10
-95.07834177783302
 20
89.31436564753834
 30
-6.617037887872893
 70
   192
  0
VERTEX
  5
1562
  8
0
 10
-168.8717606393779
 20
98.64748915552656
 30
-145.2707307909211
 70
   192
  0
VERTEX
  5
1563
  8
0
 10
-246.8055520185318
 20
112.4875464539314
 30
-276.4951177337437
 70
   192
  0
VERTEX
  5
1564
  8
0
 10
-336.3590433887594
 20
132.2411353577005
 30
-412.1431399827135
 70
   192
  0
VERTEX
  5
1565
  8
0
 10
-318.1745313028766
 20
138.8460628242485
 30
-419.7922555841391
 70
   192
  0
VERTEX
  5
1566
  8
0
 10
-304.8079548564812
 20
154.0549782399905
 30
-423.9475572966975
 70
   192
  0
VERTEX
  5
1567
  8
0
 10
-299.6598094257517
 20
174.669392680101
 30
-423.4321647764245
 70
   192
  0
VERTEX
  5
1568
  8
0
 10
-216.9239316716271
 20
147.8994606532277
 30
-288.9454182645783
 70
   192
  0
VERTEX
  5
1569
  8
0
 10
-140.6905270512304
 20
126.2741638470718
 30
-149.3461577104399
 70
   192
  0
VERTEX
  5
156A
  8
0
 10
-71.30818920449295
 20
110.0231444581654
 30
-5.34111612957027
 70
   192
  0
VERTEX
  5
156B
  8
0
 10
-74.9005757405404
 20
98.84488057555035
 30
-5.421952931388174
 70
   192
  0
VERTEX
  5
156C
  8
0
 10
-83.8849496868368
 20
91.64110233476258
 30
-5.92440652623689
 70
   192
  0
VERTEX
  5
156D
  8
0
 10
0.0
 20
0.0
 30
0.0
 70
   128
 71
     3
 72
     4
 73
     5
  0
VERTEX
  5
156E
  8
0
 10
0.0
 20
0.0
 30
0.0
 70
   128
 71
     6
 72
     8
 73
     3
  0
VERTEX
  5
156F
  8
0
 10
0.0
 20
0.0
 30
0.0
 70
   128
 71
     5
 72
     6
 73
     3
  0
VERTEX
  5
1570
  8
0
 10
0.0
 20
0.0
 30
0.0
 70
   128
 71
     6
 72
     7
 73
     8
  0
VERTEX
  5
1571
  8
0
 10
0.0
 20
0.0
 30
0.0
 70
   128
 71
     9
 72
     2
 73
     3
  0
VERTEX
  5
1572
  8
0
 10
0.0
 20
0.0
 30
0.0
 70
   128
 71
     8
 72
     9
 73
     3
  0
VERTEX
  5
1573
  8
0
 10
0.0
 20
0.0
 30
0.0
 70
   128
 71
    12
 72
     1
 73
     2
  0
VERTEX
  5
1574
  8
0
 10
0.0
 20
0.0
 30
0.0
 70
   128
 71
    11
 72
    12
 73
     2
  0
VERTEX
  5
1575
  8
0
 10
0.0
 20
0.0
 30
0.0
 70
   128
 71
    10
 72
    11
 73
     2
  0
VERTEX
  5
1576
  8
0
 10
0.0
 20
0.0
 30
0.0
 70
   128
 71
     9
 72
    10
 73
     2
  0
SEQEND
  5
17C4
  8
0
  0
POLYLINE
  5
1577
  8
0
 66
     1
 10
0.0
 20
0.0
 30
0.0
 70
    64
 71
    17
 72
    15
  0
VERTEX
  5
1578
  8
0
 10
-71.6220399947984
 20
792.8130467723591
 30
-5.008463129656811
 70
   192
  0
VERTEX
  5
1579
  8
0
 10
-155.8300383025049
 20
759.3371964938186
 30
-149.1665869070365
 70
   192
  0
VERTEX
  5
157A
  8
0
 10
-202.1536531967203
 20
740.9860090275232
 30
-222.2686819472189
 70
   192
  0
VERTEX
  5
157B
  8
0
 10
-272.9459693845606
 20
713.0687146956687
 30
-326.7839635028687
 70
   192
  0
VERTEX
  5
157C
  8
0
 10
-326.467334193845
 20
692.0908629784788
 30
-400.7195254881679
 70
   192
  0
VERTEX
  5
157D
  8
0
 10
-347.3352763045164
 20
683.9497613420107
 30
-428.4785284681596
 70
   192
  0
VERTEX
  5
157E
  8
0
 10
-343.1072395686623
 20
636.444931921953
 30
-428.363406681113
 70
   192
  0
VERTEX
  5
157F
  8
0
 10
-338.8552289634938
 20
589.3197071460363
 30
-428.1711407965379
 70
   192
  0
VERTEX
  5
1580
  8
0
 10
-334.5456634227008
 20
542.1620513651437
 30
-427.900404197216
 70
   192
  0
VERTEX
  5
1581
  8
0
 10
-323.964437473663
 20
428.5366576924251
 30
-426.9363463715765
 70
   192
  0
VERTEX
  5
1582
  8
0
 10
-312.4450420910807
 20
307.3882715728228
 30
-425.467342211189
 70
   192
  0
VERTEX
  5
1583
  8
0
 10
-299.6598094257517
 20
174.669392680101
 30
-423.4321647764245
 70
   192
  0
VERTEX
  5
1584
  8
0
 10
-216.9239316716271
 20
147.8994606532277
 30
-288.9454182645783
 70
   192
  0
VERTEX
  5
1585
  8
0
 10
-140.6905270512304
 20
126.2741638470718
 30
-149.3461577104399
 70
   192
  0
VERTEX
  5
1586
  8
0
 10
-71.30818920449295
 20
110.0231444581654
 30
-5.34111612957027
 70
   192
  0
VERTEX
  5
1587
  8
0
 10
-71.41444957313607
 20
334.8356337524055
 30
-5.21371623975719
 70
   192
  0
VERTEX
  5
1588
  8
0
 10
-71.5280889931262
 20
574.1508105625081
 30
-5.105910363350324
 70
   192
  0
VERTEX
  5
1589
  8
0
 10
0.0
 20
0.0
 30
0.0
 70
   128
 71
    13
 72
    12
 73
    11
  0
VERTEX
  5
158A
  8
0
 10
0.0
 20
0.0
 30
0.0
 70
   128
 71
    11
 72
    16
 73
    14
  0
VERTEX
  5
158B
  8
0
 10
0.0
 20
0.0
 30
0.0
 70
   128
 71
    11
 72
    14
 73
    13
  0
VERTEX
  5
158C
  8
0
 10
0.0
 20
0.0
 30
0.0
 70
   128
 71
    16
 72
    15
 73
    14
  0
VERTEX
  5
158D
  8
0
 10
0.0
 20
0.0
 30
0.0
 70
   128
 71
    10
 72
     9
 73
    17
  0
VERTEX
  5
158E
  8
0
 10
0.0
 20
0.0
 30
0.0
 70
   128
 71
    10
 72
    17
 73
    16
  0
VERTEX
  5
158F
  8
0
 10
0.0
 20
0.0
 30
0.0
 70
   128
 71
    16
 72
    11
 73
    10
  0
VERTEX
  5
1590
  8
0
 10
0.0
 20
0.0
 30
0.0
 70
   128
 71
     3
 72
     2
 73
     1
  0
VERTEX
  5
1591
  8
0
 10
0.0
 20
0.0
 30
0.0
 70
   128
 71
     3
 72
     1
 73
     7
  0
VERTEX
  5
1592
  8
0
 10
0.0
 20
0.0
 30
0.0
 70
   128
 71
     7
 72
     4
 73
     3
  0
VERTEX
  5
1593
  8
0
 10
0.0
 20
0.0
 30
0.0
 70
   128
 71
     7
 72
     5
 73
     4
  0
VERTEX
  5
1594
  8
0
 10
0.0
 20
0.0
 30
0.0
 70
   128
 71
     7
 72
     6
 73
     5
  0
VERTEX
  5
1595
  8
0
 10
0.0
 20
0.0
 30
0.0
 70
   128
 71
     1
 72
    17
 73
     8
  0
VERTEX
  5
1596
  8
0
 10
0.0
 20
0.0
 30
0.0
 70
   128
 71
     1
 72
     8
 73
     7
  0
VERTEX
  5
1597
  8
0
 10
0.0
 20
0.0
 30
0.0
 70
   128
 71
    17
 72
     9
 73
     8
  0
SEQEND
  5
17C5
  8
0
  0
POLYLINE
  5
1598
  8
0
 66
     1
 10
0.0
 20
0.0
 30
0.0
 70
    64
 71
    12
 72
    10
  0
VERTEX
  5
1599
  8
0
 10
-347.3352763045164
 20
683.9497613420107
 30
-428.4785284681596
 70
   192
  0
VERTEX
  5
159A
  8
0
 10
-355.5986046467129
 20
703.1885185050646
 30
-428.1144221023789
 70
   192
  0
VERTEX
  5
159B
  8
0
 10
-371.2676906591535
 20
716.2186340244557
 30
-422.6226464557115
 70
   192
  0
VERTEX
  5
159C
  8
0
 10
-390.3207961706507
 20
719.5865418223635
 30
-413.4362206400946
 70
   192
  0
VERTEX
  5
159D
  8
0
 10
-389.1394624393565
 20
714.4329099253571
 30
-427.2442220724504
 70
   192
  0
VERTEX
  5
159E
  8
0
 10
-387.0226967780196
 20
703.558488197771
 30
-437.0361169309143
 70
   192
  0
VERTEX
  5
159F
  8
0
 10
-384.4520153589461
 20
689.4369729816315
 30
-440.5844592188672
 70
   192
  0
VERTEX
  5
15A0
  8
0
 10
-377.9901589067933
 20
689.2623043754378
 30
-440.465305372626
 70
   192
  0
VERTEX
  5
15A1
  8
0
 10
-373.131316319053
 20
686.524309436202
 30
-440.3880646782496
 70
   192
  0
VERTEX
  5
15A2
  8
0
 10
-371.0807689374846
 20
681.9726195724195
 30
-440.3710305411884
 70
   192
  0
VERTEX
  5
15A3
  8
0
 10
-362.0978780856317
 20
682.7294836467948
 30
-438.8517061200803
 70
   192
  0
VERTEX
  5
15A4
  8
0
 10
-353.9464463458318
 20
683.4082015684809
 30
-434.7692092133699
 70
   192
  0
VERTEX
  5
15A5
  8
0
 10
0.0
 20
0.0
 30
0.0
 70
   128
 71
     8
 72
     7
 73
     6
  0
VERTEX
  5
15A6
  8
0
 10
0.0
 20
0.0
 30
0.0
 70
   128
 71
     6
 72
    11
 73
     9
  0
VERTEX
  5
15A7
  8
0
 10
0.0
 20
0.0
 30
0.0
 70
   128
 71
     6
 72
     9
 73
     8
  0
VERTEX
  5
15A8
  8
0
 10
0.0
 20
0.0
 30
0.0
 70
   128
 71
    11
 72
    10
 73
     9
  0
VERTEX
  5
15A9
  8
0
 10
0.0
 20
0.0
 30
0.0
 70
   128
 71
     6
 72
     5
 73
    12
  0
VERTEX
  5
15AA
  8
0
 10
0.0
 20
0.0
 30
0.0
 70
   128
 71
     6
 72
    12
 73
    11
  0
VERTEX
  5
15AB
  8
0
 10
0.0
 20
0.0
 30
0.0
 70
   128
 71
     2
 72
     1
 73
    12
  0
VERTEX
  5
15AC
  8
0
 10
0.0
 20
0.0
 30
0.0
 70
   128
 71
    12
 72
     5
 73
     3
  0
VERTEX
  5
15AD
  8
0
 10
0.0
 20
0.0
 30
0.0
 70
   128
 71
    12
 72
     3
 73
     2
  0
VERTEX
  5
15AE
  8
0
 10
0.0
 20
0.0
 30
0.0
 70
   128
 71
     5
 72
     4
 73
     3
  0
SEQEND
  5
17C6
  8
0
  0
POLYLINE
  5
15AF
  8
0
 66
     1
 10
0.0
 20
0.0
 30
0.0
 70
    64
 71
    23
 72
    21
  0
VERTEX
  5
15B0
  8
0
 10
-1074.6332334542
 20
539.999999819271
 30
-449.423145674371
 70
   192
  0
VERTEX
  5
15B1
  8
0
 10
-1111.393723080128
 20
561.7022047427548
 30
-448.6894174276839
 70
   192
  0
VERTEX
  5
15B2
  8
0
 10
-1046.736495502142
 20
572.9640999228575
 30
-449.8539103220224
 70
   192
  0
VERTEX
  5
15B3
  8
0
 10
-993.5784107800648
 20
539.9999995614752
 30
-450.9794777770481
 70
   192
  0
VERTEX
  5
15B4
  8
0
 10
-995.366306311739
 20
582.0297142049628
 30
-450.6287738663856
 70
   192
  0
VERTEX
  5
15B5
  8
0
 10
-1155.688056128335
 20
539.9999995773942
 30
-447.866813571667
 70
   192
  0
VERTEX
  5
15B6
  8
0
 10
-1236.742878802468
 20
539.9999986285211
 30
-446.310481468909
 70
   192
  0
VERTEX
  5
15B7
  8
0
 10
-373.131316319053
 20
686.524309436202
 30
-440.3880646782496
 70
   192
  0
VERTEX
  5
15B8
  8
0
 10
-371.0807689374846
 20
681.9726195724195
 30
-440.3710305411884
 70
   192
  0
VERTEX
  5
15B9
  8
0
 10
-367.0137536673359
 20
634.4061335398696
 30
-440.4766798002028
 70
   192
  0
VERTEX
  5
15BA
  8
0
 10
-377.9901589067933
 20
689.2623043754378
 30
-440.465305372626
 70
   192
  0
VERTEX
  5
15BB
  8
0
 10
-384.4520153589461
 20
689.4369729816315
 30
-440.5844592188672
 70
   192
  0
VERTEX
  5
15BC
  8
0
 10
-362.9251758584825
 20
587.219139943358
 30
-440.5075919047458
 70
   192
  0
VERTEX
  5
15BD
  8
0
 10
-541.3290933879821
 20
540.0000011045789
 30
-443.9693437350791
 70
   192
  0
VERTEX
  5
15BE
  8
0
 10
-358.7828460259683
 20
540.0000037275395
 30
-440.4642767250487
 70
   192
  0
VERTEX
  5
15BF
  8
0
 10
-723.8753407499912
 20
540.0000001381583
 30
-447.4744107453635
 70
   192
  0
VERTEX
  5
15C0
  8
0
 10
-702.25220142898
 20
633.2506135759031
 30
-446.7334164938574
 70
   192
  0
VERTEX
  5
15C1
  8
0
 10
-906.4215881119977
 20
540.0000000000001
 30
-450.9794777557747
 70
   192
  0
VERTEX
  5
15C2
  8
0
 10
-819.0274415045027
 20
612.7001099870847
 30
-448.9399782166252
 70
   192
  0
VERTEX
  5
15C3
  8
0
 10
-970.8728572369447
 20
578.253851807138
 30
-450.9794890112015
 70
   192
  0
VERTEX
  5
15C4
  8
0
 10
-948.8785946578109
 20
590.2251660360457
 30
-450.8516132091036
 70
   192
  0
VERTEX
  5
15C5
  8
0
 10
-927.6693070582555
 20
577.4210034847138
 30
-450.9794989489125
 70
   192
  0
VERTEX
  5
15C6
  8
0
 10
-876.4480441496187
 20
602.6742973591834
 30
-449.9607764773951
 70
   192
  0
VERTEX
  5
15C7
  8
0
 10
0.0
 20
0.0
 30
0.0
 70
   128
 71
     1
 72
     2
 73
     3
  0
VERTEX
  5
15C8
  8
0
 10
0.0
 20
0.0
 30
0.0
 70
   128
 71
     4
 72
     1
 73
     3
  0
VERTEX
  5
15C9
  8
0
 10
0.0
 20
0.0
 30
0.0
 70
   128
 71
     3
 72
     5
 73
     4
  0
VERTEX
  5
15CA
  8
0
 10
0.0
 20
0.0
 30
0.0
 70
   128
 71
     2
 72
     1
 73
    -6
  0
VERTEX
  5
15CB
  8
0
 10
0.0
 20
0.0
 30
0.0
 70
   128
 71
     6
 72
     7
 73
    -2
  0
VERTEX
  5
15CC
  8
0
 10
0.0
 20
0.0
 30
0.0
 70
   128
 71
     8
 72
     9
 73
    10
  0
VERTEX
  5
15CD
  8
0
 10
0.0
 20
0.0
 30
0.0
 70
   128
 71
    11
 72
     8
 73
    10
  0
VERTEX
  5
15CE
  8
0
 10
0.0
 20
0.0
 30
0.0
 70
   128
 71
    12
 72
    11
 73
    10
  0
VERTEX
  5
15CF
  8
0
 10
0.0
 20
0.0
 30
0.0
 70
   128
 71
    10
 72
    13
 73
    12
  0
VERTEX
  5
15D0
  8
0
 10
0.0
 20
0.0
 30
0.0
 70
   128
 71
    14
 72
    12
 73
    13
  0
VERTEX
  5
15D1
  8
0
 10
0.0
 20
0.0
 30
0.0
 70
   128
 71
    13
 72
    15
 73
    14
  0
VERTEX
  5
15D2
  8
0
 10
0.0
 20
0.0
 30
0.0
 70
   128
 71
    16
 72
    17
 73
    12
  0
VERTEX
  5
15D3
  8
0
 10
0.0
 20
0.0
 30
0.0
 70
   128
 71
    14
 72
    16
 73
    12
  0
VERTEX
  5
15D4
  8
0
 10
0.0
 20
0.0
 30
0.0
 70
   128
 71
    16
 72
    18
 73
    19
  0
VERTEX
  5
15D5
  8
0
 10
0.0
 20
0.0
 30
0.0
 70
   128
 71
    19
 72
    17
 73
    16
  0
VERTEX
  5
15D6
  8
0
 10
0.0
 20
0.0
 30
0.0
 70
   128
 71
    20
 72
     4
 73
     5
  0
VERTEX
  5
15D7
  8
0
 10
0.0
 20
0.0
 30
0.0
 70
   128
 71
    20
 72
     5
 73
    21
  0
VERTEX
  5
15D8
  8
0
 10
0.0
 20
0.0
 30
0.0
 70
   128
 71
    22
 72
    20
 73
    21
  0
VERTEX
  5
15D9
  8
0
 10
0.0
 20
0.0
 30
0.0
 70
   128
 71
    18
 72
    22
 73
    23
  0
VERTEX
  5
15DA
  8
0
 10
0.0
 20
0.0
 30
0.0
 70
   128
 71
    23
 72
    19
 73
    18
  0
VERTEX
  5
15DB
  8
0
 10
0.0
 20
0.0
 30
0.0
 70
   128
 71
    23
 72
    22
 73
    21
  0
SEQEND
  5
17C7
  8
0
  0
POLYLINE
  5
15DC
  8
0
 66
     1
 10
0.0
 20
0.0
 30
0.0
 70
    64
 71
    31
 72
    29
  0
VERTEX
  5
15DD
  8
0
 10
-928.2084732567138
 20
502.261876618476
 30
-450.9794882378535
 70
   192
  0
VERTEX
  5
15DE
  8
0
 10
-694.5646059264145
 20
162.0094494863429
 30
-443.056620718096
 70
   192
  0
VERTEX
  5
15DF
  8
0
 10
-931.5169093081539
 20
161.3391424737242
 30
-444.5369099096206
 70
   192
  0
VERTEX
  5
15E0
  8
0
 10
-348.6205122792097
 20
426.2584679112955
 30
-440.0644462116724
 70
   192
  0
VERTEX
  5
15E1
  8
0
 10
-723.8753407499912
 20
540.0000001381583
 30
-447.4744107453635
 70
   192
  0
VERTEX
  5
15E2
  8
0
 10
-541.3290933879821
 20
540.0000011045789
 30
-443.9693437350791
 70
   192
  0
VERTEX
  5
15E3
  8
0
 10
-358.7828460259683
 20
540.0000037275395
 30
-440.4642767250487
 70
   192
  0
VERTEX
  5
15E4
  8
0
 10
-337.5578764982875
 20
304.9672199848756
 30
-439.2205326249427
 70
   192
  0
VERTEX
  5
15E5
  8
0
 10
-330.3264191701919
 20
163.7279589432173
 30
-437.896163596904
 70
   192
  0
VERTEX
  5
15E6
  8
0
 10
-335.9423351650029
 20
162.4965988930093
 30
-437.9758527755473
 70
   192
  0
VERTEX
  5
15E7
  8
0
 10
-326.4182850227724
 20
167.1695255274946
 30
-437.865993079467
 70
   192
  0
VERTEX
  5
15E8
  8
0
 10
-325.2749309501773
 20
172.1176598617891
 30
-437.8955966515343
 70
   192
  0
VERTEX
  5
15E9
  8
0
 10
-1499.976579883339
 20
163.8644218368184
 30
-439.0226628000605
 70
   192
  0
VERTEX
  5
15EA
  8
0
 10
-1502.26343365678
 20
167.3894456463879
 30
-439.0243731440414
 70
   192
  0
VERTEX
  5
15EB
  8
0
 10
-1511.586646128086
 20
278.4185081745154
 30
-439.9208480795098
 70
   192
  0
VERTEX
  5
15EC
  8
0
 10
-1496.80593419564
 20
161.1124833690083
 30
-439.0428509401836
 70
   192
  0
VERTEX
  5
15ED
  8
0
 10
-1493.049785688865
 20
159.2085678852526
 30
-439.0811093148766
 70
   192
  0
VERTEX
  5
15EE
  8
0
 10
-1520.350678803023
 20
381.8919765662104
 30
-440.4519517246559
 70
   192
  0
VERTEX
  5
15EF
  8
0
 10
-1528.814811210192
 20
481.2527906735123
 30
-440.6453172171479
 70
   192
  0
VERTEX
  5
15F0
  8
0
 10
-1423.386649640287
 20
507.7356935819025
 30
-442.7056509498022
 70
   192
  0
VERTEX
  5
15F1
  8
0
 10
-1525.593046744414
 20
488.8633381966514
 30
-440.720745210826
 70
   192
  0
VERTEX
  5
15F2
  8
0
 10
-1521.335826127599
 20
490.7998336695343
 30
-440.8054174291798
 70
   192
  0
VERTEX
  5
15F3
  8
0
 10
-1528.189277406454
 20
485.3584100811564
 30
-440.6649592596934
 70
   192
  0
VERTEX
  5
15F4
  8
0
 10
-1327.981870570087
 20
524.2273220638494
 30
-444.5522873292774
 70
   192
  0
VERTEX
  5
15F5
  8
0
 10
-1236.742878802468
 20
539.9999986285211
 30
-446.310481468909
 70
   192
  0
VERTEX
  5
15F6
  8
0
 10
-1155.688056128335
 20
539.9999995773942
 30
-447.866813571667
 70
   192
  0
VERTEX
  5
15F7
  8
0
 10
-906.4215881119977
 20
540.0000000000001
 30
-450.9794777557747
 70
   192
  0
VERTEX
  5
15F8
  8
0
 10
-1158.604946125028
 20
160.5381888561466
 30
-443.5017957428259
 70
   192
  0
VERTEX
  5
15F9
  8
0
 10
-971.7986166538622
 20
502.2657817589703
 30
-450.9794835568593
 70
   192
  0
VERTEX
  5
15FA
  8
0
 10
-1074.6332334542
 20
539.999999819271
 30
-449.423145674371
 70
   192
  0
VERTEX
  5
15FB
  8
0
 10
-993.5784107800648
 20
539.9999995614752
 30
-450.9794777770481
 70
   192
  0
VERTEX
  5
15FC
  8
0
 10
0.0
 20
0.0
 30
0.0
 70
   128
 71
     1
 72
     2
 73
     3
  0
VERTEX
  5
15FD
  8
0
 10
0.0
 20
0.0
 30
0.0
 70
   128
 71
     4
 72
     5
 73
    -6
  0
VERTEX
  5
15FE
  8
0
 10
0.0
 20
0.0
 30
0.0
 70
   128
 71
     6
 72
     7
 73
    -4
  0
VERTEX
  5
15FF
  8
0
 10
0.0
 20
0.0
 30
0.0
 70
   128
 71
     4
 72
     8
 73
     5
  0
VERTEX
  5
1600
  8
0
 10
0.0
 20
0.0
 30
0.0
 70
   128
 71
     9
 72
    10
 73
     5
  0
VERTEX
  5
1601
  8
0
 10
0.0
 20
0.0
 30
0.0
 70
   128
 71
    11
 72
     9
 73
     5
  0
VERTEX
  5
1602
  8
0
 10
0.0
 20
0.0
 30
0.0
 70
   128
 71
    12
 72
    11
 73
     5
  0
VERTEX
  5
1603
  8
0
 10
0.0
 20
0.0
 30
0.0
 70
   128
 71
     8
 72
    12
 73
     5
  0
VERTEX
  5
1604
  8
0
 10
0.0
 20
0.0
 30
0.0
 70
   128
 71
    13
 72
    14
 73
    15
  0
VERTEX
  5
1605
  8
0
 10
0.0
 20
0.0
 30
0.0
 70
   128
 71
    16
 72
    13
 73
    15
  0
VERTEX
  5
1606
  8
0
 10
0.0
 20
0.0
 30
0.0
 70
   128
 71
    17
 72
    16
 73
    15
  0
VERTEX
  5
1607
  8
0
 10
0.0
 20
0.0
 30
0.0
 70
   128
 71
    18
 72
    19
 73
    20
  0
VERTEX
  5
1608
  8
0
 10
0.0
 20
0.0
 30
0.0
 70
   128
 71
    21
 72
    22
 73
    20
  0
VERTEX
  5
1609
  8
0
 10
0.0
 20
0.0
 30
0.0
 70
   128
 71
    23
 72
    21
 73
    20
  0
VERTEX
  5
160A
  8
0
 10
0.0
 20
0.0
 30
0.0
 70
   128
 71
    19
 72
    23
 73
    20
  0
VERTEX
  5
160B
  8
0
 10
0.0
 20
0.0
 30
0.0
 70
   128
 71
    24
 72
    25
 73
    26
  0
VERTEX
  5
160C
  8
0
 10
0.0
 20
0.0
 30
0.0
 70
   128
 71
     1
 72
    27
 73
     5
  0
VERTEX
  5
160D
  8
0
 10
0.0
 20
0.0
 30
0.0
 70
   128
 71
     2
 72
     1
 73
     5
  0
VERTEX
  5
160E
  8
0
 10
0.0
 20
0.0
 30
0.0
 70
   128
 71
    10
 72
     2
 73
     5
  0
VERTEX
  5
160F
  8
0
 10
0.0
 20
0.0
 30
0.0
 70
   128
 71
    28
 72
    29
 73
     1
  0
VERTEX
  5
1610
  8
0
 10
0.0
 20
0.0
 30
0.0
 70
   128
 71
     3
 72
    28
 73
     1
  0
VERTEX
  5
1611
  8
0
 10
0.0
 20
0.0
 30
0.0
 70
   128
 71
    28
 72
    17
 73
    15
  0
VERTEX
  5
1612
  8
0
 10
0.0
 20
0.0
 30
0.0
 70
   128
 71
    24
 72
    28
 73
    15
  0
VERTEX
  5
1613
  8
0
 10
0.0
 20
0.0
 30
0.0
 70
   128
 71
    18
 72
    20
 73
    24
  0
VERTEX
  5
1614
  8
0
 10
0.0
 20
0.0
 30
0.0
 70
   128
 71
    15
 72
    18
 73
    24
  0
VERTEX
  5
1615
  8
0
 10
0.0
 20
0.0
 30
0.0
 70
   128
 71
    30
 72
    29
 73
    28
  0
VERTEX
  5
1616
  8
0
 10
0.0
 20
0.0
 30
0.0
 70
   128
 71
    26
 72
    30
 73
    28
  0
VERTEX
  5
1617
  8
0
 10
0.0
 20
0.0
 30
0.0
 70
   128
 71
    24
 72
    26
 73
    28
  0
VERTEX
  5
1618
  8
0
 10
0.0
 20
0.0
 30
0.0
 70
   128
 71
    30
 72
    31
 73
    29
  0
SEQEND
  5
17C8
  8
0
  0
POLYLINE
  5
1619
  8
0
 66
     1
 10
0.0
 20
0.0
 30
0.0
 70
    64
 71
    12
 72
    10
  0
VERTEX
  5
161A
  8
0
 10
-1526.054402393054
 20
521.252876161788
 30
-412.7275800792764
 70
   192
  0
VERTEX
  5
161B
  8
0
 10
-1543.737411163162
 20
513.0348388651058
 30
-415.0512721432514
 70
   192
  0
VERTEX
  5
161C
  8
0
 10
-1556.354528075657
 20
495.2912271907603
 30
-415.7618304452581
 70
   192
  0
VERTEX
  5
161D
  8
0
 10
-1558.676536073949
 20
478.7125920620701
 30
-414.8283189651219
 70
   192
  0
VERTEX
  5
161E
  8
0
 10
-1553.197379405253
 20
479.1761101202512
 30
-427.8910301910236
 70
   192
  0
VERTEX
  5
161F
  8
0
 10
-1542.498032026429
 20
480.0862531183428
 30
-437.1411664969804
 70
   192
  0
VERTEX
  5
1620
  8
0
 10
-1528.814811210192
 20
481.2527906735123
 30
-440.6453172171479
 70
   192
  0
VERTEX
  5
1621
  8
0
 10
-1528.189277406454
 20
485.3584100811564
 30
-440.6649592596934
 70
   192
  0
VERTEX
  5
1622
  8
0
 10
-1525.593046744414
 20
488.8633381966514
 30
-440.720745210826
 70
   192
  0
VERTEX
  5
1623
  8
0
 10
-1521.335826127599
 20
490.7998336695343
 30
-440.8054174291798
 70
   192
  0
VERTEX
  5
1624
  8
0
 10
-1523.757665673455
 20
505.226388350558
 30
-437.1104116432518
 70
   192
  0
VERTEX
  5
1625
  8
0
 10
-1525.465357347335
 20
516.2475930396511
 30
-426.9488037936537
 70
   192
  0
VERTEX
  5
1626
  8
0
 10
0.0
 20
0.0
 30
0.0
 70
   128
 71
     8
 72
     7
 73
     6
  0
VERTEX
  5
1627
  8
0
 10
0.0
 20
0.0
 30
0.0
 70
   128
 71
     6
 72
    11
 73
     9
  0
VERTEX
  5
1628
  8
0
 10
0.0
 20
0.0
 30
0.0
 70
   128
 71
     6
 72
     9
 73
     8
  0
VERTEX
  5
1629
  8
0
 10
0.0
 20
0.0
 30
0.0
 70
   128
 71
    11
 72
    10
 73
     9
  0
VERTEX
  5
162A
  8
0
 10
0.0
 20
0.0
 30
0.0
 70
   128
 71
     6
 72
     5
 73
    12
  0
VERTEX
  5
162B
  8
0
 10
0.0
 20
0.0
 30
0.0
 70
   128
 71
     6
 72
    12
 73
    11
  0
VERTEX
  5
162C
  8
0
 10
0.0
 20
0.0
 30
0.0
 70
   128
 71
     2
 72
     1
 73
    12
  0
VERTEX
  5
162D
  8
0
 10
0.0
 20
0.0
 30
0.0
 70
   128
 71
    12
 72
     5
 73
     3
  0
VERTEX
  5
162E
  8
0
 10
0.0
 20
0.0
 30
0.0
 70
   128
 71
    12
 72
     3
 73
     2
  0
VERTEX
  5
162F
  8
0
 10
0.0
 20
0.0
 30
0.0
 70
   128
 71
     5
 72
     4
 73
     3
  0
SEQEND
  5
17C9
  8
0
  0
POLYLINE
  5
1630
  8
0
 66
     1
 10
0.0
 20
0.0
 30
0.0
 70
    64
 71
    10
 72
     8
  0
VERTEX
  5
1631
  8
0
 10
-0.8974118520454781
 20
3.896383240423349
 30
-3.930774029698042
 70
   192
  0
VERTEX
  5
1632
  8
0
 10
-0.8974127508852383
 20
3.896384725809479
 30
-3.930739704390312
 70
   192
  0
VERTEX
  5
1633
  8
0
 10
0.0477795377905946
 20
2.951192437134019
 30
-40.02617694830797
 70
   192
  0
VERTEX
  5
1634
  8
0
 10
-0.3538576641560518
 20
1.451422886884191
 30
-40.03398035423496
 70
   192
  0
VERTEX
  5
1635
  8
0
 10
-1.29988276587001
 20
2.397490413356413
 30
-3.902063211471105
 70
   192
  0
VERTEX
  5
1636
  8
0
 10
-2.397490921215494
 20
1.299882472464124
 30
-3.902063217086759
 70
   192
  0
VERTEX
  5
1637
  8
0
 10
-1.451422886881661
 20
0.3538576641575124
 30
-40.03398035423493
 70
   192
  0
VERTEX
  5
1638
  8
0
 10
-2.9511924371316
 20
-0.0477795377925791
 30
-40.02617694830789
 70
   192
  0
VERTEX
  5
1639
  8
0
 10
-3.896383826121818
 20
0.8974118511975774
 30
-3.930774062075919
 70
   192
  0
VERTEX
  5
163A
  8
0
 10
-3.896383826771204
 20
0.8974118516436351
 30
-3.930774045041578
 70
   192
  0
VERTEX
  5
163B
  8
0
 10
0.0
 20
0.0
 30
0.0
 70
   128
 71
     1
 72
     2
 73
     3
  0
VERTEX
  5
163C
  8
0
 10
0.0
 20
0.0
 30
0.0
 70
   128
 71
     4
 72
     5
 73
     1
  0
VERTEX
  5
163D
  8
0
 10
0.0
 20
0.0
 30
0.0
 70
   128
 71
     4
 72
     1
 73
     3
  0
VERTEX
  5
163E
  8
0
 10
0.0
 20
0.0
 30
0.0
 70
   128
 71
     6
 72
     5
 73
     4
  0
VERTEX
  5
163F
  8
0
 10
0.0
 20
0.0
 30
0.0
 70
   128
 71
     7
 72
     6
 73
     4
  0
VERTEX
  5
1640
  8
0
 10
0.0
 20
0.0
 30
0.0
 70
   128
 71
     6
 72
     7
 73
     8
  0
VERTEX
  5
1641
  8
0
 10
0.0
 20
0.0
 30
0.0
 70
   128
 71
     6
 72
     8
 73
     9
  0
VERTEX
  5
1642
  8
0
 10
0.0
 20
0.0
 30
0.0
 70
   128
 71
     9
 72
    10
 73
     6
  0
SEQEND
  5
17CA
  8
0
  0
POLYLINE
  5
1643
  8
0
 66
     1
 10
0.0
 20
0.0
 30
0.0
 70
    64
 71
    12
 72
    10
  0
VERTEX
  5
1644
  8
0
 10
-1558.676536073949
 20
478.7125920620701
 30
-414.8283189651219
 70
   192
  0
VERTEX
  5
1645
  8
0
 10
-1553.197379405253
 20
479.1761101202512
 30
-427.8910301910236
 70
   192
  0
VERTEX
  5
1646
  8
0
 10
-1542.498032026429
 20
480.0862531183428
 30
-437.1411664969804
 70
   192
  0
VERTEX
  5
1647
  8
0
 10
-1528.814811210192
 20
481.2527906735123
 30
-440.6453172171479
 70
   192
  0
VERTEX
  5
1648
  8
0
 10
-1520.350678803023
 20
381.8919765662104
 30
-440.4519517246559
 70
   192
  0
VERTEX
  5
1649
  8
0
 10
-1511.586646128086
 20
278.4185081745154
 30
-439.9208480795098
 70
   192
  0
VERTEX
  5
164A
  8
0
 10
-1502.26343365678
 20
167.389445646388
 30
-439.0243731440414
 70
   192
  0
VERTEX
  5
164B
  8
0
 10
-1515.315671215782
 20
166.3337187762758
 30
-435.878662019102
 70
   192
  0
VERTEX
  5
164C
  8
0
 10
-1525.81143037815
 20
165.5400554831882
 30
-427.4776061176423
 70
   192
  0
VERTEX
  5
164D
  8
0
 10
-1531.770377885932
 20
165.1581907193219
 30
-415.4063131262803
 70
   192
  0
VERTEX
  5
164E
  8
0
 10
-1541.2244071634
 20
276.0890296395228
 30
-415.5352379083851
 70
   192
  0
VERTEX
  5
164F
  8
0
 10
-1550.103296927875
 20
379.4583468380599
 30
-415.3403117612392
 70
   192
  0
VERTEX
  5
1650
  8
0
 10
0.0
 20
0.0
 30
0.0
 70
   128
 71
     6
 72
     7
 73
     8
  0
VERTEX
  5
1651
  8
0
 10
0.0
 20
0.0
 30
0.0
 70
   128
 71
     9
 72
    11
 73
     6
  0
VERTEX
  5
1652
  8
0
 10
0.0
 20
0.0
 30
0.0
 70
   128
 71
     8
 72
     9
 73
     6
  0
VERTEX
  5
1653
  8
0
 10
0.0
 20
0.0
 30
0.0
 70
   128
 71
     9
 72
    10
 73
    11
  0
VERTEX
  5
1654
  8
0
 10
0.0
 20
0.0
 30
0.0
 70
   128
 71
    12
 72
     5
 73
     6
  0
VERTEX
  5
1655
  8
0
 10
0.0
 20
0.0
 30
0.0
 70
   128
 71
    11
 72
    12
 73
     6
  0
VERTEX
  5
1656
  8
0
 10
0.0
 20
0.0
 30
0.0
 70
   128
 71
    12
 72
     1
 73
     2
  0
VERTEX
  5
1657
  8
0
 10
0.0
 20
0.0
 30
0.0
 70
   128
 71
     3
 72
     5
 73
    12
  0
VERTEX
  5
1658
  8
0
 10
0.0
 20
0.0
 30
0.0
 70
   128
 71
     2
 72
     3
 73
    12
  0
VERTEX
  5
1659
  8
0
 10
0.0
 20
0.0
 30
0.0
 70
   128
 71
     3
 72
     4
 73
     5
  0
SEQEND
  5
17CB
  8
0
  0
POLYLINE
  5
165A
  8
0
 66
     1
 10
0.0
 20
0.0
 30
0.0
 70
    64
 71
    12
 72
    10
  0
VERTEX
  5
165B
  8
0
 10
-1531.770377885932
 20
165.1581907193219
 30
-415.4063131262803
 70
   192
  0
VERTEX
  5
165C
  8
0
 10
-1525.666150861313
 20
147.6122132151517
 30
-416.0163763494659
 70
   192
  0
VERTEX
  5
165D
  8
0
 10
-1511.830076043832
 20
134.1796799776386
 30
-414.5630747934815
 70
   192
  0
VERTEX
  5
165E
  8
0
 10
-1492.471911019374
 20
128.6975840863971
 30
-411.1042085784154
 70
   192
  0
VERTEX
  5
165F
  8
0
 10
-1492.716660536113
 20
133.703426263733
 30
-425.2015314442269
 70
   192
  0
VERTEX
  5
1660
  8
0
 10
-1492.925507735998
 20
144.7298734874331
 30
-435.3121795060927
 70
   192
  0
VERTEX
  5
1661
  8
0
 10
-1493.049785688865
 20
159.2085678852526
 30
-439.0811093148766
 70
   192
  0
VERTEX
  5
1662
  8
0
 10
-1496.80593419564
 20
161.1124833690083
 30
-439.0428509401836
 70
   192
  0
VERTEX
  5
1663
  8
0
 10
-1499.976579883339
 20
163.8644218368184
 30
-439.0226628000605
 70
   192
  0
VERTEX
  5
1664
  8
0
 10
-1502.26343365678
 20
167.3894456463879
 30
-439.0243731440414
 70
   192
  0
VERTEX
  5
1665
  8
0
 10
-1515.315671215782
 20
166.3337187762758
 30
-435.878662019102
 70
   192
  0
VERTEX
  5
1666
  8
0
 10
-1525.81143037815
 20
165.5400554831882
 30
-427.4776061176423
 70
   192
  0
VERTEX
  5
1667
  8
0
 10
0.0
 20
0.0
 30
0.0
 70
   128
 71
     8
 72
     7
 73
     6
  0
VERTEX
  5
1668
  8
0
 10
0.0
 20
0.0
 30
0.0
 70
   128
 71
     6
 72
    11
 73
     9
  0
VERTEX
  5
1669
  8
0
 10
0.0
 20
0.0
 30
0.0
 70
   128
 71
     6
 72
     9
 73
     8
  0
VERTEX
  5
166A
  8
0
 10
0.0
 20
0.0
 30
0.0
 70
   128
 71
    11
 72
    10
 73
     9
  0
VERTEX
  5
166B
  8
0
 10
0.0
 20
0.0
 30
0.0
 70
   128
 71
     6
 72
     5
 73
    12
  0
VERTEX
  5
166C
  8
0
 10
0.0
 20
0.0
 30
0.0
 70
   128
 71
     6
 72
    12
 73
    11
  0
VERTEX
  5
166D
  8
0
 10
0.0
 20
0.0
 30
0.0
 70
   128
 71
     2
 72
     1
 73
    12
  0
VERTEX
  5
166E
  8
0
 10
0.0
 20
0.0
 30
0.0
 70
   128
 71
    12
 72
     5
 73
     3
  0
VERTEX
  5
166F
  8
0
 10
0.0
 20
0.0
 30
0.0
 70
   128
 71
    12
 72
     3
 73
     2
  0
VERTEX
  5
1670
  8
0
 10
0.0
 20
0.0
 30
0.0
 70
   128
 71
     5
 72
     4
 73
     3
  0
SEQEND
  5
17CC
  8
0
  0
POLYLINE
  5
1671
  8
0
 66
     1
 10
0.0
 20
0.0
 30
0.0
 70
    64
 71
    14
 72
    12
  0
VERTEX
  5
1672
  8
0
 10
-694.5646059264145
 20
162.0094494863429
 30
-443.056620718096
 70
   192
  0
VERTEX
  5
1673
  8
0
 10
-335.9423351650029
 20
162.4965988930093
 30
-437.9758527755473
 70
   192
  0
VERTEX
  5
1674
  8
0
 10
-335.9956769277584
 20
148.6436936372103
 30
-434.5524742390135
 70
   192
  0
VERTEX
  5
1675
  8
0
 10
-336.1451328136732
 20
137.7921259550276
 30
-425.2871916865932
 70
   192
  0
VERTEX
  5
1676
  8
0
 10
-694.7975058832336
 20
131.836559812068
 30
-416.5996844211282
 70
   192
  0
VERTEX
  5
1677
  8
0
 10
-336.3590433887594
 20
132.2411353577005
 30
-412.1431399827135
 70
   192
  0
VERTEX
  5
1678
  8
0
 10
-1158.218751042197
 20
130.27586772558
 30
-416.1606228603637
 70
   192
  0
VERTEX
  5
1679
  8
0
 10
-1492.471911019374
 20
128.6975840863971
 30
-411.1042085784154
 70
   192
  0
VERTEX
  5
167A
  8
0
 10
-1492.716660536113
 20
133.703426263733
 30
-425.2015314442269
 70
   192
  0
VERTEX
  5
167B
  8
0
 10
-931.4441855361129
 20
131.2051379545559
 30
-417.6357485631677
 70
   192
  0
VERTEX
  5
167C
  8
0
 10
-931.5169093081539
 20
161.3391424737242
 30
-444.5369099096206
 70
   192
  0
VERTEX
  5
167D
  8
0
 10
-1492.925507735998
 20
144.7298734874331
 30
-435.3121795060927
 70
   192
  0
VERTEX
  5
167E
  8
0
 10
-1493.049785688865
 20
159.2085678852526
 30
-439.0811093148766
 70
   192
  0
VERTEX
  5
167F
  8
0
 10
-1158.604946125028
 20
160.5381888561466
 30
-443.5017957428259
 70
   192
  0
VERTEX
  5
1680
  8
0
 10
0.0
 20
0.0
 30
0.0
 70
   128
 71
     1
 72
     2
 73
     3
  0
VERTEX
  5
1681
  8
0
 10
0.0
 20
0.0
 30
0.0
 70
   128
 71
     4
 72
     5
 73
     1
  0
VERTEX
  5
1682
  8
0
 10
0.0
 20
0.0
 30
0.0
 70
   128
 71
     3
 72
     4
 73
     1
  0
VERTEX
  5
1683
  8
0
 10
0.0
 20
0.0
 30
0.0
 70
   128
 71
     4
 72
     6
 73
     5
  0
VERTEX
  5
1684
  8
0
 10
0.0
 20
0.0
 30
0.0
 70
   128
 71
     7
 72
     8
 73
     9
  0
VERTEX
  5
1685
  8
0
 10
0.0
 20
0.0
 30
0.0
 70
   128
 71
     1
 72
     5
 73
    10
  0
VERTEX
  5
1686
  8
0
 10
0.0
 20
0.0
 30
0.0
 70
   128
 71
    11
 72
     1
 73
    10
  0
VERTEX
  5
1687
  8
0
 10
0.0
 20
0.0
 30
0.0
 70
   128
 71
    12
 72
    13
 73
    14
  0
VERTEX
  5
1688
  8
0
 10
0.0
 20
0.0
 30
0.0
 70
   128
 71
     9
 72
    12
 73
    14
  0
VERTEX
  5
1689
  8
0
 10
0.0
 20
0.0
 30
0.0
 70
   128
 71
     7
 72
     9
 73
    14
  0
VERTEX
  5
168A
  8
0
 10
0.0
 20
0.0
 30
0.0
 70
   128
 71
    11
 72
    10
 73
     7
  0
VERTEX
  5
168B
  8
0
 10
0.0
 20
0.0
 30
0.0
 70
   128
 71
    14
 72
    11
 73
     7
  0
SEQEND
  5
17CD
  8
0
  0
POLYLINE
  5
168C
  8
0
 66
     1
 10
0.0
 20
0.0
 30
0.0
 70
    64
 71
    12
 72
    10
  0
VERTEX
  5
168D
  8
0
 10
-336.3590433887594
 20
132.2411353577005
 30
-412.1431399827135
 70
   192
  0
VERTEX
  5
168E
  8
0
 10
-318.1745313028766
 20
138.8460628242485
 30
-419.7922555841391
 70
   192
  0
VERTEX
  5
168F
  8
0
 10
-304.8079548564812
 20
154.0549782399905
 30
-423.9475572966975
 70
   192
  0
VERTEX
  5
1690
  8
0
 10
-299.6598094257517
 20
174.669392680101
 30
-423.4321647764245
 70
   192
  0
VERTEX
  5
1691
  8
0
 10
-306.4168021105386
 20
173.9532996312731
 30
-431.0549660898539
 70
   192
  0
VERTEX
  5
1692
  8
0
 10
-315.2755390701336
 20
173.0708064455812
 30
-436.0570004912387
 70
   192
  0
VERTEX
  5
1693
  8
0
 10
-325.2749309501773
 20
172.1176598617891
 30
-437.8955966515343
 70
   192
  0
VERTEX
  5
1694
  8
0
 10
-326.4182850227724
 20
167.1695255274946
 30
-437.865993079467
 70
   192
  0
VERTEX
  5
1695
  8
0
 10
-330.3264191701919
 20
163.7279589432173
 30
-437.896163596904
 70
   192
  0
VERTEX
  5
1696
  8
0
 10
-335.9423351650029
 20
162.4965988930093
 30
-437.9758527755473
 70
   192
  0
VERTEX
  5
1697
  8
0
 10
-335.9956769277584
 20
148.6436936372103
 30
-434.5524742390135
 70
   192
  0
VERTEX
  5
1698
  8
0
 10
-336.1451328136732
 20
137.7921259550276
 30
-425.2871916865932
 70
   192
  0
VERTEX
  5
1699
  8
0
 10
0.0
 20
0.0
 30
0.0
 70
   128
 71
     8
 72
     7
 73
     6
  0
VERTEX
  5
169A
  8
0
 10
0.0
 20
0.0
 30
0.0
 70
   128
 71
     6
 72
    11
 73
     9
  0
VERTEX
  5
169B
  8
0
 10
0.0
 20
0.0
 30
0.0
 70
   128
 71
     6
 72
     9
 73
     8
  0
VERTEX
  5
169C
  8
0
 10
0.0
 20
0.0
 30
0.0
 70
   128
 71
    11
 72
    10
 73
     9
  0
VERTEX
  5
169D
  8
0
 10
0.0
 20
0.0
 30
0.0
 70
   128
 71
     6
 72
     5
 73
    12
  0
VERTEX
  5
169E
  8
0
 10
0.0
 20
0.0
 30
0.0
 70
   128
 71
     6
 72
    12
 73
    11
  0
VERTEX
  5
169F
  8
0
 10
0.0
 20
0.0
 30
0.0
 70
   128
 71
     2
 72
     1
 73
    12
  0
VERTEX
  5
16A0
  8
0
 10
0.0
 20
0.0
 30
0.0
 70
   128
 71
    12
 72
     5
 73
     3
  0
VERTEX
  5
16A1
  8
0
 10
0.0
 20
0.0
 30
0.0
 70
   128
 71
    12
 72
     3
 73
     2
  0
VERTEX
  5
16A2
  8
0
 10
0.0
 20
0.0
 30
0.0
 70
   128
 71
     5
 72
     4
 73
     3
  0
SEQEND
  5
17CE
  8
0
  0
POLYLINE
  5
16A3
  8
0
 66
     1
 10
0.0
 20
0.0
 30
0.0
 70
    64
 71
    12
 72
    10
  0
VERTEX
  5
16A4
  8
0
 10
-299.6598094257517
 20
174.669392680101
 30
-423.4321647764245
 70
   192
  0
VERTEX
  5
16A5
  8
0
 10
-306.4168021105386
 20
173.9532996312731
 30
-431.0549660898539
 70
   192
  0
VERTEX
  5
16A6
  8
0
 10
-315.2755390701336
 20
173.0708064455812
 30
-436.0570004912387
 70
   192
  0
VERTEX
  5
16A7
  8
0
 10
-325.2749309501773
 20
172.1176598617891
 30
-437.8955966515343
 70
   192
  0
VERTEX
  5
16A8
  8
0
 10
-337.5578764982875
 20
304.9672199848756
 30
-439.2205326249427
 70
   192
  0
VERTEX
  5
16A9
  8
0
 10
-348.6205122792097
 20
426.2584679112955
 30
-440.0644462116724
 70
   192
  0
VERTEX
  5
16AA
  8
0
 10
-358.7828460259683
 20
540.0000037275395
 30
-440.4642767250487
 70
   192
  0
VERTEX
  5
16AB
  8
0
 10
-349.5392879763673
 20
540.819164818747
 30
-438.8553876546287
 70
   192
  0
VERTEX
  5
16AC
  8
0
 10
-341.2038808478139
 20
541.5627139079677
 30
-434.5345475700092
 70
   192
  0
VERTEX
  5
16AD
  8
0
 10
-334.5456634227008
 20
542.1620513651437
 30
-427.900404197216
 70
   192
  0
VERTEX
  5
16AE
  8
0
 10
-323.964437473663
 20
428.5366576924251
 30
-426.9363463715765
 70
   192
  0
VERTEX
  5
16AF
  8
0
 10
-312.4450420910807
 20
307.3882715728228
 30
-425.467342211189
 70
   192
  0
VERTEX
  5
16B0
  8
0
 10
0.0
 20
0.0
 30
0.0
 70
   128
 71
     6
 72
     7
 73
     8
  0
VERTEX
  5
16B1
  8
0
 10
0.0
 20
0.0
 30
0.0
 70
   128
 71
     9
 72
    11
 73
     6
  0
VERTEX
  5
16B2
  8
0
 10
0.0
 20
0.0
 30
0.0
 70
   128
 71
     8
 72
     9
 73
     6
  0
VERTEX
  5
16B3
  8
0
 10
0.0
 20
0.0
 30
0.0
 70
   128
 71
     9
 72
    10
 73
    11
  0
VERTEX
  5
16B4
  8
0
 10
0.0
 20
0.0
 30
0.0
 70
   128
 71
    12
 72
     5
 73
     6
  0
VERTEX
  5
16B5
  8
0
 10
0.0
 20
0.0
 30
0.0
 70
   128
 71
    11
 72
    12
 73
     6
  0
VERTEX
  5
16B6
  8
0
 10
0.0
 20
0.0
 30
0.0
 70
   128
 71
    12
 72
     1
 73
     2
  0
VERTEX
  5
16B7
  8
0
 10
0.0
 20
0.0
 30
0.0
 70
   128
 71
     3
 72
     5
 73
    12
  0
VERTEX
  5
16B8
  8
0
 10
0.0
 20
0.0
 30
0.0
 70
   128
 71
     2
 72
     3
 73
    12
  0
VERTEX
  5
16B9
  8
0
 10
0.0
 20
0.0
 30
0.0
 70
   128
 71
     3
 72
     4
 73
     5
  0
SEQEND
  5
17CF
  8
0
  0
POLYLINE
  5
16BA
  8
0
 66
     1
 10
0.0
 20
0.0
 30
0.0
 70
    64
 71
    12
 72
    10
  0
VERTEX
  5
16BB
  8
0
 10
-334.5456634227008
 20
542.1620513651437
 30
-427.900404197216
 70
   192
  0
VERTEX
  5
16BC
  8
0
 10
-341.2038808478139
 20
541.5627139079677
 30
-434.5345475700092
 70
   192
  0
VERTEX
  5
16BD
  8
0
 10
-349.5392879763673
 20
540.819164818747
 30
-438.8553876546287
 70
   192
  0
VERTEX
  5
16BE
  8
0
 10
-358.7828460259683
 20
540.0000037275395
 30
-440.4642767250487
 70
   192
  0
VERTEX
  5
16BF
  8
0
 10
-362.9251758584825
 20
587.219139943358
 30
-440.5075919047458
 70
   192
  0
VERTEX
  5
16C0
  8
0
 10
-367.0137536673359
 20
634.4061335398696
 30
-440.4766798002028
 70
   192
  0
VERTEX
  5
16C1
  8
0
 10
-371.0807689374846
 20
681.9726195724195
 30
-440.3710305411884
 70
   192
  0
VERTEX
  5
16C2
  8
0
 10
-362.0978780856317
 20
682.7294836467948
 30
-438.8517061200803
 70
   192
  0
VERTEX
  5
16C3
  8
0
 10
-353.9464463458318
 20
683.4082015684809
 30
-434.7692092133699
 70
   192
  0
VERTEX
  5
16C4
  8
0
 10
-347.3352763045164
 20
683.9497613420107
 30
-428.4785284681596
 70
   192
  0
VERTEX
  5
16C5
  8
0
 10
-343.1072395686623
 20
636.444931921953
 30
-428.363406681113
 70
   192
  0
VERTEX
  5
16C6
  8
0
 10
-338.8552289634938
 20
589.3197071460363
 30
-428.1711407965379
 70
   192
  0
VERTEX
  5
16C7
  8
0
 10
0.0
 20
0.0
 30
0.0
 70
   128
 71
     6
 72
     7
 73
     8
  0
VERTEX
  5
16C8
  8
0
 10
0.0
 20
0.0
 30
0.0
 70
   128
 71
     9
 72
    11
 73
     6
  0
VERTEX
  5
16C9
  8
0
 10
0.0
 20
0.0
 30
0.0
 70
   128
 71
     8
 72
     9
 73
     6
  0
VERTEX
  5
16CA
  8
0
 10
0.0
 20
0.0
 30
0.0
 70
   128
 71
     9
 72
    10
 73
    11
  0
VERTEX
  5
16CB
  8
0
 10
0.0
 20
0.0
 30
0.0
 70
   128
 71
    12
 72
     5
 73
     6
  0
VERTEX
  5
16CC
  8
0
 10
0.0
 20
0.0
 30
0.0
 70
   128
 71
    11
 72
    12
 73
     6
  0
VERTEX
  5
16CD
  8
0
 10
0.0
 20
0.0
 30
0.0
 70
   128
 71
    12
 72
     1
 73
     2
  0
VERTEX
  5
16CE
  8
0
 10
0.0
 20
0.0
 30
0.0
 70
   128
 71
     3
 72
     5
 73
    12
  0
VERTEX
  5
16CF
  8
0
 10
0.0
 20
0.0
 30
0.0
 70
   128
 71
     2
 72
     3
 73
    12
  0
VERTEX
  5
16D0
  8
0
 10
0.0
 20
0.0
 30
0.0
 70
   128
 71
     3
 72
     4
 73
     5
  0
SEQEND
  5
17D0
  8
0
  0
POLYLINE
  5
16D1
  8
0
 66
     1
 10
0.0
 20
0.0
 30
0.0
 70
    64
 71
    12
 72
    10
  0
VERTEX
  5
16D2
  8
0
 10
-907.6687685638535
 20
539.9999970717187
 30
-451.4470198574714
 70
   192
  0
VERTEX
  5
16D3
  8
0
 10
-928.8350698502352
 20
576.6598340651886
 30
-451.4470150331911
 70
   192
  0
VERTEX
  5
16D4
  8
0
 10
-971.1658622188683
 20
576.6597723212352
 30
-451.4470109827476
 70
   192
  0
VERTEX
  5
16D5
  8
0
 10
-992.331231540825
 20
540.000002417313
 30
-451.4470197342674
 70
   192
  0
VERTEX
  5
16D6
  8
0
 10
-992.7078124193001
 20
540.0000080078786
 30
-451.1976783038148
 70
   192
  0
VERTEX
  5
16D7
  8
0
 10
-993.1307222890919
 20
540.000004419069
 30
-451.0391379785937
 70
   192
  0
VERTEX
  5
16D8
  8
0
 10
-993.5784107800648
 20
539.9999995614752
 30
-450.9794777770481
 70
   192
  0
VERTEX
  5
16D9
  8
0
 10
-970.8728572369447
 20
578.253851807138
 30
-450.9794890112015
 70
   192
  0
VERTEX
  5
16DA
  8
0
 10
-927.6693070582555
 20
577.4210034847138
 30
-450.9794989489125
 70
   192
  0
VERTEX
  5
16DB
  8
0
 10
-906.4215881119977
 20
540.0000000000001
 30
-450.9794777557747
 70
   192
  0
VERTEX
  5
16DC
  8
0
 10
-906.8692774526891
 20
539.9999866285937
 30
-451.0391378808682
 70
   192
  0
VERTEX
  5
16DD
  8
0
 10
-907.2921875621091
 20
539.9999751218828
 30
-451.1976781922708
 70
   192
  0
VERTEX
  5
16DE
  8
0
 10
0.0
 20
0.0
 30
0.0
 70
   128
 71
     6
 72
     7
 73
     8
  0
VERTEX
  5
16DF
  8
0
 10
0.0
 20
0.0
 30
0.0
 70
   128
 71
     8
 72
     9
 73
     6
  0
VERTEX
  5
16E0
  8
0
 10
0.0
 20
0.0
 30
0.0
 70
   128
 71
     9
 72
    11
 73
     6
  0
VERTEX
  5
16E1
  8
0
 10
0.0
 20
0.0
 30
0.0
 70
   128
 71
     9
 72
    10
 73
    11
  0
VERTEX
  5
16E2
  8
0
 10
0.0
 20
0.0
 30
0.0
 70
   128
 71
    12
 72
     5
 73
     6
  0
VERTEX
  5
16E3
  8
0
 10
0.0
 20
0.0
 30
0.0
 70
   128
 71
    11
 72
    12
 73
     6
  0
VERTEX
  5
16E4
  8
0
 10
0.0
 20
0.0
 30
0.0
 70
   128
 71
    12
 72
     1
 73
     2
  0
VERTEX
  5
16E5
  8
0
 10
0.0
 20
0.0
 30
0.0
 70
   128
 71
     2
 72
     3
 73
    12
  0
VERTEX
  5
16E6
  8
0
 10
0.0
 20
0.0
 30
0.0
 70
   128
 71
     3
 72
     5
 73
    12
  0
VERTEX
  5
16E7
  8
0
 10
0.0
 20
0.0
 30
0.0
 70
   128
 71
     3
 72
     4
 73
     5
  0
SEQEND
  5
17D1
  8
0
  0
POLYLINE
  5
16E8
  8
0
 66
     1
 10
0.0
 20
0.0
 30
0.0
 70
    64
 71
    12
 72
    10
  0
VERTEX
  5
16E9
  8
0
 10
-992.331231540825
 20
540.000002417313
 30
-451.4470197342674
 70
   192
  0
VERTEX
  5
16EA
  8
0
 10
-971.1669759655979
 20
503.3408601902382
 30
-451.4470156898865
 70
   192
  0
VERTEX
  5
16EB
  8
0
 10
-928.8358189868225
 20
503.3394810138087
 30
-451.4470171127588
 70
   192
  0
VERTEX
  5
16EC
  8
0
 10
-907.6687685638535
 20
539.9999970717187
 30
-451.4470198574714
 70
   192
  0
VERTEX
  5
16ED
  8
0
 10
-907.2921875621091
 20
539.9999751218828
 30
-451.1976781922708
 70
   192
  0
VERTEX
  5
16EE
  8
0
 10
-906.8692774526891
 20
539.9999866285937
 30
-451.0391378808682
 70
   192
  0
VERTEX
  5
16EF
  8
0
 10
-906.4215881119977
 20
540.0000000000001
 30
-450.9794777557747
 70
   192
  0
VERTEX
  5
16F0
  8
0
 10
-928.2084732567138
 20
502.261876618476
 30
-450.9794882378535
 70
   192
  0
VERTEX
  5
16F1
  8
0
 10
-971.7986166538622
 20
502.2657817589703
 30
-450.9794835568593
 70
   192
  0
VERTEX
  5
16F2
  8
0
 10
-993.5784107800648
 20
539.9999995614752
 30
-450.9794777770481
 70
   192
  0
VERTEX
  5
16F3
  8
0
 10
-993.1307222890919
 20
540.000004419069
 30
-451.0391379785937
 70
   192
  0
VERTEX
  5
16F4
  8
0
 10
-992.7078124193001
 20
540.0000080078786
 30
-451.1976783038148
 70
   192
  0
VERTEX
  5
16F5
  8
0
 10
0.0
 20
0.0
 30
0.0
 70
   128
 71
     6
 72
     7
 73
     8
  0
VERTEX
  5
16F6
  8
0
 10
0.0
 20
0.0
 30
0.0
 70
   128
 71
     8
 72
     9
 73
     6
  0
VERTEX
  5
16F7
  8
0
 10
0.0
 20
0.0
 30
0.0
 70
   128
 71
     9
 72
    11
 73
     6
  0
VERTEX
  5
16F8
  8
0
 10
0.0
 20
0.0
 30
0.0
 70
   128
 71
     9
 72
    10
 73
    11
  0
VERTEX
  5
16F9
  8
0
 10
0.0
 20
0.0
 30
0.0
 70
   128
 71
    12
 72
     5
 73
     6
  0
VERTEX
  5
16FA
  8
0
 10
0.0
 20
0.0
 30
0.0
 70
   128
 71
    11
 72
    12
 73
     6
  0
VERTEX
  5
16FB
  8
0
 10
0.0
 20
0.0
 30
0.0
 70
   128
 71
    12
 72
     1
 73
     2
  0
VERTEX
  5
16FC
  8
0
 10
0.0
 20
0.0
 30
0.0
 70
   128
 71
     2
 72
     3
 73
    12
  0
VERTEX
  5
16FD
  8
0
 10
0.0
 20
0.0
 30
0.0
 70
   128
 71
     3
 72
     5
 73
    12
  0
VERTEX
  5
16FE
  8
0
 10
0.0
 20
0.0
 30
0.0
 70
   128
 71
     3
 72
     4
 73
     5
  0
SEQEND
  5
17D2
  8
0
  0
POLYLINE
  5
16FF
  8
0
 66
     1
 10
0.0
 20
0.0
 30
0.0
 70
    64
 71
    12
 72
    10
  0
VERTEX
  5
1700
  8
0
 10
-907.6687685638535
 20
539.9999970717187
 30
-451.4470198574714
 70
   192
  0
VERTEX
  5
1701
  8
0
 10
-913.4499567321684
 20
539.9999991323019
 30
-456.2980134711835
 70
   192
  0
VERTEX
  5
1702
  8
0
 10
-919.2311451349827
 20
539.999999891532
 30
-461.1490068054295
 70
   192
  0
VERTEX
  5
1703
  8
0
 10
-925.0123336550452
 20
540.0000000002071
 30
-465.9999999999409
 70
   192
  0
VERTEX
  5
1704
  8
0
 10
-937.4983323432896
 20
561.635396781467
 30
-466.0000000000621
 70
   192
  0
VERTEX
  5
1705
  8
0
 10
-962.4836703997598
 20
561.6457822446814
 30
-466.0000000000508
 70
   192
  0
VERTEX
  5
1706
  8
0
 10
-974.9876663449829
 20
539.999999999793
 30
-465.9999999999179
 70
   192
  0
VERTEX
  5
1707
  8
0
 10
-980.7688549050904
 20
540.0000000895445
 30
-461.1490067704948
 70
   192
  0
VERTEX
  5
1708
  8
0
 10
-986.5500433440775
 20
540.0000007163005
 30
-456.2980133967262
 70
   192
  0
VERTEX
  5
1709
  8
0
 10
-992.331231540825
 20
540.000002417313
 30
-451.4470197342674
 70
   192
  0
VERTEX
  5
170A
  8
0
 10
-971.1658622188683
 20
576.6597723212352
 30
-451.4470109827476
 70
   192
  0
VERTEX
  5
170B
  8
0
 10
-928.8350698502352
 20
576.6598340651886
 30
-451.4470150331911
 70
   192
  0
VERTEX
  5
170C
  8
0
 10
0.0
 20
0.0
 30
0.0
 70
   128
 71
     6
 72
     7
 73
    -8
  0
VERTEX
  5
170D
  8
0
 10
0.0
 20
0.0
 30
0.0
 70
   128
 71
     9
 72
    11
 73
     6
  0
VERTEX
  5
170E
  8
0
 10
0.0
 20
0.0
 30
0.0
 70
   128
 71
     8
 72
     9
 73
    -6
  0
VERTEX
  5
170F
  8
0
 10
0.0
 20
0.0
 30
0.0
 70
   128
 71
     9
 72
    10
 73
    11
  0
VERTEX
  5
1710
  8
0
 10
0.0
 20
0.0
 30
0.0
 70
   128
 71
    12
 72
     5
 73
     6
  0
VERTEX
  5
1711
  8
0
 10
0.0
 20
0.0
 30
0.0
 70
   128
 71
    11
 72
    12
 73
     6
  0
VERTEX
  5
1712
  8
0
 10
0.0
 20
0.0
 30
0.0
 70
   128
 71
    12
 72
     1
 73
     2
  0
VERTEX
  5
1713
  8
0
 10
0.0
 20
0.0
 30
0.0
 70
   128
 71
     3
 72
     5
 73
    12
  0
VERTEX
  5
1714
  8
0
 10
0.0
 20
0.0
 30
0.0
 70
   128
 71
     2
 72
     3
 73
    12
  0
VERTEX
  5
1715
  8
0
 10
0.0
 20
0.0
 30
0.0
 70
   128
 71
     3
 72
     4
 73
     5
  0
SEQEND
  5
17D3
  8
0
  0
POLYLINE
  5
1716
  8
0
 66
     1
 10
0.0
 20
0.0
 30
0.0
 70
    64
 71
    12
 72
    10
  0
VERTEX
  5
1717
  8
0
 10
-992.331231540825
 20
540.000002417313
 30
-451.4470197342674
 70
   192
  0
VERTEX
  5
1718
  8
0
 10
-986.5500433440775
 20
540.0000007163005
 30
-456.2980133967262
 70
   192
  0
VERTEX
  5
1719
  8
0
 10
-980.7688549050904
 20
540.0000000895445
 30
-461.1490067704948
 70
   192
  0
VERTEX
  5
171A
  8
0
 10
-974.9876663449829
 20
539.999999999793
 30
-465.9999999999179
 70
   192
  0
VERTEX
  5
171B
  8
0
 10
-962.5016676029471
 20
518.3646032469675
 30
-465.9999999997971
 70
   192
  0
VERTEX
  5
171C
  8
0
 10
-937.5163295627075
 20
518.3542177526598
 30
-465.9999999998082
 70
   192
  0
VERTEX
  5
171D
  8
0
 10
-925.0123336550452
 20
540.0000000002071
 30
-465.9999999999409
 70
   192
  0
VERTEX
  5
171E
  8
0
 10
-919.2311451349827
 20
539.999999891532
 30
-461.1490068054295
 70
   192
  0
VERTEX
  5
171F
  8
0
 10
-913.4499567321684
 20
539.9999991323019
 30
-456.2980134711835
 70
   192
  0
VERTEX
  5
1720
  8
0
 10
-907.6687685638535
 20
539.9999970717187
 30
-451.4470198574714
 70
   192
  0
VERTEX
  5
1721
  8
0
 10
-928.8358189868225
 20
503.3394810138087
 30
-451.4470171127588
 70
   192
  0
VERTEX
  5
1722
  8
0
 10
-971.1669759655979
 20
503.3408601902382
 30
-451.4470156898865
 70
   192
  0
VERTEX
  5
1723
  8
0
 10
0.0
 20
0.0
 30
0.0
 70
   128
 71
     6
 72
     7
 73
    -8
  0
VERTEX
  5
1724
  8
0
 10
0.0
 20
0.0
 30
0.0
 70
   128
 71
     9
 72
    11
 73
     6
  0
VERTEX
  5
1725
  8
0
 10
0.0
 20
0.0
 30
0.0
 70
   128
 71
     8
 72
     9
 73
    -6
  0
VERTEX
  5
1726
  8
0
 10
0.0
 20
0.0
 30
0.0
 70
   128
 71
     9
 72
    10
 73
    11
  0
VERTEX
  5
1727
  8
0
 10
0.0
 20
0.0
 30
0.0
 70
   128
 71
    12
 72
     5
 73
     6
  0
VERTEX
  5
1728
  8
0
 10
0.0
 20
0.0
 30
0.0
 70
   128
 71
    11
 72
    12
 73
     6
  0
VERTEX
  5
1729
  8
0
 10
0.0
 20
0.0
 30
0.0
 70
   128
 71
    12
 72
     1
 73
     2
  0
VERTEX
  5
172A
  8
0
 10
0.0
 20
0.0
 30
0.0
 70
   128
 71
     3
 72
     5
 73
    12
  0
VERTEX
  5
172B
  8
0
 10
0.0
 20
0.0
 30
0.0
 70
   128
 71
     2
 72
     3
 73
    12
  0
VERTEX
  5
172C
  8
0
 10
0.0
 20
0.0
 30
0.0
 70
   128
 71
     3
 72
     4
 73
     5
  0
SEQEND
  5
17D4
  8
0
  0
POLYLINE
  5
172D
  8
0
 66
     1
 10
0.0
 20
0.0
 30
0.0
 70
    64
 71
    28
 72
    26
  0
VERTEX
  5
172E
  8
0
 10
-1700.874814798111
 20
3.12381449985287
 30
-33.4078293839499
 70
   192
  0
VERTEX
  5
172F
  8
0
 10
-1700.473807819897
 20
597.0427418537182
 30
-18.09399068474523
 70
   192
  0
VERTEX
  5
1730
  8
0
 10
-1700.06303417163
 20
598.8049982686625
 30
-18.05041587866499
 70
   192
  0
VERTEX
  5
1731
  8
0
 10
-1698.833294276761
 20
600.2690422973335
 30
-18.01825810761904
 70
   192
  0
VERTEX
  5
1732
  8
0
 10
-1697.167817827242
 20
600.9786269351027
 30
-18.00753885076665
 70
   192
  0
VERTEX
  5
1733
  8
0
 10
-4.221988427706606
 20
899.7337733070544
 30
-18.00753885057563
 70
   192
  0
VERTEX
  5
1734
  8
0
 10
-2.007384572491384
 20
899.4956012546661
 30
-18.02375876631117
 70
   192
  0
VERTEX
  5
1735
  8
0
 10
-0.1465953927875228
 20
897.937022319894
 30
-18.07241851361109
 70
   192
  0
VERTEX
  5
1736
  8
0
 10
0.4747601615305428
 20
895.7998223302305
 30
-18.1303591044368
 70
   192
  0
VERTEX
  5
1737
  8
0
 10
1.047436862768136
 20
47.82834593587984
 30
-39.99999999999999
 70
   192
  0
VERTEX
  5
1738
  8
0
 10
0.0477795377928629
 20
46.63683223075996
 30
-40.02617694830789
 70
   192
  0
VERTEX
  5
1739
  8
0
 10
-0.5257012038289722
 20
895.7988639764385
 30
-18.12583098927895
 70
   192
  0
VERTEX
  5
173A
  8
0
 10
-0.9917178694922043
 20
897.4017639687584
 30
-18.08237554615815
 70
   192
  0
VERTEX
  5
173B
  8
0
 10
-2.387309754275313
 20
898.5706981699062
 30
-18.04588073568141
 70
   192
  0
VERTEX
  5
173C
  8
0
 10
-4.048262645891871
 20
898.7493272101154
 30
-18.03371579885514
 70
   192
  0
VERTEX
  5
173D
  8
0
 10
-1696.994092045156
 20
599.9941808278323
 30
-18.03371579931381
 70
   192
  0
VERTEX
  5
173E
  8
0
 10
-1698.243199383968
 20
599.4619923597328
 30
-18.04175524168175
 70
   192
  0
VERTEX
  5
173F
  8
0
 10
-1699.165504305961
 20
598.363959338951
 30
-18.06587356994378
 70
   192
  0
VERTEX
  5
1740
  8
0
 10
-1699.473584544459
 20
597.042267028032
 30
-18.09855467448605
 70
   192
  0
VERTEX
  5
1741
  8
0
 10
-1699.874590814702
 20
3.124381158292465
 30
-33.41236651967702
 70
   192
  0
VERTEX
  5
1742
  8
0
 10
-1699.492587516518
 20
1.656532530868439
 30
-33.45195700834849
 70
   192
  0
VERTEX
  5
1743
  8
0
 10
-1698.344380875922
 20
0.506499076336666
 30
-33.48683863326538
 70
   192
  0
VERTEX
  5
1744
  8
0
 10
-1696.878002650156
 20
0.1230253737027603
 30
-33.50340053806565
 70
   192
  0
VERTEX
  5
1745
  8
0
 10
-264.4983538174079
 20
-0.047779537792579
 30
-40.02617694830788
 70
   192
  0
VERTEX
  5
1746
  8
0
 10
-275.9153323296441
 20
-1.047436862768151
 30
-40.00000000000001
 70
   192
  0
VERTEX
  5
1747
  8
0
 10
-1696.879363909933
 20
-0.8779932129332322
 30
-33.52920807514437
 70
   192
  0
VERTEX
  5
1748
  8
0
 10
-1698.834534877632
 20
-0.3666949428320242
 30
-33.50712553541608
 70
   192
  0
VERTEX
  5
1749
  8
0
 10
-1700.365477064635
 20
1.166682996559183
 30
-33.46061670221955
 70
   192
  0
VERTEX
  5
174A
  8
0
 10
0.0
 20
0.0
 30
0.0
 70
   128
 71
    23
 72
    24
 73
   -25
  0
VERTEX
  5
174B
  8
0
 10
0.0
 20
0.0
 30
0.0
 70
   128
 71
    10
 72
    11
 73
   -12
  0
VERTEX
  5
174C
  8
0
 10
0.0
 20
0.0
 30
0.0
 70
   128
 71
     9
 72
   -10
 73
   -12
  0
VERTEX
  5
174D
  8
0
 10
0.0
 20
0.0
 30
0.0
 70
   128
 71
     8
 72
    -9
 73
   -12
  0
VERTEX
  5
174E
  8
0
 10
0.0
 20
0.0
 30
0.0
 70
   128
 71
    12
 72
   -13
 73
    -8
  0
VERTEX
  5
174F
  8
0
 10
0.0
 20
0.0
 30
0.0
 70
   128
 71
   -14
 72
     7
 73
    -8
  0
VERTEX
  5
1750
  8
0
 10
0.0
 20
0.0
 30
0.0
 70
   128
 71
    13
 72
   -14
 73
    -8
  0
VERTEX
  5
1751
  8
0
 10
0.0
 20
0.0
 30
0.0
 70
   128
 71
    14
 72
   -15
 73
    -7
  0
VERTEX
  5
1752
  8
0
 10
0.0
 20
0.0
 30
0.0
 70
   128
 71
     5
 72
     6
 73
    -7
  0
VERTEX
  5
1753
  8
0
 10
0.0
 20
0.0
 30
0.0
 70
   128
 71
     4
 72
    -5
 73
    -7
  0
VERTEX
  5
1754
  8
0
 10
0.0
 20
0.0
 30
0.0
 70
   128
 71
   -16
 72
    -4
 73
    -7
  0
VERTEX
  5
1755
  8
0
 10
0.0
 20
0.0
 30
0.0
 70
   128
 71
    15
 72
   -16
 73
    -7
  0
VERTEX
  5
1756
  8
0
 10
0.0
 20
0.0
 30
0.0
 70
   128
 71
    16
 72
   -17
 73
    -4
  0
VERTEX
  5
1757
  8
0
 10
0.0
 20
0.0
 30
0.0
 70
   128
 71
   -18
 72
     3
 73
    -4
  0
VERTEX
  5
1758
  8
0
 10
0.0
 20
0.0
 30
0.0
 70
   128
 71
    17
 72
   -18
 73
    -4
  0
VERTEX
  5
1759
  8
0
 10
0.0
 20
0.0
 30
0.0
 70
   128
 71
    18
 72
   -19
 73
    -3
  0
VERTEX
  5
175A
  8
0
 10
0.0
 20
0.0
 30
0.0
 70
   128
 71
     1
 72
     2
 73
    -3
  0
VERTEX
  5
175B
  8
0
 10
0.0
 20
0.0
 30
0.0
 70
   128
 71
    28
 72
    -1
 73
    -3
  0
VERTEX
  5
175C
  8
0
 10
0.0
 20
0.0
 30
0.0
 70
   128
 71
   -20
 72
   -28
 73
    -3
  0
VERTEX
  5
175D
  8
0
 10
0.0
 20
0.0
 30
0.0
 70
   128
 71
    19
 72
   -20
 73
    -3
  0
VERTEX
  5
175E
  8
0
 10
0.0
 20
0.0
 30
0.0
 70
   128
 71
    20
 72
   -21
 73
   -28
  0
VERTEX
  5
175F
  8
0
 10
0.0
 20
0.0
 30
0.0
 70
   128
 71
   -22
 72
    27
 73
   -28
  0
VERTEX
  5
1760
  8
0
 10
0.0
 20
0.0
 30
0.0
 70
   128
 71
    21
 72
   -22
 73
   -28
  0
VERTEX
  5
1761
  8
0
 10
0.0
 20
0.0
 30
0.0
 70
   128
 71
    22
 72
   -23
 73
   -27
  0
VERTEX
  5
1762
  8
0
 10
0.0
 20
0.0
 30
0.0
 70
   128
 71
    25
 72
    26
 73
   -27
  0
VERTEX
  5
1763
  8
0
 10
0.0
 20
0.0
 30
0.0
 70
   128
 71
   -23
 72
   -25
 73
   -27
  0
SEQEND
  5
17D5
  8
0
  0
ENDBLK
  5
1765
  8
0
  0
ENDSEC
  0
SECTION
  2
ENTITIES
  0
INSERT
  5
C0
  8
0
  2
*X1
 10
0.0
 20
0.0
 30
0.0
  0
ENDSEC
  0
EOF
