  0
SECTION
  2
HEADER
  9
$ACADVER
  1
AC1009
  9
$DWGCODEPAGE
  3
ansi_1250
  9
$INSBASE
 10
0.0
 20
0.0
 30
0.0
  9
$EXTMIN
 10
-210.0
 20
-19.00000000001023
 30
-125.0000000000005
  9
$EXTMAX
 10
290.0
 20
130.0
 30
125.0
  9
$LIMMIN
 10
0.0
 20
0.0
  9
$LIMMAX
 10
420.0
 20
297.0
  9
$ORTHOMODE
 70
     0
  9
$REGENMODE
 70
     1
  9
$FILLMODE
 70
     1
  9
$QTEXTMODE
 70
     0
  9
$MIRRTEXT
 70
     0
  9
$DRAGMODE
 70
     2
  9
$LTSCALE
 40
1.0
  9
$OSMODE
 70
   511
  9
$ATTMODE
 70
     1
  9
$TEXTSIZE
 40
2.5
  9
$TRACEWID
 40
1.0
  9
$TEXTSTYLE
  7
STANDARD
  9
$CLAYER
  8
0
  9
$CELTYPE
  6
BYLAYER
  9
$CECOLOR
 62
   256
  9
$DIMSCALE
 40
1.0
  9
$DIMASZ
 40
2.5
  9
$DIMEXO
 40
0.625
  9
$DIMDLI
 40
3.75
  9
$DIMRND
 40
0.0
  9
$DIMDLE
 40
0.0
  9
$DIMEXE
 40
1.25
  9
$DIMTP
 40
0.0
  9
$DIMTM
 40
0.0
  9
$DIMTXT
 40
2.5
  9
$DIMCEN
 40
-2.5
  9
$DIMTSZ
 40
0.0
  9
$DIMTOL
 70
     0
  9
$DIMLIM
 70
     0
  9
$DIMTIH
 70
     0
  9
$DIMTOH
 70
     0
  9
$DIMSE1
 70
     0
  9
$DIMSE2
 70
     0
  9
$DIMTAD
 70
     1
  9
$DIMZIN
 70
     8
  9
$DIMBLK
  1

  9
$DIMASO
 70
     1
  9
$DIMSHO
 70
     1
  9
$DIMPOST
  1

  9
$DIMAPOST
  1

  9
$DIMALT
 70
     0
  9
$DIMALTD
 70
     3
  9
$DIMALTF
 40
0.03937007874016
  9
$DIMLFAC
 40
1.0
  9
$DIMTOFL
 70
     1
  9
$DIMTVP
 40
0.0
  9
$DIMTIX
 70
     0
  9
$DIMSOXD
 70
     0
  9
$DIMSAH
 70
     0
  9
$DIMBLK1
  1

  9
$DIMBLK2
  1

  9
$DIMSTYLE
  2
ISO-25
  9
$DIMCLRD
 70
     0
  9
$DIMCLRE
 70
     0
  9
$DIMCLRT
 70
     0
  9
$DIMTFAC
 40
1.0
  9
$DIMGAP
 40
0.625
  9
$LUNITS
 70
     2
  9
$LUPREC
 70
     3
  9
$SKETCHINC
 40
1.0
  9
$FILLETRAD
 40
10.0
  9
$AUNITS
 70
     0
  9
$AUPREC
 70
     0
  9
$MENU
  1
.
  9
$ELEVATION
 40
0.0
  9
$PELEVATION
 40
0.0
  9
$THICKNESS
 40
0.0
  9
$LIMCHECK
 70
     0
  9
$CHAMFERA
 40
10.0
  9
$CHAMFERB
 40
10.0
  9
$SKPOLY
 70
     0
  9
$TDCREATE
 40
2455022.720692848
  9
$TDUPDATE
 40
2460413.554961447
  9
$TDINDWG
 40
0.0002877083
  9
$TDUSRTIMER
 40
0.0002877083
  9
$USRTIMER
 70
     1
  9
$ANGBASE
 50
0.0
  9
$ANGDIR
 70
     0
  9
$PDMODE
 70
     0
  9
$PDSIZE
 40
0.0
  9
$PLINEWID
 40
0.0
  9
$COORDS
 70
     1
  9
$SPLFRAME
 70
     0
  9
$SPLINETYPE
 70
     6
  9
$SPLINESEGS
 70
     8
  9
$ATTDIA
 70
     0
  9
$ATTREQ
 70
     1
  9
$HANDLING
 70
     1
  9
$HANDSEED
  5
1904
  9
$SURFTAB1
 70
     6
  9
$SURFTAB2
 70
     6
  9
$SURFTYPE
 70
     6
  9
$SURFU
 70
     6
  9
$SURFV
 70
     6
  9
$UCSNAME
  2

  9
$UCSORG
 10
0.0
 20
0.0
 30
0.0
  9
$UCSXDIR
 10
1.0
 20
0.0
 30
0.0
  9
$UCSYDIR
 10
0.0
 20
1.0
 30
0.0
  9
$PUCSNAME
  2

  9
$PUCSORG
 10
0.0
 20
0.0
 30
0.0
  9
$PUCSXDIR
 10
1.0
 20
0.0
 30
0.0
  9
$PUCSYDIR
 10
0.0
 20
1.0
 30
0.0
  9
$USERI1
 70
     0
  9
$USERI2
 70
     0
  9
$USERI3
 70
     0
  9
$USERI4
 70
     0
  9
$USERI5
 70
     0
  9
$USERR1
 40
0.0
  9
$USERR2
 40
0.0
  9
$USERR3
 40
0.0
  9
$USERR4
 40
0.0
  9
$USERR5
 40
0.0
  9
$WORLDVIEW
 70
     1
  9
$SHADEDGE
 70
     3
  9
$SHADEDIF
 70
    70
  9
$TILEMODE
 70
     1
  9
$MAXACTVP
 70
    64
  9
$PLIMCHECK
 70
     0
  9
$PEXTMIN
 10
1.000000000000000E+20
 20
1.000000000000000E+20
 30
1.000000000000000E+20
  9
$PEXTMAX
 10
-1.000000000000000E+20
 20
-1.000000000000000E+20
 30
-1.000000000000000E+20
  9
$PLIMMIN
 10
0.0
 20
0.0
  9
$PLIMMAX
 10
0.0
 20
0.0
  9
$UNITMODE
 70
     0
  9
$VISRETAIN
 70
     1
  9
$PLINEGEN
 70
     0
  9
$PSLTSCALE
 70
     1
  0
ENDSEC
  0
SECTION
  2
TABLES
  0
TABLE
  2
VPORT
 70
     1
  0
VPORT
  2
*ACTIVE
 70
     0
 10
0.0
 20
0.0
 11
1.0
 21
1.0
 12
174.1869158878504
 22
55.4999999999949
 13
0.0
 23
0.0
 14
10.0
 24
10.0
 15
10.0
 25
10.0
 16
0.0
 26
0.0
 36
1.0
 17
-134.1869158878504
 27
0.0
 37
0.0
 40
269.7826086956522
 41
1.89041095890411
 42
50.0
 43
0.0
 44
0.0
 50
0.0
 51
0.0
 71
    16
 72
  1000
 73
     1
 74
     3
 75
     0
 76
     0
 77
     0
 78
     0
  0
ENDTAB
  0
TABLE
  2
LTYPE
 70
     1
  0
LTYPE
  2
CONTINUOUS
 70
     0
  3
Solid line
 72
    65
 73
     0
 40
0.0
  0
ENDTAB
  0
TABLE
  2
LAYER
 70
     1
  0
LAYER
  2
0
 70
     0
 62
     7
  6
CONTINUOUS
  0
ENDTAB
  0
TABLE
  2
STYLE
 70
     2
  0
STYLE
  2
STANDARD
 70
     0
 40
0.0
 41
1.0
 50
0.0
 71
     0
 42
2.5
  3
arial.ttf
  4

  0
STYLE
  2
ANNOTATIVE
 70
     0
 40
0.0
 41
1.0
 50
0.0
 71
     0
 42
2.5
  3
arial.ttf
  4

  0
ENDTAB
  0
TABLE
  2
VIEW
 70
     0
  0
ENDTAB
  0
TABLE
  2
UCS
 70
     0
  0
ENDTAB
  0
TABLE
  2
APPID
 70
     2
  0
APPID
  2
ACAD
 70
     0
  0
APPID
  2
ACADANNOTATIVE
 70
     0
  0
ENDTAB
  0
TABLE
  2
DIMSTYLE
 70
     2
  0
DIMSTYLE
  2
ISO-25
 70
     0
  3

  4

  5

  6

  7

 40
1.0
 41
2.5
 42
0.625
 43
3.75
 44
1.25
 45
0.0
 46
0.0
 47
0.0
 48
0.0
140
2.5
141
-2.5
142
0.0
143
0.03937007874016
144
1.0
145
0.0
146
1.0
147
0.625
 71
     0
 72
     0
 73
     0
 74
     0
 75
     0
 76
     0
 77
     1
 78
     8
170
     0
171
     3
172
     1
173
     0
174
     0
175
     0
176
     0
177
     0
178
     0
  0
DIMSTYLE
  2
ANNOTATIVE
 70
     0
  3

  4

  5

  6

  7

 40
0.0
 41
2.5
 42
0.625
 43
3.75
 44
1.25
 45
0.0
 46
0.0
 47
0.0
 48
0.0
140
2.5
141
-2.5
142
0.0
143
0.03937007874016
144
1.0
145
0.0
146
1.0
147
0.625
 71
     0
 72
     0
 73
     0
 74
     0
 75
     0
 76
     0
 77
     1
 78
     8
170
     0
171
     3
172
     1
173
     0
174
     0
175
     0
176
     0
177
     0
178
     0
  0
ENDTAB
  0
ENDSEC
  0
SECTION
  2
BLOCKS
  0
BLOCK
  8
0
  2
$MODEL_SPACE
 70
     0
 10
0.0
 20
0.0
 30
0.0
  3
$MODEL_SPACE
  1

  0
ENDBLK
  5
21
  8
0
  0
BLOCK
 67
     1
  8
0
  2
$PAPER_SPACE
 70
     0
 10
0.0
 20
0.0
 30
0.0
  3
$PAPER_SPACE
  1

  0
ENDBLK
  5
1D
 67
     1
  8
0
  0
BLOCK
  8
0
  2
*X1
 70
     1
 10
0.0
 20
0.0
 30
0.0
  3
*X1
  1

  0
POLYLINE
  5
CE9
  8
0
 66
     1
 10
0.0
 20
0.0
 30
0.0
 70
    64
 71
    12
 72
    10
  0
VERTEX
  5
CEA
  8
0
 10
-185.6456584190698
 20
97.94817431034468
 30
102.9464822497182
 70
   192
  0
VERTEX
  5
CEB
  8
0
 10
-183.539255489594
 20
96.96272897372339
 30
102.9464822497182
 70
   192
  0
VERTEX
  5
CEC
  8
0
 10
-184.8955332041926
 20
92.95362901447658
 30
109.8440475639523
 70
   192
  0
VERTEX
  5
CED
  8
0
 10
-181.8052656875207
 20
95.41311122115378
 30
102.9464822497182
 70
   192
  0
VERTEX
  5
CEE
  8
0
 10
-182.6507453900172
 20
94.77663342559799
 30
106.9202673658278
 70
   192
  0
VERTEX
  5
CEF
  8
0
 10
-194.8728183526192
 20
90.47687354742206
 30
106.9451698899701
 70
   192
  0
VERTEX
  5
CF0
  8
0
 10
-195.9452638109691
 20
90.42579580014127
 30
102.9464822497182
 70
   192
  0
VERTEX
  5
CF1
  8
0
 10
-194.8276754328809
 20
94.36651726676848
 30
102.9464822497182
 70
   192
  0
VERTEX
  5
CF2
  8
0
 10
-191.9061081319824
 20
97.23753345736966
 30
102.9464822497182
 70
   192
  0
VERTEX
  5
CF3
  8
0
 10
-187.946482249718
 20
98.286176548643
 30
102.9464822497182
 70
   192
  0
VERTEX
  5
CF4
  8
0
 10
-187.946482249718
 20
90.42579580014127
 30
110.9452638109693
 70
   192
  0
VERTEX
  5
CF5
  8
0
 10
-191.9451698899699
 20
90.47687354742206
 30
109.8728183526194
 70
   192
  0
VERTEX
  5
CF6
  8
0
 10
0.0
 20
0.0
 30
0.0
 70
   128
 71
     1
 72
     2
 73
     3
  0
VERTEX
  5
CF7
  8
0
 10
0.0
 20
0.0
 30
0.0
 70
   128
 71
     2
 72
     4
 73
     5
  0
VERTEX
  5
CF8
  8
0
 10
0.0
 20
0.0
 30
0.0
 70
   128
 71
     5
 72
     3
 73
     2
  0
VERTEX
  5
CF9
  8
0
 10
0.0
 20
0.0
 30
0.0
 70
   128
 71
     6
 72
     7
 73
     8
  0
VERTEX
  5
CFA
  8
0
 10
0.0
 20
0.0
 30
0.0
 70
   128
 71
     6
 72
     8
 73
     9
  0
VERTEX
  5
CFB
  8
0
 10
0.0
 20
0.0
 30
0.0
 70
   128
 71
    10
 72
     1
 73
     3
  0
VERTEX
  5
CFC
  8
0
 10
0.0
 20
0.0
 30
0.0
 70
   128
 71
    11
 72
    10
 73
     3
  0
VERTEX
  5
CFD
  8
0
 10
0.0
 20
0.0
 30
0.0
 70
   128
 71
     9
 72
    10
 73
    11
  0
VERTEX
  5
CFE
  8
0
 10
0.0
 20
0.0
 30
0.0
 70
   128
 71
     6
 72
     9
 73
    11
  0
VERTEX
  5
CFF
  8
0
 10
0.0
 20
0.0
 30
0.0
 70
   128
 71
    12
 72
     6
 73
    11
  0
SEQEND
  5
187C
  8
0
  0
POLYLINE
  5
D00
  8
0
 66
     1
 10
0.0
 20
0.0
 30
0.0
 70
    64
 71
    13
 72
    11
  0
VERTEX
  5
D01
  8
0
 10
-185.6456584190698
 20
97.94817431034468
 30
-102.9464822497182
 70
   192
  0
VERTEX
  5
D02
  8
0
 10
-183.539255489594
 20
96.96272897372339
 30
-102.9464822497182
 70
   192
  0
VERTEX
  5
D03
  8
0
 10
-181.8397852019775
 20
95.36787607397547
 30
-102.005960532078
 70
   192
  0
VERTEX
  5
D04
  8
0
 10
-181.8052656875207
 20
95.41311122115378
 30
-102.9464822497182
 70
   192
  0
VERTEX
  5
D05
  8
0
 10
-194.5208764829116
 20
94.2785461183917
 30
-100.7468628087478
 70
   192
  0
VERTEX
  5
D06
  8
0
 10
-195.9452638109691
 20
90.4257958001413
 30
-102.9464822497182
 70
   192
  0
VERTEX
  5
D07
  8
0
 10
-194.8276754328809
 20
94.36651726676843
 30
-102.9464822497182
 70
   192
  0
VERTEX
  5
D08
  8
0
 10
-190.8662399399811
 20
96.77695430524706
 30
-99.29342611210915
 70
   192
  0
VERTEX
  5
D09
  8
0
 10
-191.9061081319824
 20
97.23753345736965
 30
-102.9464822497182
 70
   192
  0
VERTEX
  5
D0A
  8
0
 10
-187.946482249718
 20
98.286176548643
 30
-102.9464822497182
 70
   192
  0
VERTEX
  5
D0B
  8
0
 10
-181.9590178595276
 20
95.25214672417312
 30
-101.078485892134
 70
   192
  0
VERTEX
  5
D0C
  8
0
 10
-186.2211262419919
 20
97.07347871663721
 30
-99.07922535019051
 70
   192
  0
VERTEX
  5
D0D
  8
0
 10
-182.1613096444076
 20
95.06752858902767
 30
-100.1769244162951
 70
   192
  0
VERTEX
  5
D0E
  8
0
 10
0.0
 20
0.0
 30
0.0
 70
   128
 71
     1
 72
     2
 73
     3
  0
VERTEX
  5
D0F
  8
0
 10
0.0
 20
0.0
 30
0.0
 70
   128
 71
     2
 72
     4
 73
     3
  0
VERTEX
  5
D10
  8
0
 10
0.0
 20
0.0
 30
0.0
 70
   128
 71
     5
 72
     6
 73
     7
  0
VERTEX
  5
D11
  8
0
 10
0.0
 20
0.0
 30
0.0
 70
   128
 71
     8
 72
     9
 73
    10
  0
VERTEX
  5
D12
  8
0
 10
0.0
 20
0.0
 30
0.0
 70
   128
 71
     1
 72
     3
 73
    11
  0
VERTEX
  5
D13
  8
0
 10
0.0
 20
0.0
 30
0.0
 70
   128
 71
    10
 72
     1
 73
    11
  0
VERTEX
  5
D14
  8
0
 10
0.0
 20
0.0
 30
0.0
 70
   128
 71
    12
 72
    10
 73
    11
  0
VERTEX
  5
D15
  8
0
 10
0.0
 20
0.0
 30
0.0
 70
   128
 71
     5
 72
     7
 73
     9
  0
VERTEX
  5
D16
  8
0
 10
0.0
 20
0.0
 30
0.0
 70
   128
 71
    12
 72
    11
 73
    13
  0
VERTEX
  5
D17
  8
0
 10
0.0
 20
0.0
 30
0.0
 70
   128
 71
     8
 72
    10
 73
    12
  0
VERTEX
  5
D18
  8
0
 10
0.0
 20
0.0
 30
0.0
 70
   128
 71
     5
 72
     9
 73
     8
  0
SEQEND
  5
187D
  8
0
  0
POLYLINE
  5
D19
  8
0
 66
     1
 10
0.0
 20
0.0
 30
0.0
 70
    64
 71
    10
 72
     8
  0
VERTEX
  5
D1A
  8
0
 10
217.5
 20
130.0
 30
-0.0000000000000011
 70
   192
  0
VERTEX
  5
D1B
  8
0
 10
252.5
 20
130.0
 30
0.0
 70
   192
  0
VERTEX
  5
D1C
  8
0
 10
252.5
 20
117.0
 30
-0.0000000000000019
 70
   192
  0
VERTEX
  5
D1D
  8
0
 10
217.5
 20
117.0
 30
0.0000000000000021
 70
   192
  0
VERTEX
  5
D1E
  8
0
 10
235.0
 20
117.0
 30
-17.50000000000001
 70
   192
  0
VERTEX
  5
D1F
  8
0
 10
235.0
 20
130.0
 30
-17.5
 70
   192
  0
VERTEX
  5
D20
  8
0
 10
222.6256313292354
 20
117.0
 30
-12.37436867076459
 70
   192
  0
VERTEX
  5
D21
  8
0
 10
222.6256313292354
 20
130.0
 30
-12.37436867076458
 70
   192
  0
VERTEX
  5
D22
  8
0
 10
247.3743686707646
 20
117.0
 30
-12.37436867076459
 70
   192
  0
VERTEX
  5
D23
  8
0
 10
247.3743686707646
 20
130.0
 30
-12.37436867076458
 70
   192
  0
VERTEX
  5
D24
  8
0
 10
0.0
 20
0.0
 30
0.0
 70
   128
 71
     8
 72
     1
 73
    -4
  0
VERTEX
  5
D25
  8
0
 10
0.0
 20
0.0
 30
0.0
 70
   128
 71
     7
 72
    -8
 73
     4
  0
VERTEX
  5
D26
  8
0
 10
0.0
 20
0.0
 30
0.0
 70
   128
 71
     6
 72
     8
 73
    -7
  0
VERTEX
  5
D27
  8
0
 10
0.0
 20
0.0
 30
0.0
 70
   128
 71
     5
 72
    -6
 73
     7
  0
VERTEX
  5
D28
  8
0
 10
0.0
 20
0.0
 30
0.0
 70
   128
 71
    10
 72
     6
 73
    -5
  0
VERTEX
  5
D29
  8
0
 10
0.0
 20
0.0
 30
0.0
 70
   128
 71
     9
 72
   -10
 73
     5
  0
VERTEX
  5
D2A
  8
0
 10
0.0
 20
0.0
 30
0.0
 70
   128
 71
     2
 72
    10
 73
    -9
  0
VERTEX
  5
D2B
  8
0
 10
0.0
 20
0.0
 30
0.0
 70
   128
 71
     3
 72
    -2
 73
     9
  0
SEQEND
  5
187E
  8
0
  0
POLYLINE
  5
D2C
  8
0
 66
     1
 10
0.0
 20
0.0
 30
0.0
 70
    64
 71
    10
 72
     8
  0
VERTEX
  5
D2D
  8
0
 10
125.3394383394384
 20
-18.99999999999999
 30
-0.0000000000000024
 70
   192
  0
VERTEX
  5
D2E
  8
0
 10
81.3394383394384
 20
-19.00000000000001
 30
0.0000000000000027
 70
   192
  0
VERTEX
  5
D2F
  8
0
 10
81.3394383394384
 20
-8.082903768654731
 30
-0.0000000000000024
 70
   192
  0
VERTEX
  5
D30
  8
0
 10
125.3394383394384
 20
-8.082903768654727
 30
0.0000000000000027
 70
   192
  0
VERTEX
  5
D31
  8
0
 10
103.3394383394384
 20
-8.08290376865473
 30
-21.99999999999999
 70
   192
  0
VERTEX
  5
D32
  8
0
 10
103.3394383394384
 20
-19.0
 30
-21.99999999999999
 70
   192
  0
VERTEX
  5
D33
  8
0
 10
118.8957875255424
 20
-8.082903768654727
 30
-15.55634918610404
 70
   192
  0
VERTEX
  5
D34
  8
0
 10
118.8957875255424
 20
-19.0
 30
-15.55634918610404
 70
   192
  0
VERTEX
  5
D35
  8
0
 10
87.78308915333436
 20
-8.082903768654731
 30
-15.55634918610404
 70
   192
  0
VERTEX
  5
D36
  8
0
 10
87.78308915333436
 20
-19.0
 30
-15.55634918610404
 70
   192
  0
VERTEX
  5
D37
  8
0
 10
0.0
 20
0.0
 30
0.0
 70
   128
 71
     8
 72
     1
 73
    -4
  0
VERTEX
  5
D38
  8
0
 10
0.0
 20
0.0
 30
0.0
 70
   128
 71
     7
 72
    -8
 73
     4
  0
VERTEX
  5
D39
  8
0
 10
0.0
 20
0.0
 30
0.0
 70
   128
 71
     6
 72
     8
 73
    -7
  0
VERTEX
  5
D3A
  8
0
 10
0.0
 20
0.0
 30
0.0
 70
   128
 71
     5
 72
    -6
 73
     7
  0
VERTEX
  5
D3B
  8
0
 10
0.0
 20
0.0
 30
0.0
 70
   128
 71
    10
 72
     6
 73
    -5
  0
VERTEX
  5
D3C
  8
0
 10
0.0
 20
0.0
 30
0.0
 70
   128
 71
     9
 72
   -10
 73
     5
  0
VERTEX
  5
D3D
  8
0
 10
0.0
 20
0.0
 30
0.0
 70
   128
 71
     2
 72
    10
 73
    -9
  0
VERTEX
  5
D3E
  8
0
 10
0.0
 20
0.0
 30
0.0
 70
   128
 71
     3
 72
    -2
 73
     9
  0
SEQEND
  5
187F
  8
0
  0
POLYLINE
  5
D3F
  8
0
 66
     1
 10
0.0
 20
0.0
 30
0.0
 70
    64
 71
    16
 72
    14
  0
VERTEX
  5
D40
  8
0
 10
125.3394383394384
 20
-8.082903768654727
 30
0.0000000000000027
 70
   192
  0
VERTEX
  5
D41
  8
0
 10
138.6464838960896
 20
-0.4000774344035466
 30
0.0000000000000043
 70
   192
  0
VERTEX
  5
D42
  8
0
 10
138.5428954959346
 20
-0.400692885817909
 30
-2.68604591924652
 70
   192
  0
VERTEX
  5
D43
  8
0
 10
138.2354578086322
 20
-0.4013083372322981
 30
-5.356378635478758
 70
   192
  0
VERTEX
  5
D44
  8
0
 10
137.7259641245716
 20
-0.401923788646689
 30
-7.99552988795179
 70
   192
  0
VERTEX
  5
D45
  8
0
 10
80.56380392145658
 20
-0.4019237886466934
 30
-26.97465719187556
 70
   192
  0
VERTEX
  5
D46
  8
0
 10
87.78308915333436
 20
-8.082903768654731
 30
-15.55634918610404
 70
   192
  0
VERTEX
  5
D47
  8
0
 10
103.3394383394384
 20
-8.08290376865473
 30
-21.99999999999999
 70
   192
  0
VERTEX
  5
D48
  8
0
 10
102.6327619484431
 20
-0.4019237886466916
 30
-35.2967741052801
 70
   192
  0
VERTEX
  5
D49
  8
0
 10
81.3394383394384
 20
-8.082903768654731
 30
-0.0000000000000024
 70
   192
  0
VERTEX
  5
D4A
  8
0
 10
68.66043992287467
 20
-0.4019237886466944
 30
-6.61276966064384
 70
   192
  0
VERTEX
  5
D4B
  8
0
 10
68.26380942888831
 20
-0.3733561307503181
 30
-4.422481428766918
 70
   192
  0
VERTEX
  5
D4C
  8
0
 10
67.94512092947927
 20
-0.3095244513787617
 30
-2.220408391744587
 70
   192
  0
VERTEX
  5
D4D
  8
0
 10
67.8070409953859
 20
-0.2699705192850875
 30
-0.0000000000000005
 70
   192
  0
VERTEX
  5
D4E
  8
0
 10
118.8957875255424
 20
-8.082903768654727
 30
-15.55634918610404
 70
   192
  0
VERTEX
  5
D4F
  8
0
 10
125.0171353517251
 20
-0.4019237886466898
 30
-27.86465693318794
 70
   192
  0
VERTEX
  5
D50
  8
0
 10
0.0
 20
0.0
 30
0.0
 70
   128
 71
     1
 72
     2
 73
     3
  0
VERTEX
  5
D51
  8
0
 10
0.0
 20
0.0
 30
0.0
 70
   128
 71
     3
 72
     4
 73
     1
  0
VERTEX
  5
D52
  8
0
 10
0.0
 20
0.0
 30
0.0
 70
   128
 71
     4
 72
     5
 73
     1
  0
VERTEX
  5
D53
  8
0
 10
0.0
 20
0.0
 30
0.0
 70
   128
 71
     6
 72
     7
 73
     8
  0
VERTEX
  5
D54
  8
0
 10
0.0
 20
0.0
 30
0.0
 70
   128
 71
     9
 72
     6
 73
     8
  0
VERTEX
  5
D55
  8
0
 10
0.0
 20
0.0
 30
0.0
 70
   128
 71
    10
 72
     7
 73
    11
  0
VERTEX
  5
D56
  8
0
 10
0.0
 20
0.0
 30
0.0
 70
   128
 71
    11
 72
    12
 73
    10
  0
VERTEX
  5
D57
  8
0
 10
0.0
 20
0.0
 30
0.0
 70
   128
 71
    12
 72
    13
 73
    10
  0
VERTEX
  5
D58
  8
0
 10
0.0
 20
0.0
 30
0.0
 70
   128
 71
    13
 72
    14
 73
    10
  0
VERTEX
  5
D59
  8
0
 10
0.0
 20
0.0
 30
0.0
 70
   128
 71
    15
 72
     1
 73
     5
  0
VERTEX
  5
D5A
  8
0
 10
0.0
 20
0.0
 30
0.0
 70
   128
 71
    16
 72
    15
 73
     5
  0
VERTEX
  5
D5B
  8
0
 10
0.0
 20
0.0
 30
0.0
 70
   128
 71
     8
 72
    15
 73
    16
  0
VERTEX
  5
D5C
  8
0
 10
0.0
 20
0.0
 30
0.0
 70
   128
 71
     9
 72
     8
 73
    16
  0
VERTEX
  5
D5D
  8
0
 10
0.0
 20
0.0
 30
0.0
 70
   128
 71
    11
 72
     7
 73
     6
  0
SEQEND
  5
1880
  8
0
  0
POLYLINE
  5
D5E
  8
0
 66
     1
 10
0.0
 20
0.0
 30
0.0
 70
    64
 71
    12
 72
    10
  0
VERTEX
  5
D5F
  8
0
 10
201.0011788928247
 20
87.89013768961357
 30
58.578291507244
 70
   192
  0
VERTEX
  5
D60
  8
0
 10
200.1102184994625
 20
70.88960064052472
 30
40.0
 70
   192
  0
VERTEX
  5
D61
  8
0
 10
200.6793540363756
 20
71.54985288299504
 30
40.0
 70
   192
  0
VERTEX
  5
D62
  8
0
 10
201.5373913614096
 20
87.92218036513883
 30
57.89178022653309
 70
   192
  0
VERTEX
  5
D63
  8
0
 10
200.8075965996681
 20
87.82603406322998
 30
59.42579661278904
 70
   192
  0
VERTEX
  5
D64
  8
0
 10
200.3357414751613
 20
78.82250193571095
 30
56.29201232255227
 70
   192
  0
VERTEX
  5
D65
  8
0
 10
199.9982529537452
 20
72.3828373280318
 30
49.25470721007899
 70
   192
  0
VERTEX
  5
D66
  8
0
 10
199.8759923461366
 20
70.0499659627258
 30
40.0
 70
   192
  0
VERTEX
  5
D67
  8
0
 10
201.4752847917369
 20
71.90529980692918
 30
40.0
 70
   192
  0
VERTEX
  5
D68
  8
0
 10
201.5854040327517
 20
74.0065000966793
 30
48.33564754601075
 70
   192
  0
VERTEX
  5
D69
  8
0
 10
201.88937749204
 20
79.80665922280197
 30
54.67409713277147
 70
   192
  0
VERTEX
  5
D6A
  8
0
 10
202.3143739745202
 20
87.91607519681011
 30
57.49667387514432
 70
   192
  0
VERTEX
  5
D6B
  8
0
 10
0.0
 20
0.0
 30
0.0
 70
   128
 71
     1
 72
     2
 73
    -3
  0
VERTEX
  5
D6C
  8
0
 10
0.0
 20
0.0
 30
0.0
 70
   128
 71
     4
 72
    -1
 73
     3
  0
VERTEX
  5
D6D
  8
0
 10
0.0
 20
0.0
 30
0.0
 70
   128
 71
     1
 72
     5
 73
     6
  0
VERTEX
  5
D6E
  8
0
 10
0.0
 20
0.0
 30
0.0
 70
   128
 71
     6
 72
     7
 73
     1
  0
VERTEX
  5
D6F
  8
0
 10
0.0
 20
0.0
 30
0.0
 70
   128
 71
     1
 72
     7
 73
     8
  0
VERTEX
  5
D70
  8
0
 10
0.0
 20
0.0
 30
0.0
 70
   128
 71
     2
 72
     1
 73
     8
  0
VERTEX
  5
D71
  8
0
 10
0.0
 20
0.0
 30
0.0
 70
   128
 71
     3
 72
     9
 73
    10
  0
VERTEX
  5
D72
  8
0
 10
0.0
 20
0.0
 30
0.0
 70
   128
 71
    11
 72
     4
 73
    -3
  0
VERTEX
  5
D73
  8
0
 10
0.0
 20
0.0
 30
0.0
 70
   128
 71
    10
 72
   -11
 73
     3
  0
VERTEX
  5
D74
  8
0
 10
0.0
 20
0.0
 30
0.0
 70
   128
 71
    11
 72
    12
 73
     4
  0
SEQEND
  5
1881
  8
0
  0
POLYLINE
  5
D75
  8
0
 66
     1
 10
0.0
 20
0.0
 30
0.0
 70
    64
 71
     8
 72
     6
  0
VERTEX
  5
D76
  8
0
 10
-96.01920405705229
 20
37.60464866964656
 30
110.8184575346909
 70
   192
  0
VERTEX
  5
D77
  8
0
 10
-96.01920405705229
 20
40.47566486024778
 30
107.8968902337925
 70
   192
  0
VERTEX
  5
D78
  8
0
 10
180.2435803102991
 20
40.06587458956456
 30
108.5424685728448
 70
   192
  0
VERTEX
  5
D79
  8
0
 10
180.2435803102991
 20
36.8330695384356
 30
111.2209513822122
 70
   192
  0
VERTEX
  5
D7A
  8
0
 10
-96.01920405705229
 20
41.52430795152116
 30
103.9372643515281
 70
   192
  0
VERTEX
  5
D7B
  8
0
 10
180.243580310299
 20
41.5243079515209
 30
103.937264351528
 70
   192
  0
VERTEX
  5
D7C
  8
0
 10
-96.01920405705229
 20
33.66392720301945
 30
111.9360459127791
 70
   192
  0
VERTEX
  5
D7D
  8
0
 10
180.243580310299
 20
33.66392720301925
 30
111.936045912779
 70
   192
  0
VERTEX
  5
D7E
  8
0
 10
0.0
 20
0.0
 30
0.0
 70
   128
 71
     1
 72
     2
 73
     3
  0
VERTEX
  5
D7F
  8
0
 10
0.0
 20
0.0
 30
0.0
 70
   128
 71
     4
 72
     1
 73
     3
  0
VERTEX
  5
D80
  8
0
 10
0.0
 20
0.0
 30
0.0
 70
   128
 71
     2
 72
     5
 73
     6
  0
VERTEX
  5
D81
  8
0
 10
0.0
 20
0.0
 30
0.0
 70
   128
 71
     3
 72
     2
 73
     6
  0
VERTEX
  5
D82
  8
0
 10
0.0
 20
0.0
 30
0.0
 70
   128
 71
     7
 72
     1
 73
     4
  0
VERTEX
  5
D83
  8
0
 10
0.0
 20
0.0
 30
0.0
 70
   128
 71
     8
 72
     7
 73
     4
  0
SEQEND
  5
1882
  8
0
  0
POLYLINE
  5
D84
  8
0
 66
     1
 10
0.0
 20
0.0
 30
0.0
 70
    64
 71
     8
 72
     6
  0
VERTEX
  5
D85
  8
0
 10
-96.01920405705229
 20
40.73494124308488
 30
100.4721860645923
 70
   192
  0
VERTEX
  5
D86
  8
0
 10
-96.01920405705229
 20
38.52261606787287
 30
97.69091213811474
 70
   192
  0
VERTEX
  5
D87
  8
0
 10
180.243580310299
 20
37.93520880045479
 30
97.26313866340408
 70
   192
  0
VERTEX
  5
D88
  8
0
 10
180.243580310299
 20
40.41663514169388
 30
99.87575897745755
 70
   192
  0
VERTEX
  5
D89
  8
0
 10
-96.01920405705229
 20
35.3239163862721
 30
96.14230383324612
 70
   192
  0
VERTEX
  5
D8A
  8
0
 10
180.243580310299
 20
35.32391638627193
 30
96.1423038332461
 70
   192
  0
VERTEX
  5
D8B
  8
0
 10
-96.01920405705232
 20
41.5243079515209
 30
103.9372643515281
 70
   192
  0
VERTEX
  5
D8C
  8
0
 10
180.243580310299
 20
41.5243079515209
 30
103.937264351528
 70
   192
  0
VERTEX
  5
D8D
  8
0
 10
0.0
 20
0.0
 30
0.0
 70
   128
 71
     1
 72
     2
 73
     3
  0
VERTEX
  5
D8E
  8
0
 10
0.0
 20
0.0
 30
0.0
 70
   128
 71
     4
 72
     1
 73
     3
  0
VERTEX
  5
D8F
  8
0
 10
0.0
 20
0.0
 30
0.0
 70
   128
 71
     2
 72
     5
 73
     6
  0
VERTEX
  5
D90
  8
0
 10
0.0
 20
0.0
 30
0.0
 70
   128
 71
     3
 72
     2
 73
     6
  0
VERTEX
  5
D91
  8
0
 10
0.0
 20
0.0
 30
0.0
 70
   128
 71
     7
 72
     1
 73
     4
  0
VERTEX
  5
D92
  8
0
 10
0.0
 20
0.0
 30
0.0
 70
   128
 71
     8
 72
     7
 73
     4
  0
SEQEND
  5
1883
  8
0
  0
POLYLINE
  5
D93
  8
0
 66
     1
 10
0.0
 20
0.0
 30
0.0
 70
    64
 71
    12
 72
    10
  0
VERTEX
  5
D94
  8
0
 10
200.6793540363756
 20
71.54985288299504
 30
40.0
 70
   192
  0
VERTEX
  5
D95
  8
0
 10
200.1102184994625
 20
70.88960064052472
 30
40.0
 70
   192
  0
VERTEX
  5
D96
  8
0
 10
201.0011788928247
 20
87.89013768961357
 30
21.42170849275595
 70
   192
  0
VERTEX
  5
D97
  8
0
 10
201.5373913614096
 20
87.92218036513883
 30
22.10821977346686
 70
   192
  0
VERTEX
  5
D98
  8
0
 10
199.8759923461364
 20
70.04996596272585
 30
40.0
 70
   192
  0
VERTEX
  5
D99
  8
0
 10
199.9982529537452
 20
72.3828373280318
 30
30.74529278992101
 70
   192
  0
VERTEX
  5
D9A
  8
0
 10
200.3357414751613
 20
78.82250193571096
 30
23.70798767744773
 70
   192
  0
VERTEX
  5
D9B
  8
0
 10
200.8075965996681
 20
87.82603406322998
 30
20.57420338721095
 70
   192
  0
VERTEX
  5
D9C
  8
0
 10
202.31437397452
 20
87.91607519681014
 30
22.50332612485561
 70
   192
  0
VERTEX
  5
D9D
  8
0
 10
201.88937749204
 20
79.80665922280197
 30
25.32590286722854
 70
   192
  0
VERTEX
  5
D9E
  8
0
 10
201.5854040327517
 20
74.0065000966793
 30
31.66435245398926
 70
   192
  0
VERTEX
  5
D9F
  8
0
 10
201.4752847917369
 20
71.90529980692918
 30
40.0
 70
   192
  0
VERTEX
  5
DA0
  8
0
 10
0.0
 20
0.0
 30
0.0
 70
   128
 71
     1
 72
     2
 73
    -3
  0
VERTEX
  5
DA1
  8
0
 10
0.0
 20
0.0
 30
0.0
 70
   128
 71
     4
 72
    -1
 73
     3
  0
VERTEX
  5
DA2
  8
0
 10
0.0
 20
0.0
 30
0.0
 70
   128
 71
     2
 72
     5
 73
     6
  0
VERTEX
  5
DA3
  8
0
 10
0.0
 20
0.0
 30
0.0
 70
   128
 71
     6
 72
    -7
 73
     2
  0
VERTEX
  5
DA4
  8
0
 10
0.0
 20
0.0
 30
0.0
 70
   128
 71
     7
 72
     8
 73
     3
  0
VERTEX
  5
DA5
  8
0
 10
0.0
 20
0.0
 30
0.0
 70
   128
 71
    -2
 72
     7
 73
     3
  0
VERTEX
  5
DA6
  8
0
 10
0.0
 20
0.0
 30
0.0
 70
   128
 71
     4
 72
     9
 73
    10
  0
VERTEX
  5
DA7
  8
0
 10
0.0
 20
0.0
 30
0.0
 70
   128
 71
    11
 72
     1
 73
    -4
  0
VERTEX
  5
DA8
  8
0
 10
0.0
 20
0.0
 30
0.0
 70
   128
 71
    10
 72
   -11
 73
     4
  0
VERTEX
  5
DA9
  8
0
 10
0.0
 20
0.0
 30
0.0
 70
   128
 71
    11
 72
    12
 73
     1
  0
SEQEND
  5
1884
  8
0
  0
POLYLINE
  5
DAA
  8
0
 66
     1
 10
0.0
 20
0.0
 30
0.0
 70
    64
 71
    16
 72
    14
  0
VERTEX
  5
DAB
  8
0
 10
81.3394383394384
 20
-8.082903768654731
 30
0.0
 70
   192
  0
VERTEX
  5
DAC
  8
0
 10
67.80704099538592
 20
-0.2699705192850731
 30
0.0
 70
   192
  0
VERTEX
  5
DAD
  8
0
 10
67.9415383774478
 20
-0.3085713058146271
 30
2.189320802209562
 70
   192
  0
VERTEX
  5
DAE
  8
0
 10
68.26503060085838
 20
-0.3735285887558957
 30
4.429742244527003
 70
   192
  0
VERTEX
  5
DAF
  8
0
 10
68.6604399228746
 20
-0.4019237886466965
 30
6.61276966064384
 70
   192
  0
VERTEX
  5
DB0
  8
0
 10
102.6327619484431
 20
-0.4019237886466916
 30
35.29677410528009
 70
   192
  0
VERTEX
  5
DB1
  8
0
 10
103.3394383394384
 20
-8.08290376865473
 30
22.0
 70
   192
  0
VERTEX
  5
DB2
  8
0
 10
87.78308915333436
 20
-8.082903768654731
 30
15.55634918610404
 70
   192
  0
VERTEX
  5
DB3
  8
0
 10
80.5638039214566
 20
-0.4019237886466934
 30
26.97465719187557
 70
   192
  0
VERTEX
  5
DB4
  8
0
 10
118.8957875255424
 20
-8.082903768654727
 30
15.55634918610404
 70
   192
  0
VERTEX
  5
DB5
  8
0
 10
125.0171353517251
 20
-0.4019237886466898
 30
27.86465693318789
 70
   192
  0
VERTEX
  5
DB6
  8
0
 10
125.3394383394384
 20
-8.082903768654743
 30
0.0000000000000027
 70
   192
  0
VERTEX
  5
DB7
  8
0
 10
137.7259641245716
 20
-0.4019237886466888
 30
7.995529887951696
 70
   192
  0
VERTEX
  5
DB8
  8
0
 10
138.1665293123165
 20
-0.4014622137984951
 30
5.787279477591914
 70
   192
  0
VERTEX
  5
DB9
  8
0
 10
138.5555524972873
 20
-0.4004364614411772
 30
2.52801869175002
 70
   192
  0
VERTEX
  5
DBA
  8
0
 10
138.6464838960896
 20
-0.4000774344035466
 30
0.0000000000000043
 70
   192
  0
VERTEX
  5
DBB
  8
0
 10
0.0
 20
0.0
 30
0.0
 70
   128
 71
     1
 72
     2
 73
     3
  0
VERTEX
  5
DBC
  8
0
 10
0.0
 20
0.0
 30
0.0
 70
   128
 71
     3
 72
     4
 73
     1
  0
VERTEX
  5
DBD
  8
0
 10
0.0
 20
0.0
 30
0.0
 70
   128
 71
     4
 72
     5
 73
     1
  0
VERTEX
  5
DBE
  8
0
 10
0.0
 20
0.0
 30
0.0
 70
   128
 71
     6
 72
     7
 73
     8
  0
VERTEX
  5
DBF
  8
0
 10
0.0
 20
0.0
 30
0.0
 70
   128
 71
     9
 72
     6
 73
     8
  0
VERTEX
  5
DC0
  8
0
 10
0.0
 20
0.0
 30
0.0
 70
   128
 71
    10
 72
     7
 73
    11
  0
VERTEX
  5
DC1
  8
0
 10
0.0
 20
0.0
 30
0.0
 70
   128
 71
    12
 72
    10
 73
    13
  0
VERTEX
  5
DC2
  8
0
 10
0.0
 20
0.0
 30
0.0
 70
   128
 71
    13
 72
    14
 73
    12
  0
VERTEX
  5
DC3
  8
0
 10
0.0
 20
0.0
 30
0.0
 70
   128
 71
    14
 72
    15
 73
    12
  0
VERTEX
  5
DC4
  8
0
 10
0.0
 20
0.0
 30
0.0
 70
   128
 71
    15
 72
    16
 73
    12
  0
VERTEX
  5
DC5
  8
0
 10
0.0
 20
0.0
 30
0.0
 70
   128
 71
     8
 72
     1
 73
     5
  0
VERTEX
  5
DC6
  8
0
 10
0.0
 20
0.0
 30
0.0
 70
   128
 71
     9
 72
     8
 73
     5
  0
VERTEX
  5
DC7
  8
0
 10
0.0
 20
0.0
 30
0.0
 70
   128
 71
    11
 72
     7
 73
     6
  0
VERTEX
  5
DC8
  8
0
 10
0.0
 20
0.0
 30
0.0
 70
   128
 71
    13
 72
    10
 73
    11
  0
SEQEND
  5
1885
  8
0
  0
POLYLINE
  5
DC9
  8
0
 66
     1
 10
0.0
 20
0.0
 30
0.0
 70
    64
 71
    10
 72
     8
  0
VERTEX
  5
DCA
  8
0
 10
81.3394383394384
 20
-19.00000000000001
 30
0.0
 70
   192
  0
VERTEX
  5
DCB
  8
0
 10
125.3394383394384
 20
-18.99999999999999
 30
0.0000000000000027
 70
   192
  0
VERTEX
  5
DCC
  8
0
 10
125.3394383394384
 20
-8.082903768654727
 30
0.0000000000000027
 70
   192
  0
VERTEX
  5
DCD
  8
0
 10
81.3394383394384
 20
-8.082903768654731
 30
0.0
 70
   192
  0
VERTEX
  5
DCE
  8
0
 10
103.3394383394384
 20
-8.08290376865473
 30
22.0
 70
   192
  0
VERTEX
  5
DCF
  8
0
 10
103.3394383394384
 20
-19.0
 30
22.0
 70
   192
  0
VERTEX
  5
DD0
  8
0
 10
87.78308915333436
 20
-8.082903768654731
 30
15.55634918610404
 70
   192
  0
VERTEX
  5
DD1
  8
0
 10
87.78308915333436
 20
-19.0
 30
15.55634918610404
 70
   192
  0
VERTEX
  5
DD2
  8
0
 10
118.8957875255424
 20
-8.082903768654727
 30
15.55634918610404
 70
   192
  0
VERTEX
  5
DD3
  8
0
 10
118.8957875255424
 20
-19.0
 30
15.55634918610404
 70
   192
  0
VERTEX
  5
DD4
  8
0
 10
0.0
 20
0.0
 30
0.0
 70
   128
 71
     8
 72
     1
 73
    -4
  0
VERTEX
  5
DD5
  8
0
 10
0.0
 20
0.0
 30
0.0
 70
   128
 71
     7
 72
    -8
 73
     4
  0
VERTEX
  5
DD6
  8
0
 10
0.0
 20
0.0
 30
0.0
 70
   128
 71
     6
 72
     8
 73
    -7
  0
VERTEX
  5
DD7
  8
0
 10
0.0
 20
0.0
 30
0.0
 70
   128
 71
     5
 72
    -6
 73
     7
  0
VERTEX
  5
DD8
  8
0
 10
0.0
 20
0.0
 30
0.0
 70
   128
 71
    10
 72
     6
 73
    -5
  0
VERTEX
  5
DD9
  8
0
 10
0.0
 20
0.0
 30
0.0
 70
   128
 71
     9
 72
   -10
 73
     5
  0
VERTEX
  5
DDA
  8
0
 10
0.0
 20
0.0
 30
0.0
 70
   128
 71
     3
 72
     2
 73
   -10
  0
VERTEX
  5
DDB
  8
0
 10
0.0
 20
0.0
 30
0.0
 70
   128
 71
     9
 72
    -3
 73
    10
  0
SEQEND
  5
1886
  8
0
  0
POLYLINE
  5
DDC
  8
0
 66
     1
 10
0.0
 20
0.0
 30
0.0
 70
    64
 71
    10
 72
     8
  0
VERTEX
  5
DDD
  8
0
 10
252.5
 20
130.0
 30
-0.0000000000000011
 70
   192
  0
VERTEX
  5
DDE
  8
0
 10
217.5
 20
130.0
 30
0.0000000000000021
 70
   192
  0
VERTEX
  5
DDF
  8
0
 10
217.5
 20
117.0
 30
0.0000000000000021
 70
   192
  0
VERTEX
  5
DE0
  8
0
 10
252.5
 20
117.0
 30
0.0
 70
   192
  0
VERTEX
  5
DE1
  8
0
 10
235.0
 20
117.0
 30
17.50000000000002
 70
   192
  0
VERTEX
  5
DE2
  8
0
 10
235.0
 20
130.0
 30
17.5
 70
   192
  0
VERTEX
  5
DE3
  8
0
 10
247.3743686707646
 20
117.0
 30
12.37436867076459
 70
   192
  0
VERTEX
  5
DE4
  8
0
 10
247.3743686707646
 20
130.0
 30
12.37436867076458
 70
   192
  0
VERTEX
  5
DE5
  8
0
 10
222.6256313292354
 20
117.0
 30
12.37436867076459
 70
   192
  0
VERTEX
  5
DE6
  8
0
 10
222.6256313292354
 20
130.0
 30
12.37436867076458
 70
   192
  0
VERTEX
  5
DE7
  8
0
 10
0.0
 20
0.0
 30
0.0
 70
   128
 71
     8
 72
     1
 73
    -4
  0
VERTEX
  5
DE8
  8
0
 10
0.0
 20
0.0
 30
0.0
 70
   128
 71
     7
 72
    -8
 73
     4
  0
VERTEX
  5
DE9
  8
0
 10
0.0
 20
0.0
 30
0.0
 70
   128
 71
     6
 72
     8
 73
    -7
  0
VERTEX
  5
DEA
  8
0
 10
0.0
 20
0.0
 30
0.0
 70
   128
 71
     5
 72
    -6
 73
     7
  0
VERTEX
  5
DEB
  8
0
 10
0.0
 20
0.0
 30
0.0
 70
   128
 71
    10
 72
     6
 73
    -5
  0
VERTEX
  5
DEC
  8
0
 10
0.0
 20
0.0
 30
0.0
 70
   128
 71
     9
 72
   -10
 73
     5
  0
VERTEX
  5
DED
  8
0
 10
0.0
 20
0.0
 30
0.0
 70
   128
 71
     3
 72
     2
 73
   -10
  0
VERTEX
  5
DEE
  8
0
 10
0.0
 20
0.0
 30
0.0
 70
   128
 71
     9
 72
    -3
 73
    10
  0
SEQEND
  5
1887
  8
0
  0
POLYLINE
  5
DEF
  8
0
 66
     1
 10
0.0
 20
0.0
 30
0.0
 70
    64
 71
    12
 72
    10
  0
VERTEX
  5
DF0
  8
0
 10
189.851005095881
 20
127.1570078687288
 30
94.2014295468217
 70
   192
  0
VERTEX
  5
DF1
  8
0
 10
188.887135773438
 20
127.4316337666636
 30
98.67703674118255
 70
   192
  0
VERTEX
  5
DF2
  8
0
 10
186.0606620850697
 20
127.6256767672259
 30
102.323259369345
 70
   192
  0
VERTEX
  5
DF3
  8
0
 10
182.140173350654
 20
127.6911219799134
 30
104.2253644096638
 70
   192
  0
VERTEX
  5
DF4
  8
0
 10
182.2694318122026
 20
128.8830493909414
 30
104.7947773405994
 70
   192
  0
VERTEX
  5
DF5
  8
0
 10
182.4998844279837
 20
129.7063950351736
 30
105.8099735437849
 70
   192
  0
VERTEX
  5
DF6
  8
0
 10
182.7864231765635
 20
130.0
 30
107.0722419222014
 70
   192
  0
VERTEX
  5
DF7
  8
0
 10
187.8990871475151
 20
129.9999999999998
 30
104.60995561481
 70
   192
  0
VERTEX
  5
DF8
  8
0
 10
191.6099420619871
 20
129.9999999999998
 30
99.86249203997261
 70
   192
  0
VERTEX
  5
DF9
  8
0
 10
192.8468937001445
 20
130.0
 30
94.2014295468217
 70
   192
  0
VERTEX
  5
DFA
  8
0
 10
191.3924648394054
 20
129.6238591214182
 30
94.2014295468217
 70
   192
  0
VERTEX
  5
DFB
  8
0
 10
190.3027494116752
 20
128.5897577926996
 30
94.2014295468217
 70
   192
  0
VERTEX
  5
DFC
  8
0
 10
0.0
 20
0.0
 30
0.0
 70
   128
 71
     6
 72
     7
 73
     8
  0
VERTEX
  5
DFD
  8
0
 10
0.0
 20
0.0
 30
0.0
 70
   128
 71
     9
 72
    11
 73
     6
  0
VERTEX
  5
DFE
  8
0
 10
0.0
 20
0.0
 30
0.0
 70
   128
 71
     8
 72
     9
 73
     6
  0
VERTEX
  5
DFF
  8
0
 10
0.0
 20
0.0
 30
0.0
 70
   128
 71
     9
 72
    10
 73
    11
  0
VERTEX
  5
E00
  8
0
 10
0.0
 20
0.0
 30
0.0
 70
   128
 71
    12
 72
     5
 73
     6
  0
VERTEX
  5
E01
  8
0
 10
0.0
 20
0.0
 30
0.0
 70
   128
 71
    11
 72
    12
 73
     6
  0
VERTEX
  5
E02
  8
0
 10
0.0
 20
0.0
 30
0.0
 70
   128
 71
    12
 72
     1
 73
     2
  0
VERTEX
  5
E03
  8
0
 10
0.0
 20
0.0
 30
0.0
 70
   128
 71
     3
 72
     5
 73
    12
  0
VERTEX
  5
E04
  8
0
 10
0.0
 20
0.0
 30
0.0
 70
   128
 71
     2
 72
     3
 73
    12
  0
VERTEX
  5
E05
  8
0
 10
0.0
 20
0.0
 30
0.0
 70
   128
 71
     3
 72
     4
 73
     5
  0
SEQEND
  5
1888
  8
0
  0
POLYLINE
  5
E06
  8
0
 66
     1
 10
0.0
 20
0.0
 30
0.0
 70
    64
 71
     8
 72
     6
  0
VERTEX
  5
E07
  8
0
 10
139.1869886932044
 20
-0.0000000000000081
 30
67.0327759869985
 70
   192
  0
VERTEX
  5
E08
  8
0
 10
67.1869886932046
 20
-0.0000000000000139
 30
67.0327759869985
 70
   192
  0
VERTEX
  5
E09
  8
0
 10
67.1869886932046
 20
-0.0000000000000139
 30
67.0326558269011
 70
   192
  0
VERTEX
  5
E0A
  8
0
 10
67.18698869320465
 20
-0.0000000000000142
 30
6.89373491433888
 70
   192
  0
VERTEX
  5
E0B
  8
0
 10
79.59610623490342
 20
-0.0000000000000132
 30
28.12076416220584
 70
   192
  0
VERTEX
  5
E0C
  8
0
 10
102.6027364792879
 20
-0.0000000000000113
 30
36.79647356557273
 70
   192
  0
VERTEX
  5
E0D
  8
0
 10
125.938183558928
 20
-0.0000000000000095
 30
29.04857846775357
 70
   192
  0
VERTEX
  5
E0E
  8
0
 10
139.1869886932044
 20
-0.0000000000000278
 30
8.33524625472073
 70
   192
  0
VERTEX
  5
E0F
  8
0
 10
0.0
 20
0.0
 30
0.0
 70
   128
 71
     5
 72
     4
 73
    -3
  0
VERTEX
  5
E10
  8
0
 10
0.0
 20
0.0
 30
0.0
 70
   128
 71
     3
 72
    -2
 73
    -6
  0
VERTEX
  5
E11
  8
0
 10
0.0
 20
0.0
 30
0.0
 70
   128
 71
    -3
 72
     6
 73
    -5
  0
VERTEX
  5
E12
  8
0
 10
0.0
 20
0.0
 30
0.0
 70
   128
 71
     2
 72
    -1
 73
    -7
  0
VERTEX
  5
E13
  8
0
 10
0.0
 20
0.0
 30
0.0
 70
   128
 71
    -2
 72
     7
 73
    -6
  0
VERTEX
  5
E14
  8
0
 10
0.0
 20
0.0
 30
0.0
 70
   128
 71
     1
 72
     8
 73
    -7
  0
SEQEND
  5
1889
  8
0
  0
POLYLINE
  5
E15
  8
0
 66
     1
 10
0.0
 20
0.0
 30
0.0
 70
    64
 71
    12
 72
    10
  0
VERTEX
  5
E16
  8
0
 10
187.7076240825815
 20
43.8567614179128
 30
-96.6474718616461
 70
   192
  0
VERTEX
  5
E17
  8
0
 10
192.8920595198841
 20
59.53090147841163
 30
-97.5426833290818
 70
   192
  0
VERTEX
  5
E18
  8
0
 10
197.5673200516803
 20
82.33179663939835
 30
-98.83375247408716
 70
   192
  0
VERTEX
  5
E19
  8
0
 10
201.2104256184993
 20
109.9151056076826
 30
-100.3875501148887
 70
   192
  0
VERTEX
  5
E1A
  8
0
 10
201.3449839595816
 20
109.9830525172445
 30
-105.2444645131181
 70
   192
  0
VERTEX
  5
E1B
  8
0
 10
204.2440273460946
 20
109.6883092631655
 30
-109.1330393238543
 70
   192
  0
VERTEX
  5
E1C
  8
0
 10
208.8379745483355
 20
109.1396192514982
 30
-110.6186128075706
 70
   192
  0
VERTEX
  5
E1D
  8
0
 10
204.2503381726156
 20
81.39130719097881
 30
-111.1029613962354
 70
   192
  0
VERTEX
  5
E1E
  8
0
 10
197.9883633868719
 20
58.1144347044078
 30
-111.5092607168144
 70
   192
  0
VERTEX
  5
E1F
  8
0
 10
190.8255748328865
 20
42.18433027330025
 30
-111.7873217239726
 70
   192
  0
VERTEX
  5
E20
  8
0
 10
185.8571363970095
 20
45.22515066883821
 30
-109.1921892224273
 70
   192
  0
VERTEX
  5
E21
  8
0
 10
184.2835447174652
 20
46.06920625038182
 30
-101.55129182513
 70
   192
  0
VERTEX
  5
E22
  8
0
 10
0.0
 20
0.0
 30
0.0
 70
   128
 71
     8
 72
     7
 73
     6
  0
VERTEX
  5
E23
  8
0
 10
0.0
 20
0.0
 30
0.0
 70
   128
 71
     6
 72
    11
 73
     9
  0
VERTEX
  5
E24
  8
0
 10
0.0
 20
0.0
 30
0.0
 70
   128
 71
     6
 72
     9
 73
     8
  0
VERTEX
  5
E25
  8
0
 10
0.0
 20
0.0
 30
0.0
 70
   128
 71
    11
 72
    10
 73
     9
  0
VERTEX
  5
E26
  8
0
 10
0.0
 20
0.0
 30
0.0
 70
   128
 71
     6
 72
     5
 73
    12
  0
VERTEX
  5
E27
  8
0
 10
0.0
 20
0.0
 30
0.0
 70
   128
 71
     6
 72
    12
 73
    11
  0
VERTEX
  5
E28
  8
0
 10
0.0
 20
0.0
 30
0.0
 70
   128
 71
     2
 72
     1
 73
    12
  0
VERTEX
  5
E29
  8
0
 10
0.0
 20
0.0
 30
0.0
 70
   128
 71
    12
 72
     5
 73
     3
  0
VERTEX
  5
E2A
  8
0
 10
0.0
 20
0.0
 30
0.0
 70
   128
 71
    12
 72
     3
 73
     2
  0
VERTEX
  5
E2B
  8
0
 10
0.0
 20
0.0
 30
0.0
 70
   128
 71
     5
 72
     4
 73
     3
  0
SEQEND
  5
188A
  8
0
  0
POLYLINE
  5
E2C
  8
0
 66
     1
 10
0.0
 20
0.0
 30
0.0
 70
    64
 71
    15
 72
    13
  0
VERTEX
  5
E2D
  8
0
 10
187.7076240825815
 20
43.85676141791245
 30
96.6474718616461
 70
   192
  0
VERTEX
  5
E2E
  8
0
 10
186.2609169939119
 20
40.93876272686003
 30
96.47873957948983
 70
   192
  0
VERTEX
  5
E2F
  8
0
 10
183.9488550690873
 20
37.52534823661938
 30
96.27950331456996
 70
   192
  0
VERTEX
  5
E30
  8
0
 10
180.2435803102991
 20
35.3239163862719
 30
96.1423038332461
 70
   192
  0
VERTEX
  5
E31
  8
0
 10
180.243580310299
 20
37.93520880045479
 30
97.26313866340408
 70
   192
  0
VERTEX
  5
E32
  8
0
 10
180.243580310299
 20
40.41663514169388
 30
99.87575897745755
 70
   192
  0
VERTEX
  5
E33
  8
0
 10
180.243580310299
 20
41.52430795152094
 30
103.937264351528
 70
   192
  0
VERTEX
  5
E34
  8
0
 10
180.2435803102991
 20
40.06587458956456
 30
108.5424685728448
 70
   192
  0
VERTEX
  5
E35
  8
0
 10
180.2435803102991
 20
36.8330695384356
 30
111.2209513822122
 70
   192
  0
VERTEX
  5
E36
  8
0
 10
180.243580310299
 20
33.66392720301925
 30
111.936045912779
 70
   192
  0
VERTEX
  5
E37
  8
0
 10
184.9293056441075
 20
35.35602717426698
 30
111.9065101979158
 70
   192
  0
VERTEX
  5
E38
  8
0
 10
188.3284244385633
 20
38.64837707263068
 30
111.8490420166736
 70
   192
  0
VERTEX
  5
E39
  8
0
 10
190.8255748328865
 20
42.18433027329995
 30
111.7873217239726
 70
   192
  0
VERTEX
  5
E3A
  8
0
 10
185.8571363995807
 20
45.22515066922854
 30
109.1921892230651
 70
   192
  0
VERTEX
  5
E3B
  8
0
 10
184.2835447204354
 20
46.06920625055808
 30
101.5512918277055
 70
   192
  0
VERTEX
  5
E3C
  8
0
 10
0.0
 20
0.0
 30
0.0
 70
   128
 71
     9
 72
     8
 73
    11
  0
VERTEX
  5
E3D
  8
0
 10
0.0
 20
0.0
 30
0.0
 70
   128
 71
    11
 72
    10
 73
     9
  0
VERTEX
  5
E3E
  8
0
 10
0.0
 20
0.0
 30
0.0
 70
   128
 71
     8
 72
    14
 73
    12
  0
VERTEX
  5
E3F
  8
0
 10
0.0
 20
0.0
 30
0.0
 70
   128
 71
     8
 72
    12
 73
    11
  0
VERTEX
  5
E40
  8
0
 10
0.0
 20
0.0
 30
0.0
 70
   128
 71
    14
 72
    13
 73
    12
  0
VERTEX
  5
E41
  8
0
 10
0.0
 20
0.0
 30
0.0
 70
   128
 71
     7
 72
     6
 73
    15
  0
VERTEX
  5
E42
  8
0
 10
0.0
 20
0.0
 30
0.0
 70
   128
 71
    15
 72
    14
 73
     8
  0
VERTEX
  5
E43
  8
0
 10
0.0
 20
0.0
 30
0.0
 70
   128
 71
    15
 72
     8
 73
     7
  0
VERTEX
  5
E44
  8
0
 10
0.0
 20
0.0
 30
0.0
 70
   128
 71
     2
 72
     1
 73
     5
  0
VERTEX
  5
E45
  8
0
 10
0.0
 20
0.0
 30
0.0
 70
   128
 71
     5
 72
     3
 73
     2
  0
VERTEX
  5
E46
  8
0
 10
0.0
 20
0.0
 30
0.0
 70
   128
 71
     5
 72
     4
 73
     3
  0
VERTEX
  5
E47
  8
0
 10
0.0
 20
0.0
 30
0.0
 70
   128
 71
     1
 72
    15
 73
     6
  0
VERTEX
  5
E48
  8
0
 10
0.0
 20
0.0
 30
0.0
 70
   128
 71
     1
 72
     6
 73
     5
  0
SEQEND
  5
188B
  8
0
  0
POLYLINE
  5
E49
  8
0
 66
     1
 10
0.0
 20
0.0
 30
0.0
 70
    64
 71
    15
 72
    13
  0
VERTEX
  5
E4A
  8
0
 10
-1.622304935654665
 20
4.76246234439555
 30
-89.086636220431
 70
   192
  0
VERTEX
  5
E4B
  8
0
 10
-34.37698826958714
 20
10.42483545721683
 30
-90.39389805846608
 70
   192
  0
VERTEX
  5
E4C
  8
0
 10
-66.16098820473059
 20
20.71505963116646
 30
-92.76958349978236
 70
   192
  0
VERTEX
  5
E4D
  8
0
 10
-96.01920405705191
 20
35.32391638627189
 30
-96.142303833246
 70
   192
  0
VERTEX
  5
E4E
  8
0
 10
180.243580310299
 20
35.32391638627192
 30
-96.14230383324609
 70
   192
  0
VERTEX
  5
E4F
  8
0
 10
178.7389756522628
 20
6.614349245290814
 30
-89.51417799940987
 70
   192
  0
VERTEX
  5
E50
  8
0
 10
178.3772498376709
 20
5.335673862912428
 30
-89.2189725268434
 70
   192
  0
VERTEX
  5
E51
  8
0
 10
177.4386475503916
 20
4.296468311926251
 30
-88.97905302107954
 70
   192
  0
VERTEX
  5
E52
  8
0
 10
176.203276022407
 20
3.806862872528525
 30
-88.8660186989205
 70
   192
  0
VERTEX
  5
E53
  8
0
 10
163.9215357515534
 20
2.221880168403028
 30
-88.50009660905371
 70
   192
  0
VERTEX
  5
E54
  8
0
 10
151.5665019843707
 20
1.268630808458556
 30
-88.28002165363176
 70
   192
  0
VERTEX
  5
E55
  8
0
 10
139.1869886932044
 20
0.950881021810436
 30
-88.2066633351578
 70
   192
  0
VERTEX
  5
E56
  8
0
 10
67.21253720474871
 20
0.950881021810408
 30
-88.2066633351578
 70
   192
  0
VERTEX
  5
E57
  8
0
 10
44.23458415837999
 20
1.531465485706834
 30
-88.34070182013313
 70
   192
  0
VERTEX
  5
E58
  8
0
 10
21.27927171188238
 20
2.802566536490242
 30
-88.63415862046531
 70
   192
  0
VERTEX
  5
E59
  8
0
 10
0.0
 20
0.0
 30
0.0
 70
   128
 71
     8
 72
     9
 73
   -10
  0
VERTEX
  5
E5A
  8
0
 10
0.0
 20
0.0
 30
0.0
 70
   128
 71
     7
 72
    -8
 73
   -10
  0
VERTEX
  5
E5B
  8
0
 10
0.0
 20
0.0
 30
0.0
 70
   128
 71
     6
 72
    -7
 73
   -10
  0
VERTEX
  5
E5C
  8
0
 10
0.0
 20
0.0
 30
0.0
 70
   128
 71
     5
 72
    -6
 73
   -10
  0
VERTEX
  5
E5D
  8
0
 10
0.0
 20
0.0
 30
0.0
 70
   128
 71
    10
 72
   -11
 73
    -5
  0
VERTEX
  5
E5E
  8
0
 10
0.0
 20
0.0
 30
0.0
 70
   128
 71
    11
 72
   -12
 73
    -5
  0
VERTEX
  5
E5F
  8
0
 10
0.0
 20
0.0
 30
0.0
 70
   128
 71
    12
 72
   -13
 73
    -5
  0
VERTEX
  5
E60
  8
0
 10
0.0
 20
0.0
 30
0.0
 70
   128
 71
    13
 72
   -14
 73
    -5
  0
VERTEX
  5
E61
  8
0
 10
0.0
 20
0.0
 30
0.0
 70
   128
 71
   -15
 72
     4
 73
    -5
  0
VERTEX
  5
E62
  8
0
 10
0.0
 20
0.0
 30
0.0
 70
   128
 71
    14
 72
   -15
 73
    -5
  0
VERTEX
  5
E63
  8
0
 10
0.0
 20
0.0
 30
0.0
 70
   128
 71
    15
 72
    -1
 73
    -4
  0
VERTEX
  5
E64
  8
0
 10
0.0
 20
0.0
 30
0.0
 70
   128
 71
     2
 72
     3
 73
    -4
  0
VERTEX
  5
E65
  8
0
 10
0.0
 20
0.0
 30
0.0
 70
   128
 71
     1
 72
    -2
 73
    -4
  0
SEQEND
  5
188C
  8
0
  0
POLYLINE
  5
E66
  8
0
 66
     1
 10
0.0
 20
0.0
 30
0.0
 70
    64
 71
    15
 72
    13
  0
VERTEX
  5
E67
  8
0
 10
178.7389756522627
 20
6.614349245290839
 30
89.51417799940975
 70
   192
  0
VERTEX
  5
E68
  8
0
 10
180.2435803102989
 20
35.32391638627193
 30
96.14230383324599
 70
   192
  0
VERTEX
  5
E69
  8
0
 10
-96.01920405705232
 20
35.32391638627212
 30
96.14230383324615
 70
   192
  0
VERTEX
  5
E6A
  8
0
 10
-66.16098820473096
 20
20.7150596311666
 30
92.76958349978237
 70
   192
  0
VERTEX
  5
E6B
  8
0
 10
-34.37698826958727
 20
10.42483545721685
 30
90.39389805846606
 70
   192
  0
VERTEX
  5
E6C
  8
0
 10
-1.622304935654655
 20
4.76246234439552
 30
89.086636220431
 70
   192
  0
VERTEX
  5
E6D
  8
0
 10
21.2792717118822
 20
2.802566536490231
 30
88.63415862046537
 70
   192
  0
VERTEX
  5
E6E
  8
0
 10
44.23458415837951
 20
1.531465485706848
 30
88.34070182013322
 70
   192
  0
VERTEX
  5
E6F
  8
0
 10
67.2125372047485
 20
0.950881021810412
 30
88.2066633351578
 70
   192
  0
VERTEX
  5
E70
  8
0
 10
139.1869886932044
 20
0.950881021810439
 30
88.2066633351578
 70
   192
  0
VERTEX
  5
E71
  8
0
 10
151.5665019843707
 20
1.26863080845856
 30
88.28002165363178
 70
   192
  0
VERTEX
  5
E72
  8
0
 10
163.9215357515534
 20
2.221880168403036
 30
88.50009660905374
 70
   192
  0
VERTEX
  5
E73
  8
0
 10
176.203276022407
 20
3.806862872528525
 30
88.8660186989205
 70
   192
  0
VERTEX
  5
E74
  8
0
 10
177.4386475503915
 20
4.296468311926249
 30
88.97905302107948
 70
   192
  0
VERTEX
  5
E75
  8
0
 10
178.3772498376707
 20
5.335673862912423
 30
89.2189725268433
 70
   192
  0
VERTEX
  5
E76
  8
0
 10
0.0
 20
0.0
 30
0.0
 70
   128
 71
     4
 72
     5
 73
    -6
  0
VERTEX
  5
E77
  8
0
 10
0.0
 20
0.0
 30
0.0
 70
   128
 71
     3
 72
    -4
 73
    -6
  0
VERTEX
  5
E78
  8
0
 10
0.0
 20
0.0
 30
0.0
 70
   128
 71
     6
 72
    -7
 73
    -3
  0
VERTEX
  5
E79
  8
0
 10
0.0
 20
0.0
 30
0.0
 70
   128
 71
    -8
 72
     2
 73
    -3
  0
VERTEX
  5
E7A
  8
0
 10
0.0
 20
0.0
 30
0.0
 70
   128
 71
     7
 72
    -8
 73
    -3
  0
VERTEX
  5
E7B
  8
0
 10
0.0
 20
0.0
 30
0.0
 70
   128
 71
     8
 72
    -9
 73
    -2
  0
VERTEX
  5
E7C
  8
0
 10
0.0
 20
0.0
 30
0.0
 70
   128
 71
     9
 72
   -10
 73
    -2
  0
VERTEX
  5
E7D
  8
0
 10
0.0
 20
0.0
 30
0.0
 70
   128
 71
    10
 72
   -11
 73
    -2
  0
VERTEX
  5
E7E
  8
0
 10
0.0
 20
0.0
 30
0.0
 70
   128
 71
    11
 72
   -12
 73
    -2
  0
VERTEX
  5
E7F
  8
0
 10
0.0
 20
0.0
 30
0.0
 70
   128
 71
    15
 72
     1
 73
    -2
  0
VERTEX
  5
E80
  8
0
 10
0.0
 20
0.0
 30
0.0
 70
   128
 71
    14
 72
   -15
 73
    -2
  0
VERTEX
  5
E81
  8
0
 10
0.0
 20
0.0
 30
0.0
 70
   128
 71
    13
 72
   -14
 73
    -2
  0
VERTEX
  5
E82
  8
0
 10
0.0
 20
0.0
 30
0.0
 70
   128
 71
    12
 72
   -13
 73
    -2
  0
SEQEND
  5
188D
  8
0
  0
POLYLINE
  5
E83
  8
0
 66
     1
 10
0.0
 20
0.0
 30
0.0
 70
    64
 71
    18
 72
    18
  0
VERTEX
  5
E84
  8
0
 10
267.6198312463195
 20
117.0
 30
-102.6198312463196
 70
   192
  0
VERTEX
  5
E85
  8
0
 10
208.8379745483355
 20
117.0
 30
-102.6198312463196
 70
   192
  0
VERTEX
  5
E86
  8
0
 10
209.4414091604758
 20
116.9999999999999
 30
-100.1223473857267
 70
   192
  0
VERTEX
  5
E87
  8
0
 10
209.8065442158782
 20
116.9999999999999
 30
-97.56793673162657
 70
   192
  0
VERTEX
  5
E88
  8
0
 10
209.9282559010125
 20
117.0
 30
-94.9924444423467
 70
   192
  0
VERTEX
  5
E89
  8
0
 10
209.9282559010125
 20
117.0
 30
94.9924444423467
 70
   192
  0
VERTEX
  5
E8A
  8
0
 10
209.8065442158784
 20
116.9999999999999
 30
97.56793673162656
 70
   192
  0
VERTEX
  5
E8B
  8
0
 10
209.4414091604759
 20
116.9999999999999
 30
100.1223473857267
 70
   192
  0
VERTEX
  5
E8C
  8
0
 10
208.8379745483355
 20
117.0
 30
102.6198312463196
 70
   192
  0
VERTEX
  5
E8D
  8
0
 10
267.6198312463195
 20
117.0
 30
102.6198312463196
 70
   192
  0
VERTEX
  5
E8E
  8
0
 10
217.5
 20
117.0
 30
0.0000000000000021
 70
   192
  0
VERTEX
  5
E8F
  8
0
 10
222.6256313292354
 20
117.0
 30
-12.37436867076459
 70
   192
  0
VERTEX
  5
E90
  8
0
 10
235.0
 20
117.0
 30
-17.50000000000001
 70
   192
  0
VERTEX
  5
E91
  8
0
 10
247.3743686707646
 20
117.0
 30
-12.37436867076459
 70
   192
  0
VERTEX
  5
E92
  8
0
 10
252.5
 20
117.0
 30
0.0
 70
   192
  0
VERTEX
  5
E93
  8
0
 10
247.3743686707646
 20
117.0
 30
12.37436867076459
 70
   192
  0
VERTEX
  5
E94
  8
0
 10
235.0
 20
117.0
 30
17.50000000000002
 70
   192
  0
VERTEX
  5
E95
  8
0
 10
222.6256313292354
 20
117.0
 30
12.37436867076459
 70
   192
  0
VERTEX
  5
E96
  8
0
 10
0.0
 20
0.0
 30
0.0
 70
   128
 71
     3
 72
     2
 73
    -1
  0
VERTEX
  5
E97
  8
0
 10
0.0
 20
0.0
 30
0.0
 70
   128
 71
    -1
 72
     4
 73
    -3
  0
VERTEX
  5
E98
  8
0
 10
0.0
 20
0.0
 30
0.0
 70
   128
 71
    -1
 72
     5
 73
    -4
  0
VERTEX
  5
E99
  8
0
 10
0.0
 20
0.0
 30
0.0
 70
   128
 71
   -11
 72
     6
 73
    -5
  0
VERTEX
  5
E9A
  8
0
 10
0.0
 20
0.0
 30
0.0
 70
   128
 71
    -5
 72
    12
 73
   -11
  0
VERTEX
  5
E9B
  8
0
 10
0.0
 20
0.0
 30
0.0
 70
   128
 71
    -5
 72
    13
 73
   -12
  0
VERTEX
  5
E9C
  8
0
 10
0.0
 20
0.0
 30
0.0
 70
   128
 71
    -5
 72
    -1
 73
   -14
  0
VERTEX
  5
E9D
  8
0
 10
0.0
 20
0.0
 30
0.0
 70
   128
 71
    -5
 72
    14
 73
   -13
  0
VERTEX
  5
E9E
  8
0
 10
0.0
 20
0.0
 30
0.0
 70
   128
 71
    -1
 72
    15
 73
   -14
  0
VERTEX
  5
E9F
  8
0
 10
0.0
 20
0.0
 30
0.0
 70
   128
 71
     1
 72
   -10
 73
   -15
  0
VERTEX
  5
EA0
  8
0
 10
0.0
 20
0.0
 30
0.0
 70
   128
 71
   -10
 72
    16
 73
   -15
  0
VERTEX
  5
EA1
  8
0
 10
0.0
 20
0.0
 30
0.0
 70
   128
 71
   -10
 72
    -6
 73
   -17
  0
VERTEX
  5
EA2
  8
0
 10
0.0
 20
0.0
 30
0.0
 70
   128
 71
   -10
 72
    17
 73
   -16
  0
VERTEX
  5
EA3
  8
0
 10
0.0
 20
0.0
 30
0.0
 70
   128
 71
    -6
 72
    18
 73
   -17
  0
VERTEX
  5
EA4
  8
0
 10
0.0
 20
0.0
 30
0.0
 70
   128
 71
    -6
 72
    11
 73
   -18
  0
VERTEX
  5
EA5
  8
0
 10
0.0
 20
0.0
 30
0.0
 70
   128
 71
   -10
 72
     7
 73
    -6
  0
VERTEX
  5
EA6
  8
0
 10
0.0
 20
0.0
 30
0.0
 70
   128
 71
   -10
 72
     8
 73
    -7
  0
VERTEX
  5
EA7
  8
0
 10
0.0
 20
0.0
 30
0.0
 70
   128
 71
    10
 72
     9
 73
    -8
  0
SEQEND
  5
188E
  8
0
  0
POLYLINE
  5
EA8
  8
0
 66
     1
 10
0.0
 20
0.0
 30
0.0
 70
    64
 71
    14
 72
    12
  0
VERTEX
  5
EA9
  8
0
 10
201.8501066776224
 20
109.6037184519703
 30
-96.96563757288368
 70
   192
  0
VERTEX
  5
EAA
  8
0
 10
201.939219622976
 20
109.4186876499434
 30
-94.9924444423467
 70
   192
  0
VERTEX
  5
EAB
  8
0
 10
196.7143072778451
 20
9.721421011107395
 30
-71.97551683327555
 70
   192
  0
VERTEX
  5
EAC
  8
0
 10
194.2361217333189
 20
7.840375487191337
 30
-80.68577576999643
 70
   192
  0
VERTEX
  5
EAD
  8
0
 10
187.666099076859
 20
6.70473402466557
 30
-87.09619442739036
 70
   192
  0
VERTEX
  5
EAE
  8
0
 10
187.7076240825815
 20
43.8567614179128
 30
-96.6474718616461
 70
   192
  0
VERTEX
  5
EAF
  8
0
 10
192.8920595198841
 20
59.53090147841163
 30
-97.5426833290818
 70
   192
  0
VERTEX
  5
EB0
  8
0
 10
183.9488070641791
 20
37.52528563816177
 30
-96.27949789582672
 70
   192
  0
VERTEX
  5
EB1
  8
0
 10
186.1118161346471
 20
40.67368948057124
 30
-96.463608015362
 70
   192
  0
VERTEX
  5
EB2
  8
0
 10
178.738975652263
 20
6.6143492452908
 30
-89.51417799940984
 70
   192
  0
VERTEX
  5
EB3
  8
0
 10
180.243580310299
 20
35.32391638627186
 30
-96.14230383324607
 70
   192
  0
VERTEX
  5
EB4
  8
0
 10
197.5673200516803
 20
82.33179663939835
 30
-98.83375247408716
 70
   192
  0
VERTEX
  5
EB5
  8
0
 10
201.5926710341406
 20
109.7691991943602
 30
-98.7672636116163
 70
   192
  0
VERTEX
  5
EB6
  8
0
 10
201.2104256184995
 20
109.9151056076824
 30
-100.3875501148888
 70
   192
  0
VERTEX
  5
EB7
  8
0
 10
0.0
 20
0.0
 30
0.0
 70
   128
 71
     1
 72
     2
 73
     3
  0
VERTEX
  5
EB8
  8
0
 10
0.0
 20
0.0
 30
0.0
 70
   128
 71
     4
 72
     5
 73
     6
  0
VERTEX
  5
EB9
  8
0
 10
0.0
 20
0.0
 30
0.0
 70
   128
 71
     4
 72
     6
 73
     7
  0
VERTEX
  5
EBA
  8
0
 10
0.0
 20
0.0
 30
0.0
 70
   128
 71
     5
 72
     8
 73
     9
  0
VERTEX
  5
EBB
  8
0
 10
0.0
 20
0.0
 30
0.0
 70
   128
 71
     5
 72
    10
 73
    11
  0
VERTEX
  5
EBC
  8
0
 10
0.0
 20
0.0
 30
0.0
 70
   128
 71
     5
 72
    11
 73
     8
  0
VERTEX
  5
EBD
  8
0
 10
0.0
 20
0.0
 30
0.0
 70
   128
 71
     4
 72
     1
 73
     3
  0
VERTEX
  5
EBE
  8
0
 10
0.0
 20
0.0
 30
0.0
 70
   128
 71
     9
 72
     6
 73
     5
  0
VERTEX
  5
EBF
  8
0
 10
0.0
 20
0.0
 30
0.0
 70
   128
 71
     7
 72
    12
 73
     4
  0
VERTEX
  5
EC0
  8
0
 10
0.0
 20
0.0
 30
0.0
 70
   128
 71
    13
 72
     1
 73
     4
  0
VERTEX
  5
EC1
  8
0
 10
0.0
 20
0.0
 30
0.0
 70
   128
 71
    13
 72
     4
 73
    12
  0
VERTEX
  5
EC2
  8
0
 10
0.0
 20
0.0
 30
0.0
 70
   128
 71
    12
 72
    14
 73
    13
  0
SEQEND
  5
188F
  8
0
  0
POLYLINE
  5
EC3
  8
0
 66
     1
 10
0.0
 20
0.0
 30
0.0
 70
    64
 71
    15
 72
    13
  0
VERTEX
  5
EC4
  8
0
 10
-2.4247127150558
 20
-2.399748580522349
 30
-85.60721484737398
 70
   192
  0
VERTEX
  5
EC5
  8
0
 10
-66.16098820473059
 20
20.71505963116646
 30
-92.76958349978236
 70
   192
  0
VERTEX
  5
EC6
  8
0
 10
-34.37698826958714
 20
10.42483545721683
 30
-90.39389805846608
 70
   192
  0
VERTEX
  5
EC7
  8
0
 10
-1.622304935654665
 20
4.76246234439555
 30
-89.086636220431
 70
   192
  0
VERTEX
  5
EC8
  8
0
 10
-3.06850256366012
 20
-7.345732299818476
 30
-79.34859867860035
 70
   192
  0
VERTEX
  5
EC9
  8
0
 10
-71.01565167809687
 20
7.320222991303106
 30
-75.06896122211373
 70
   192
  0
VERTEX
  5
ECA
  8
0
 10
-3.42641174015943
 20
-9.097779320328401
 30
-71.5479750542968
 70
   192
  0
VERTEX
  5
ECB
  8
0
 10
-127.8190133547841
 20
48.11727139149745
 30
-97.31469050608824
 70
   192
  0
VERTEX
  5
ECC
  8
0
 10
-96.01920405705191
 20
35.3239163862719
 30
-96.142303833246
 70
   192
  0
VERTEX
  5
ECD
  8
0
 10
-132.7619283371162
 20
42.43082809395424
 30
-82.59793523198208
 70
   192
  0
VERTEX
  5
ECE
  8
0
 10
-181.559902686664
 20
92.2941871981861
 30
-93.2907508551916
 70
   192
  0
VERTEX
  5
ECF
  8
0
 10
-181.7017829517484
 20
92.73586875514269
 30
-95.70633427375391
 70
   192
  0
VERTEX
  5
ED0
  8
0
 10
-181.907701740315
 20
93.69861736775691
 30
-98.01347899308388
 70
   192
  0
VERTEX
  5
ED1
  8
0
 10
-156.7518458716341
 20
68.6751320598965
 30
-98.65802759747366
 70
   192
  0
VERTEX
  5
ED2
  8
0
 10
-182.1613096444075
 20
95.0675285890277
 30
-100.176924416295
 70
   192
  0
VERTEX
  5
ED3
  8
0
 10
0.0
 20
0.0
 30
0.0
 70
   128
 71
     1
 72
     2
 73
     3
  0
VERTEX
  5
ED4
  8
0
 10
0.0
 20
0.0
 30
0.0
 70
   128
 71
     3
 72
     4
 73
     1
  0
VERTEX
  5
ED5
  8
0
 10
0.0
 20
0.0
 30
0.0
 70
   128
 71
     5
 72
     6
 73
     2
  0
VERTEX
  5
ED6
  8
0
 10
0.0
 20
0.0
 30
0.0
 70
   128
 71
     1
 72
     5
 73
     2
  0
VERTEX
  5
ED7
  8
0
 10
0.0
 20
0.0
 30
0.0
 70
   128
 71
     5
 72
     7
 73
     6
  0
VERTEX
  5
ED8
  8
0
 10
0.0
 20
0.0
 30
0.0
 70
   128
 71
     8
 72
     9
 73
    10
  0
VERTEX
  5
ED9
  8
0
 10
0.0
 20
0.0
 30
0.0
 70
   128
 71
    10
 72
    11
 73
    12
  0
VERTEX
  5
EDA
  8
0
 10
0.0
 20
0.0
 30
0.0
 70
   128
 71
    13
 72
    14
 73
    10
  0
VERTEX
  5
EDB
  8
0
 10
0.0
 20
0.0
 30
0.0
 70
   128
 71
    12
 72
    13
 73
    10
  0
VERTEX
  5
EDC
  8
0
 10
0.0
 20
0.0
 30
0.0
 70
   128
 71
    13
 72
    15
 73
    14
  0
VERTEX
  5
EDD
  8
0
 10
0.0
 20
0.0
 30
0.0
 70
   128
 71
    14
 72
     8
 73
    10
  0
VERTEX
  5
EDE
  8
0
 10
0.0
 20
0.0
 30
0.0
 70
   128
 71
     2
 72
     6
 73
    10
  0
VERTEX
  5
EDF
  8
0
 10
0.0
 20
0.0
 30
0.0
 70
   128
 71
     9
 72
     2
 73
    10
  0
SEQEND
  5
1890
  8
0
  0
POLYLINE
  5
EE0
  8
0
 66
     1
 10
0.0
 20
0.0
 30
0.0
 70
    64
 71
    15
 72
    13
  0
VERTEX
  5
EE1
  8
0
 10
183.9488550690873
 20
37.52534823661938
 30
96.27950331456996
 70
   192
  0
VERTEX
  5
EE2
  8
0
 10
180.243580310299
 20
35.3239163862719
 30
96.14230383324609
 70
   192
  0
VERTEX
  5
EE3
  8
0
 10
178.7389756522627
 20
6.614349245290839
 30
89.51417799940975
 70
   192
  0
VERTEX
  5
EE4
  8
0
 10
192.8920694824339
 20
59.53095952903745
 30
97.54269514044212
 70
   192
  0
VERTEX
  5
EE5
  8
0
 10
187.7076240825815
 20
43.85676141791245
 30
96.6474718616461
 70
   192
  0
VERTEX
  5
EE6
  8
0
 10
187.666099076859
 20
6.704734024665554
 30
87.09619442739036
 70
   192
  0
VERTEX
  5
EE7
  8
0
 10
186.2609169939119
 20
40.93876272686003
 30
96.47873957948983
 70
   192
  0
VERTEX
  5
EE8
  8
0
 10
187.4985050958007
 20
43.43496979576602
 30
96.62308190450959
 70
   192
  0
VERTEX
  5
EE9
  8
0
 10
194.2361217333189
 20
7.840375487191323
 30
80.68577576999643
 70
   192
  0
VERTEX
  5
EEA
  8
0
 10
197.5673385634755
 20
82.33187219349102
 30
98.83374281307375
 70
   192
  0
VERTEX
  5
EEB
  8
0
 10
201.8501066776226
 20
109.6037184519704
 30
96.96563757288337
 70
   192
  0
VERTEX
  5
EEC
  8
0
 10
201.5926710341409
 20
109.7691991943602
 30
98.76726361161599
 70
   192
  0
VERTEX
  5
EED
  8
0
 10
201.2104256184995
 20
109.9151056076824
 30
100.3875501148888
 70
   192
  0
VERTEX
  5
EEE
  8
0
 10
196.7143072778453
 20
9.72142101110737
 30
71.9755168332756
 70
   192
  0
VERTEX
  5
EEF
  8
0
 10
201.939219622976
 20
109.4186876499434
 30
94.99244444234665
 70
   192
  0
VERTEX
  5
EF0
  8
0
 10
0.0
 20
0.0
 30
0.0
 70
   128
 71
     1
 72
     2
 73
     3
  0
VERTEX
  5
EF1
  8
0
 10
0.0
 20
0.0
 30
0.0
 70
   128
 71
     4
 72
     5
 73
     6
  0
VERTEX
  5
EF2
  8
0
 10
0.0
 20
0.0
 30
0.0
 70
   128
 71
     7
 72
     1
 73
     3
  0
VERTEX
  5
EF3
  8
0
 10
0.0
 20
0.0
 30
0.0
 70
   128
 71
     7
 72
     3
 73
     6
  0
VERTEX
  5
EF4
  8
0
 10
0.0
 20
0.0
 30
0.0
 70
   128
 71
     6
 72
    -5
 73
     7
  0
VERTEX
  5
EF5
  8
0
 10
0.0
 20
0.0
 30
0.0
 70
   128
 71
     5
 72
     8
 73
    -7
  0
VERTEX
  5
EF6
  8
0
 10
0.0
 20
0.0
 30
0.0
 70
   128
 71
     4
 72
     6
 73
     9
  0
VERTEX
  5
EF7
  8
0
 10
0.0
 20
0.0
 30
0.0
 70
   128
 71
     4
 72
     9
 73
    10
  0
VERTEX
  5
EF8
  8
0
 10
0.0
 20
0.0
 30
0.0
 70
   128
 71
    11
 72
    12
 73
    13
  0
VERTEX
  5
EF9
  8
0
 10
0.0
 20
0.0
 30
0.0
 70
   128
 71
    11
 72
    13
 73
    10
  0
VERTEX
  5
EFA
  8
0
 10
0.0
 20
0.0
 30
0.0
 70
   128
 71
    10
 72
     9
 73
    14
  0
VERTEX
  5
EFB
  8
0
 10
0.0
 20
0.0
 30
0.0
 70
   128
 71
    10
 72
    14
 73
    15
  0
VERTEX
  5
EFC
  8
0
 10
0.0
 20
0.0
 30
0.0
 70
   128
 71
    10
 72
    15
 73
    11
  0
SEQEND
  5
1891
  8
0
  0
POLYLINE
  5
EFD
  8
0
 66
     1
 10
0.0
 20
0.0
 30
0.0
 70
    64
 71
    15
 72
    13
  0
VERTEX
  5
EFE
  8
0
 10
-132.7618298061518
 20
42.43075547254566
 30
82.59791801307875
 70
   192
  0
VERTEX
  5
EFF
  8
0
 10
-127.7914350249506
 20
48.10126336494915
 30
97.31350175172369
 70
   192
  0
VERTEX
  5
F00
  8
0
 10
-156.6657295865372
 20
68.60118810865063
 30
98.65358882304787
 70
   192
  0
VERTEX
  5
F01
  8
0
 10
-182.1613096444075
 20
95.0675285890278
 30
100.176924416295
 70
   192
  0
VERTEX
  5
F02
  8
0
 10
-181.907986520462
 20
93.69980161755711
 30
98.01581192018057
 70
   192
  0
VERTEX
  5
F03
  8
0
 10
-181.7018665627684
 20
92.73665949989733
 30
95.70861203808438
 70
   192
  0
VERTEX
  5
F04
  8
0
 10
-181.5599026866645
 20
92.29418719818649
 30
93.2907508551917
 70
   192
  0
VERTEX
  5
F05
  8
0
 10
-71.01556185451385
 20
7.320245406534102
 30
75.06895021748379
 70
   192
  0
VERTEX
  5
F06
  8
0
 10
-3.42641174015943
 20
-9.097779320328401
 30
71.5479750542968
 70
   192
  0
VERTEX
  5
F07
  8
0
 10
-3.068502563660114
 20
-7.345732299818476
 30
79.34859867860035
 70
   192
  0
VERTEX
  5
F08
  8
0
 10
-2.42471271505579
 20
-2.399748580522365
 30
85.60721484737397
 70
   192
  0
VERTEX
  5
F09
  8
0
 10
-34.37698826958727
 20
10.42483545721685
 30
90.39389805846606
 70
   192
  0
VERTEX
  5
F0A
  8
0
 10
-1.622304935654655
 20
4.76246234439552
 30
89.086636220431
 70
   192
  0
VERTEX
  5
F0B
  8
0
 10
-66.16098820473096
 20
20.7150596311666
 30
92.76958349978237
 70
   192
  0
VERTEX
  5
F0C
  8
0
 10
-96.01920405705229
 20
35.3239163862721
 30
96.14230383324609
 70
   192
  0
VERTEX
  5
F0D
  8
0
 10
0.0
 20
0.0
 30
0.0
 70
   128
 71
     1
 72
     2
 73
     3
  0
VERTEX
  5
F0E
  8
0
 10
0.0
 20
0.0
 30
0.0
 70
   128
 71
     4
 72
     5
 73
     1
  0
VERTEX
  5
F0F
  8
0
 10
0.0
 20
0.0
 30
0.0
 70
   128
 71
     3
 72
     4
 73
     1
  0
VERTEX
  5
F10
  8
0
 10
0.0
 20
0.0
 30
0.0
 70
   128
 71
     5
 72
     6
 73
     1
  0
VERTEX
  5
F11
  8
0
 10
0.0
 20
0.0
 30
0.0
 70
   128
 71
     6
 72
     7
 73
     1
  0
VERTEX
  5
F12
  8
0
 10
0.0
 20
0.0
 30
0.0
 70
   128
 71
     8
 72
     9
 73
    10
  0
VERTEX
  5
F13
  8
0
 10
0.0
 20
0.0
 30
0.0
 70
   128
 71
    11
 72
    12
 73
     8
  0
VERTEX
  5
F14
  8
0
 10
0.0
 20
0.0
 30
0.0
 70
   128
 71
    10
 72
    11
 73
     8
  0
VERTEX
  5
F15
  8
0
 10
0.0
 20
0.0
 30
0.0
 70
   128
 71
    11
 72
    13
 73
    12
  0
VERTEX
  5
F16
  8
0
 10
0.0
 20
0.0
 30
0.0
 70
   128
 71
    12
 72
    14
 73
     8
  0
VERTEX
  5
F17
  8
0
 10
0.0
 20
0.0
 30
0.0
 70
   128
 71
     1
 72
     8
 73
    14
  0
VERTEX
  5
F18
  8
0
 10
0.0
 20
0.0
 30
0.0
 70
   128
 71
     2
 72
     1
 73
    14
  0
VERTEX
  5
F19
  8
0
 10
0.0
 20
0.0
 30
0.0
 70
   128
 71
    15
 72
     2
 73
    14
  0
SEQEND
  5
1892
  8
0
  0
POLYLINE
  5
F1A
  8
0
 66
     1
 10
0.0
 20
0.0
 30
0.0
 70
    64
 71
    12
 72
    10
  0
VERTEX
  5
F1B
  8
0
 10
201.9392196229759
 20
109.4186876499434
 30
-94.9924444423467
 70
   192
  0
VERTEX
  5
F1C
  8
0
 10
203.143871131761
 20
113.2393541138656
 30
-94.9924444423467
 70
   192
  0
VERTEX
  5
F1D
  8
0
 10
206.0497789390418
 20
115.9969576571151
 30
-94.9924444423467
 70
   192
  0
VERTEX
  5
F1E
  8
0
 10
209.9282559010125
 20
117.0
 30
-94.9924444423467
 70
   192
  0
VERTEX
  5
F1F
  8
0
 10
209.8065442158782
 20
116.9999999999999
 30
-97.56793673162657
 70
   192
  0
VERTEX
  5
F20
  8
0
 10
209.4414091604758
 20
116.9999999999999
 30
-100.1223473857267
 70
   192
  0
VERTEX
  5
F21
  8
0
 10
208.8379745483355
 20
117.0
 30
-102.6198312463196
 70
   192
  0
VERTEX
  5
F22
  8
0
 10
205.2558321450375
 20
116.0759604215544
 30
-101.5714802005857
 70
   192
  0
VERTEX
  5
F23
  8
0
 10
202.5012000808085
 20
113.5173039718509
 30
-100.7653086194426
 70
   192
  0
VERTEX
  5
F24
  8
0
 10
201.2104256184995
 20
109.9151056076824
 30
-100.3875501148888
 70
   192
  0
VERTEX
  5
F25
  8
0
 10
201.5926710341406
 20
109.7691991943602
 30
-98.7672636116163
 70
   192
  0
VERTEX
  5
F26
  8
0
 10
201.8501066776224
 20
109.6037184519703
 30
-96.96563757288368
 70
   192
  0
VERTEX
  5
F27
  8
0
 10
0.0
 20
0.0
 30
0.0
 70
   128
 71
     8
 72
     7
 73
     6
  0
VERTEX
  5
F28
  8
0
 10
0.0
 20
0.0
 30
0.0
 70
   128
 71
     6
 72
    11
 73
     9
  0
VERTEX
  5
F29
  8
0
 10
0.0
 20
0.0
 30
0.0
 70
   128
 71
     6
 72
     9
 73
     8
  0
VERTEX
  5
F2A
  8
0
 10
0.0
 20
0.0
 30
0.0
 70
   128
 71
    11
 72
    10
 73
     9
  0
VERTEX
  5
F2B
  8
0
 10
0.0
 20
0.0
 30
0.0
 70
   128
 71
     6
 72
     5
 73
    12
  0
VERTEX
  5
F2C
  8
0
 10
0.0
 20
0.0
 30
0.0
 70
   128
 71
     6
 72
    12
 73
    11
  0
VERTEX
  5
F2D
  8
0
 10
0.0
 20
0.0
 30
0.0
 70
   128
 71
     2
 72
     1
 73
    12
  0
VERTEX
  5
F2E
  8
0
 10
0.0
 20
0.0
 30
0.0
 70
   128
 71
    12
 72
     5
 73
     3
  0
VERTEX
  5
F2F
  8
0
 10
0.0
 20
0.0
 30
0.0
 70
   128
 71
    12
 72
     3
 73
     2
  0
VERTEX
  5
F30
  8
0
 10
0.0
 20
0.0
 30
0.0
 70
   128
 71
     5
 72
     4
 73
     3
  0
SEQEND
  5
1893
  8
0
  0
POLYLINE
  5
F31
  8
0
 66
     1
 10
0.0
 20
0.0
 30
0.0
 70
    64
 71
    12
 72
    10
  0
VERTEX
  5
F32
  8
0
 10
209.9282559010125
 20
117.0
 30
94.9924444423467
 70
   192
  0
VERTEX
  5
F33
  8
0
 10
206.0497789390418
 20
115.9969576571151
 30
94.9924444423467
 70
   192
  0
VERTEX
  5
F34
  8
0
 10
203.143871131761
 20
113.2393541138656
 30
94.9924444423467
 70
   192
  0
VERTEX
  5
F35
  8
0
 10
201.939219622976
 20
109.4186876499434
 30
94.9924444423467
 70
   192
  0
VERTEX
  5
F36
  8
0
 10
201.8501066776226
 20
109.6037184519704
 30
96.96563757288337
 70
   192
  0
VERTEX
  5
F37
  8
0
 10
201.5926710341409
 20
109.7691991943602
 30
98.76726361161599
 70
   192
  0
VERTEX
  5
F38
  8
0
 10
201.2104256184992
 20
109.9151056076824
 30
100.3875501148888
 70
   192
  0
VERTEX
  5
F39
  8
0
 10
202.5012000808085
 20
113.5173039718509
 30
100.7653086194426
 70
   192
  0
VERTEX
  5
F3A
  8
0
 10
205.2558321450375
 20
116.0759604215544
 30
101.5714802005857
 70
   192
  0
VERTEX
  5
F3B
  8
0
 10
208.8379745483355
 20
117.0
 30
102.6198312463196
 70
   192
  0
VERTEX
  5
F3C
  8
0
 10
209.4414091604759
 20
116.9999999999999
 30
100.1223473857267
 70
   192
  0
VERTEX
  5
F3D
  8
0
 10
209.8065442158784
 20
116.9999999999999
 30
97.56793673162656
 70
   192
  0
VERTEX
  5
F3E
  8
0
 10
0.0
 20
0.0
 30
0.0
 70
   128
 71
     8
 72
     7
 73
     6
  0
VERTEX
  5
F3F
  8
0
 10
0.0
 20
0.0
 30
0.0
 70
   128
 71
     6
 72
    11
 73
     9
  0
VERTEX
  5
F40
  8
0
 10
0.0
 20
0.0
 30
0.0
 70
   128
 71
     6
 72
     9
 73
     8
  0
VERTEX
  5
F41
  8
0
 10
0.0
 20
0.0
 30
0.0
 70
   128
 71
    11
 72
    10
 73
     9
  0
VERTEX
  5
F42
  8
0
 10
0.0
 20
0.0
 30
0.0
 70
   128
 71
     6
 72
     5
 73
    12
  0
VERTEX
  5
F43
  8
0
 10
0.0
 20
0.0
 30
0.0
 70
   128
 71
     6
 72
    12
 73
    11
  0
VERTEX
  5
F44
  8
0
 10
0.0
 20
0.0
 30
0.0
 70
   128
 71
     2
 72
     1
 73
    12
  0
VERTEX
  5
F45
  8
0
 10
0.0
 20
0.0
 30
0.0
 70
   128
 71
    12
 72
     5
 73
     3
  0
VERTEX
  5
F46
  8
0
 10
0.0
 20
0.0
 30
0.0
 70
   128
 71
    12
 72
     3
 73
     2
  0
VERTEX
  5
F47
  8
0
 10
0.0
 20
0.0
 30
0.0
 70
   128
 71
     5
 72
     4
 73
     3
  0
SEQEND
  5
1894
  8
0
  0
POLYLINE
  5
F48
  8
0
 66
     1
 10
0.0
 20
0.0
 30
0.0
 70
    64
 71
     7
 72
     5
  0
VERTEX
  5
F49
  8
0
 10
67.12094821067541
 20
-13.0
 30
70.6677894723138
 70
   192
  0
VERTEX
  5
F4A
  8
0
 10
67.12094821067541
 20
-13.0
 30
70.66800216902361
 70
   192
  0
VERTEX
  5
F4B
  8
0
 10
139.1869886932044
 20
-13.0
 30
70.66800216902361
 70
   192
  0
VERTEX
  5
F4C
  8
0
 10
139.1869886932045
 20
-12.99999999999999
 30
53.21766423401624
 70
   192
  0
VERTEX
  5
F4D
  8
0
 10
115.7893300165615
 20
-12.99999999999999
 30
62.94574529003679
 70
   192
  0
VERTEX
  5
F4E
  8
0
 10
90.4500688426229
 20
-13.00000000000001
 30
62.85722557403285
 70
   192
  0
VERTEX
  5
F4F
  8
0
 10
67.12094821067541
 20
-13.0
 30
52.9659100335582
 70
   192
  0
VERTEX
  5
F50
  8
0
 10
0.0
 20
0.0
 30
0.0
 70
   128
 71
     5
 72
     4
 73
    -3
  0
VERTEX
  5
F51
  8
0
 10
0.0
 20
0.0
 30
0.0
 70
   128
 71
    -3
 72
    -1
 73
    -6
  0
VERTEX
  5
F52
  8
0
 10
0.0
 20
0.0
 30
0.0
 70
   128
 71
    -3
 72
     6
 73
    -5
  0
VERTEX
  5
F53
  8
0
 10
0.0
 20
0.0
 30
0.0
 70
   128
 71
     1
 72
     7
 73
    -6
  0
VERTEX
  5
F54
  8
0
 10
0.0
 20
0.0
 30
0.0
 70
   128
 71
     3
 72
     2
 73
    -1
  0
SEQEND
  5
1895
  8
0
  0
POLYLINE
  5
F55
  8
0
 66
     1
 10
0.0
 20
0.0
 30
0.0
 70
    64
 71
     4
 72
     2
  0
VERTEX
  5
F56
  8
0
 10
189.8510050958809
 20
127.1570078687288
 30
94.20142954682164
 70
   192
  0
VERTEX
  5
F57
  8
0
 10
183.7321233260355
 20
10.40178844226564
 30
67.2463632333659
 70
   192
  0
VERTEX
  5
F58
  8
0
 10
183.7321233260356
 20
10.40178844226563
 30
-67.2463632333659
 70
   192
  0
VERTEX
  5
F59
  8
0
 10
189.851005095881
 20
127.1570078687288
 30
-94.20142954682174
 70
   192
  0
VERTEX
  5
F5A
  8
0
 10
0.0
 20
0.0
 30
0.0
 70
   128
 71
     1
 72
     4
 73
    -3
  0
VERTEX
  5
F5B
  8
0
 10
0.0
 20
0.0
 30
0.0
 70
   128
 71
    -1
 72
     3
 73
     2
  0
SEQEND
  5
1896
  8
0
  0
POLYLINE
  5
F5C
  8
0
 66
     1
 10
0.0
 20
0.0
 30
0.0
 70
    64
 71
     8
 72
     6
  0
VERTEX
  5
F5D
  8
0
 10
180.3182536449756
 20
4.257866046662553
 30
67.2463632333659
 70
   192
  0
VERTEX
  5
F5E
  8
0
 10
182.7360652455855
 20
6.934828665064092
 30
67.2463632333659
 70
   192
  0
VERTEX
  5
F5F
  8
0
 10
182.7360652455855
 20
6.934828665064114
 30
-67.2463632333659
 70
   192
  0
VERTEX
  5
F60
  8
0
 10
180.3182536449756
 20
4.257866046662587
 30
-67.2463632333659
 70
   192
  0
VERTEX
  5
F61
  8
0
 10
183.7321233260356
 20
10.40178844226563
 30
67.2463632333659
 70
   192
  0
VERTEX
  5
F62
  8
0
 10
183.7321233260355
 20
10.40178844226564
 30
-67.24636323336591
 70
   192
  0
VERTEX
  5
F63
  8
0
 10
176.97025764642
 20
2.915158114899775
 30
67.2463632333659
 70
   192
  0
VERTEX
  5
F64
  8
0
 10
176.97025764642
 20
2.915158114899775
 30
-67.24636323336591
 70
   192
  0
VERTEX
  5
F65
  8
0
 10
0.0
 20
0.0
 30
0.0
 70
   128
 71
     1
 72
     2
 73
    -3
  0
VERTEX
  5
F66
  8
0
 10
0.0
 20
0.0
 30
0.0
 70
   128
 71
     4
 72
    -1
 73
     3
  0
VERTEX
  5
F67
  8
0
 10
0.0
 20
0.0
 30
0.0
 70
   128
 71
     2
 72
     5
 73
    -6
  0
VERTEX
  5
F68
  8
0
 10
0.0
 20
0.0
 30
0.0
 70
   128
 71
     3
 72
    -2
 73
     6
  0
VERTEX
  5
F69
  8
0
 10
0.0
 20
0.0
 30
0.0
 70
   128
 71
     7
 72
     1
 73
    -4
  0
VERTEX
  5
F6A
  8
0
 10
0.0
 20
0.0
 30
0.0
 70
   128
 71
     8
 72
    -7
 73
     4
  0
SEQEND
  5
1897
  8
0
  0
POLYLINE
  5
F6B
  8
0
 66
     1
 10
0.0
 20
0.0
 30
0.0
 70
    64
 71
    18
 72
    16
  0
VERTEX
  5
F6C
  8
0
 10
139.1869886932044
 20
-0.0000000000000278
 30
-67.0327759869985
 70
   192
  0
VERTEX
  5
F6D
  8
0
 10
139.1869886932044
 20
-0.0000000000000278
 30
-8.335246254720886
 70
   192
  0
VERTEX
  5
F6E
  8
0
 10
140.0282135221883
 20
0.0014361700506734
 30
-2.814752645179952
 70
   192
  0
VERTEX
  5
F6F
  8
0
 10
164.3832735319569
 20
1.292392408935668
 30
-67.31903466529835
 70
   192
  0
VERTEX
  5
F70
  8
0
 10
164.3832735319569
 20
1.292392408935666
 30
67.31903466529836
 70
   192
  0
VERTEX
  5
F71
  8
0
 10
176.9650765928102
 20
2.914353664365385
 30
-67.39102735169693
 70
   192
  0
VERTEX
  5
F72
  8
0
 10
176.9494742221756
 20
2.911932503876693
 30
-67.53452890262477
 70
   192
  0
VERTEX
  5
F73
  8
0
 10
176.9233617198085
 20
2.907882920105305
 30
-67.6768580131732
 70
   192
  0
VERTEX
  5
F74
  8
0
 10
176.9233617198085
 20
2.9078829201053
 30
67.6768580131732
 70
   192
  0
VERTEX
  5
F75
  8
0
 10
176.9494504810941
 20
2.911928823148552
 30
67.5345824658598
 70
   192
  0
VERTEX
  5
F76
  8
0
 10
176.9650647222694
 20
2.914351824001311
 30
67.39097371283145
 70
   192
  0
VERTEX
  5
F77
  8
0
 10
176.97025764642
 20
2.915158114899775
 30
67.2463632333659
 70
   192
  0
VERTEX
  5
F78
  8
0
 10
176.97025764642
 20
2.915158114899775
 30
-67.24636323336591
 70
   192
  0
VERTEX
  5
F79
  8
0
 10
151.7933908685028
 20
0.3230981022339037
 30
67.10434065657348
 70
   192
  0
VERTEX
  5
F7A
  8
0
 10
151.7933908685028
 20
0.323098102233904
 30
-67.10434065657346
 70
   192
  0
VERTEX
  5
F7B
  8
0
 10
140.0310389037406
 20
0.0014458052132419
 30
2.772114974682845
 70
   192
  0
VERTEX
  5
F7C
  8
0
 10
139.1869886932044
 20
-0.0000000000000278
 30
8.335246254720738
 70
   192
  0
VERTEX
  5
F7D
  8
0
 10
139.1869886932044
 20
-0.0000000000000278
 30
67.0327759869985
 70
   192
  0
VERTEX
  5
F7E
  8
0
 10
0.0
 20
0.0
 30
0.0
 70
   128
 71
     1
 72
     2
 73
     3
  0
VERTEX
  5
F7F
  8
0
 10
0.0
 20
0.0
 30
0.0
 70
   128
 71
     4
 72
     5
 73
     6
  0
VERTEX
  5
F80
  8
0
 10
0.0
 20
0.0
 30
0.0
 70
   128
 71
     6
 72
     7
 73
     4
  0
VERTEX
  5
F81
  8
0
 10
0.0
 20
0.0
 30
0.0
 70
   128
 71
     7
 72
     8
 73
     4
  0
VERTEX
  5
F82
  8
0
 10
0.0
 20
0.0
 30
0.0
 70
   128
 71
     5
 72
     9
 73
    10
  0
VERTEX
  5
F83
  8
0
 10
0.0
 20
0.0
 30
0.0
 70
   128
 71
    10
 72
    11
 73
     5
  0
VERTEX
  5
F84
  8
0
 10
0.0
 20
0.0
 30
0.0
 70
   128
 71
    11
 72
    12
 73
     5
  0
VERTEX
  5
F85
  8
0
 10
0.0
 20
0.0
 30
0.0
 70
   128
 71
    12
 72
    13
 73
     5
  0
VERTEX
  5
F86
  8
0
 10
0.0
 20
0.0
 30
0.0
 70
   128
 71
    13
 72
     6
 73
     5
  0
VERTEX
  5
F87
  8
0
 10
0.0
 20
0.0
 30
0.0
 70
   128
 71
    14
 72
     5
 73
    -4
  0
VERTEX
  5
F88
  8
0
 10
0.0
 20
0.0
 30
0.0
 70
   128
 71
    15
 72
   -14
 73
     4
  0
VERTEX
  5
F89
  8
0
 10
0.0
 20
0.0
 30
0.0
 70
   128
 71
    15
 72
     1
 73
     3
  0
VERTEX
  5
F8A
  8
0
 10
0.0
 20
0.0
 30
0.0
 70
   128
 71
     3
 72
    16
 73
    15
  0
VERTEX
  5
F8B
  8
0
 10
0.0
 20
0.0
 30
0.0
 70
   128
 71
    14
 72
    15
 73
    16
  0
VERTEX
  5
F8C
  8
0
 10
0.0
 20
0.0
 30
0.0
 70
   128
 71
    17
 72
    18
 73
    14
  0
VERTEX
  5
F8D
  8
0
 10
0.0
 20
0.0
 30
0.0
 70
   128
 71
    16
 72
    17
 73
    14
  0
SEQEND
  5
1898
  8
0
  0
POLYLINE
  5
F8E
  8
0
 66
     1
 10
0.0
 20
0.0
 30
0.0
 70
    64
 71
     7
 72
     5
  0
VERTEX
  5
F8F
  8
0
 10
67.1869886932046
 20
-0.0000000000000139
 30
-67.0327759869985
 70
   192
  0
VERTEX
  5
F90
  8
0
 10
139.1869886932044
 20
-0.0000000000000278
 30
-67.0327759869985
 70
   192
  0
VERTEX
  5
F91
  8
0
 10
139.1869886932046
 20
-0.0000000000000084
 30
-8.335246254720925
 70
   192
  0
VERTEX
  5
F92
  8
0
 10
125.9381835589279
 20
-0.0000000000000095
 30
-29.04857846775364
 70
   192
  0
VERTEX
  5
F93
  8
0
 10
102.6027364792878
 20
-0.0000000000000113
 30
-36.79647356557273
 70
   192
  0
VERTEX
  5
F94
  8
0
 10
79.59610623490339
 20
-0.0000000000000132
 30
-28.12076416220581
 70
   192
  0
VERTEX
  5
F95
  8
0
 10
67.1869886932046
 20
-0.0000000000000139
 30
-6.893734914338893
 70
   192
  0
VERTEX
  5
F96
  8
0
 10
0.0
 20
0.0
 30
0.0
 70
   128
 71
     4
 72
     3
 73
    -2
  0
VERTEX
  5
F97
  8
0
 10
0.0
 20
0.0
 30
0.0
 70
   128
 71
     2
 72
    -1
 73
    -5
  0
VERTEX
  5
F98
  8
0
 10
0.0
 20
0.0
 30
0.0
 70
   128
 71
    -2
 72
     5
 73
    -4
  0
VERTEX
  5
F99
  8
0
 10
0.0
 20
0.0
 30
0.0
 70
   128
 71
    -1
 72
     6
 73
    -5
  0
VERTEX
  5
F9A
  8
0
 10
0.0
 20
0.0
 30
0.0
 70
   128
 71
     1
 72
     7
 73
    -6
  0
SEQEND
  5
1899
  8
0
  0
POLYLINE
  5
F9B
  8
0
 66
     1
 10
0.0
 20
0.0
 30
0.0
 70
    64
 71
    10
 72
     8
  0
VERTEX
  5
F9C
  8
0
 10
44.06136168584783
 20
0.5836119189384785
 30
67.16564318328615
 70
   192
  0
VERTEX
  5
F9D
  8
0
 10
67.1869886932046
 20
-0.0000000000000139
 30
67.0326558269011
 70
   192
  0
VERTEX
  5
F9E
  8
0
 10
67.1869886932046
 20
-0.0000000000000139
 30
6.893734914338879
 70
   192
  0
VERTEX
  5
F9F
  8
0
 10
67.1869886932046
 20
-0.0000000000000139
 30
-6.893734914338893
 70
   192
  0
VERTEX
  5
FA0
  8
0
 10
44.06136168585119
 20
0.583611918938344
 30
-67.16567878627804
 70
   192
  0
VERTEX
  5
FA1
  8
0
 10
67.1869886932046
 20
-0.0000000000000139
 30
-67.0327759869985
 70
   192
  0
VERTEX
  5
FA2
  8
0
 10
20.95090031136049
 20
1.862531559530388
 30
67.4570699628157
 70
   192
  0
VERTEX
  5
FA3
  8
0
 10
20.95090031136382
 20
1.862531559530153
 30
-67.45707441318972
 70
   192
  0
VERTEX
  5
FA4
  8
0
 10
-2.1234457146837
 20
3.836758921775705
 30
67.9069361654897
 70
   192
  0
VERTEX
  5
FA5
  8
0
 10
-2.1234457146837
 20
3.836758921775705
 30
-67.9069361654897
 70
   192
  0
VERTEX
  5
FA6
  8
0
 10
0.0
 20
0.0
 30
0.0
 70
   128
 71
     1
 72
     2
 73
    -3
  0
VERTEX
  5
FA7
  8
0
 10
0.0
 20
0.0
 30
0.0
 70
   128
 71
    -4
 72
     5
 73
    -1
  0
VERTEX
  5
FA8
  8
0
 10
0.0
 20
0.0
 30
0.0
 70
   128
 71
     3
 72
    -4
 73
    -1
  0
VERTEX
  5
FA9
  8
0
 10
0.0
 20
0.0
 30
0.0
 70
   128
 71
     4
 72
     6
 73
    -5
  0
VERTEX
  5
FAA
  8
0
 10
0.0
 20
0.0
 30
0.0
 70
   128
 71
     7
 72
     1
 73
    -5
  0
VERTEX
  5
FAB
  8
0
 10
0.0
 20
0.0
 30
0.0
 70
   128
 71
     8
 72
    -7
 73
     5
  0
VERTEX
  5
FAC
  8
0
 10
0.0
 20
0.0
 30
0.0
 70
   128
 71
     9
 72
     7
 73
    -8
  0
VERTEX
  5
FAD
  8
0
 10
0.0
 20
0.0
 30
0.0
 70
   128
 71
    10
 72
    -9
 73
     8
  0
SEQEND
  5
189A
  8
0
  0
POLYLINE
  5
FAE
  8
0
 66
     1
 10
0.0
 20
0.0
 30
0.0
 70
    64
 71
     8
 72
     6
  0
VERTEX
  5
FAF
  8
0
 10
-2.1234457146837
 20
3.836758921775705
 30
67.9069361654897
 70
   192
  0
VERTEX
  5
FB0
  8
0
 10
-2.1234457146837
 20
3.836758921775705
 30
-67.9069361654897
 70
   192
  0
VERTEX
  5
FB1
  8
0
 10
-58.18453367198551
 20
16.39505506493168
 30
-70.68544264992121
 70
   192
  0
VERTEX
  5
FB2
  8
0
 10
-58.18453367197414
 20
16.39505506492764
 30
70.68544264992057
 70
   192
  0
VERTEX
  5
FB3
  8
0
 10
-111.1241540019382
 20
42.88779495888004
 30
-76.54692646481075
 70
   192
  0
VERTEX
  5
FB4
  8
0
 10
-111.1241540019183
 20
42.88779495886678
 30
76.54692646480802
 70
   192
  0
VERTEX
  5
FB5
  8
0
 10
-189.156808279137
 20
128.4275090637112
 30
95.47247556855851
 70
   192
  0
VERTEX
  5
FB6
  8
0
 10
-189.1568082791365
 20
128.4275090637112
 30
-95.47247556855851
 70
   192
  0
VERTEX
  5
FB7
  8
0
 10
0.0
 20
0.0
 30
0.0
 70
   128
 71
     1
 72
     2
 73
    -3
  0
VERTEX
  5
FB8
  8
0
 10
0.0
 20
0.0
 30
0.0
 70
   128
 71
     4
 72
    -1
 73
     3
  0
VERTEX
  5
FB9
  8
0
 10
0.0
 20
0.0
 30
0.0
 70
   128
 71
     5
 72
    -6
 73
     3
  0
VERTEX
  5
FBA
  8
0
 10
0.0
 20
0.0
 30
0.0
 70
   128
 71
     6
 72
     4
 73
    -3
  0
VERTEX
  5
FBB
  8
0
 10
0.0
 20
0.0
 30
0.0
 70
   128
 71
     7
 72
     6
 73
    -5
  0
VERTEX
  5
FBC
  8
0
 10
0.0
 20
0.0
 30
0.0
 70
   128
 71
     8
 72
    -7
 73
     5
  0
SEQEND
  5
189B
  8
0
  0
POLYLINE
  5
FBD
  8
0
 66
     1
 10
0.0
 20
0.0
 30
0.0
 70
    64
 71
    10
 72
     8
  0
VERTEX
  5
FBE
  8
0
 10
290.0
 20
30.0
 30
122.9996953439122
 70
   192
  0
VERTEX
  5
FBF
  8
0
 10
290.0
 20
127.0174524064372
 30
121.3062494129876
 70
   192
  0
VERTEX
  5
FC0
  8
0
 10
290.0
 20
127.5100425897656
 30
121.1665508657266
 70
   192
  0
VERTEX
  5
FC1
  8
0
 10
290.0
 20
127.8689196135908
 30
120.8013549531143
 70
   192
  0
VERTEX
  5
FC2
  8
0
 10
290.0
 20
128.0
 30
120.3064017178312
 70
   192
  0
VERTEX
  5
FC3
  8
0
 10
290.0
 20
128.0
 30
-120.306401717831
 70
   192
  0
VERTEX
  5
FC4
  8
0
 10
290.0
 20
127.8689196135908
 30
-120.8013549531141
 70
   192
  0
VERTEX
  5
FC5
  8
0
 10
290.0
 20
127.5100425897656
 30
-121.1665508657264
 70
   192
  0
VERTEX
  5
FC6
  8
0
 10
290.0
 20
127.0174524064372
 30
-121.3062494129876
 70
   192
  0
VERTEX
  5
FC7
  8
0
 10
290.0
 20
30.0
 30
-122.9996953439122
 70
   192
  0
VERTEX
  5
FC8
  8
0
 10
0.0
 20
0.0
 30
0.0
 70
   128
 71
     1
 72
    10
 73
    -9
  0
VERTEX
  5
FC9
  8
0
 10
0.0
 20
0.0
 30
0.0
 70
   128
 71
    -1
 72
     9
 73
    -8
  0
VERTEX
  5
FCA
  8
0
 10
0.0
 20
0.0
 30
0.0
 70
   128
 71
    -1
 72
     8
 73
    -7
  0
VERTEX
  5
FCB
  8
0
 10
0.0
 20
0.0
 30
0.0
 70
   128
 71
    -1
 72
     7
 73
    -6
  0
VERTEX
  5
FCC
  8
0
 10
0.0
 20
0.0
 30
0.0
 70
   128
 71
    -1
 72
     6
 73
    -5
  0
VERTEX
  5
FCD
  8
0
 10
0.0
 20
0.0
 30
0.0
 70
   128
 71
    -1
 72
     5
 73
    -4
  0
VERTEX
  5
FCE
  8
0
 10
0.0
 20
0.0
 30
0.0
 70
   128
 71
    -1
 72
     4
 73
    -3
  0
VERTEX
  5
FCF
  8
0
 10
0.0
 20
0.0
 30
0.0
 70
   128
 71
    -1
 72
     3
 73
     2
  0
SEQEND
  5
189C
  8
0
  0
POLYLINE
  5
FD0
  8
0
 66
     1
 10
0.0
 20
0.0
 30
0.0
 70
    64
 71
    31
 72
    33
  0
VERTEX
  5
FD1
  8
0
 10
-205.306401717831
 20
130.0
 30
120.3064017178312
 70
   192
  0
VERTEX
  5
FD2
  8
0
 10
-205.306401717831
 20
130.0
 30
-120.306401717831
 70
   192
  0
VERTEX
  5
FD3
  8
0
 10
288.0
 20
130.0
 30
-120.306401717831
 70
   192
  0
VERTEX
  5
FD4
  8
0
 10
288.0
 20
130.0
 30
120.3064017178312
 70
   192
  0
VERTEX
  5
FD5
  8
0
 10
192.8468937001445
 20
130.0
 30
-94.2014295468217
 70
   192
  0
VERTEX
  5
FD6
  8
0
 10
191.2070549236668
 20
130.0
 30
-100.6636404858459
 70
   192
  0
VERTEX
  5
FD7
  8
0
 10
186.2875385942327
 20
129.9999999999999
 30
-105.705640933964
 70
   192
  0
VERTEX
  5
FD8
  8
0
 10
179.9823126098435
 20
130.0
 30
-107.3863077500034
 70
   192
  0
VERTEX
  5
FD9
  8
0
 10
-178.562672232659
 20
130.0
 30
-107.3863077500034
 70
   192
  0
VERTEX
  5
FDA
  8
0
 10
-184.9783533606642
 20
130.0
 30
-105.9878887808195
 70
   192
  0
VERTEX
  5
FDB
  8
0
 10
-189.9421624716039
 20
130.0
 30
-101.7243722084253
 70
   192
  0
VERTEX
  5
FDC
  8
0
 10
-191.79540977861
 20
130.0
 30
-95.47247556855851
 70
   192
  0
VERTEX
  5
FDD
  8
0
 10
-191.79540977861
 20
130.0
 30
95.47247556855851
 70
   192
  0
VERTEX
  5
FDE
  8
0
 10
-189.9246988379907
 20
130.0
 30
101.7506814935485
 70
   192
  0
VERTEX
  5
FDF
  8
0
 10
-184.9741366855501
 20
130.0
 30
105.9898558288926
 70
   192
  0
VERTEX
  5
FE0
  8
0
 10
-178.562672232659
 20
130.0
 30
107.3863077500034
 70
   192
  0
VERTEX
  5
FE1
  8
0
 10
179.9823126098435
 20
130.0
 30
107.3863077500034
 70
   192
  0
VERTEX
  5
FE2
  8
0
 10
180.9239926783117
 20
130.0
 30
107.3513197641207
 70
   192
  0
VERTEX
  5
FE3
  8
0
 10
181.8611546256218
 20
129.9999999999999
 30
107.2463558064724
 70
   192
  0
VERTEX
  5
FE4
  8
0
 10
182.7864231765635
 20
130.0
 30
107.0722419222014
 70
   192
  0
VERTEX
  5
FE5
  8
0
 10
187.8990871475151
 20
129.9999999999998
 30
104.60995561481
 70
   192
  0
VERTEX
  5
FE6
  8
0
 10
191.6099420619871
 20
129.9999999999998
 30
99.86249203997261
 70
   192
  0
VERTEX
  5
FE7
  8
0
 10
192.8468937001445
 20
130.0
 30
94.2014295468217
 70
   192
  0
VERTEX
  5
FE8
  8
0
 10
252.5
 20
130.0
 30
0.0
 70
   192
  0
VERTEX
  5
FE9
  8
0
 10
247.3743686707646
 20
130.0
 30
-12.37436867076458
 70
   192
  0
VERTEX
  5
FEA
  8
0
 10
235.0
 20
130.0
 30
-17.5
 70
   192
  0
VERTEX
  5
FEB
  8
0
 10
222.6256313292354
 20
130.0
 30
-12.37436867076458
 70
   192
  0
VERTEX
  5
FEC
  8
0
 10
217.5
 20
130.0
 30
0.0
 70
   192
  0
VERTEX
  5
FED
  8
0
 10
222.6256313292354
 20
130.0
 30
12.37436867076458
 70
   192
  0
VERTEX
  5
FEE
  8
0
 10
235.0
 20
130.0
 30
17.5
 70
   192
  0
VERTEX
  5
FEF
  8
0
 10
247.3743686707646
 20
130.0
 30
12.37436867076458
 70
   192
  0
VERTEX
  5
FF0
  8
0
 10
0.0
 20
0.0
 30
0.0
 70
   128
 71
     6
 72
    -5
 73
    -3
  0
VERTEX
  5
FF1
  8
0
 10
0.0
 20
0.0
 30
0.0
 70
   128
 71
    -3
 72
     7
 73
    -6
  0
VERTEX
  5
FF2
  8
0
 10
0.0
 20
0.0
 30
0.0
 70
   128
 71
    -3
 72
     8
 73
    -7
  0
VERTEX
  5
FF3
  8
0
 10
0.0
 20
0.0
 30
0.0
 70
   128
 71
     3
 72
    -2
 73
    -9
  0
VERTEX
  5
FF4
  8
0
 10
0.0
 20
0.0
 30
0.0
 70
   128
 71
    -3
 72
     9
 73
    -8
  0
VERTEX
  5
FF5
  8
0
 10
0.0
 20
0.0
 30
0.0
 70
   128
 71
    -2
 72
    10
 73
    -9
  0
VERTEX
  5
FF6
  8
0
 10
0.0
 20
0.0
 30
0.0
 70
   128
 71
    -2
 72
    11
 73
   -10
  0
VERTEX
  5
FF7
  8
0
 10
0.0
 20
0.0
 30
0.0
 70
   128
 71
    -2
 72
    12
 73
   -11
  0
VERTEX
  5
FF8
  8
0
 10
0.0
 20
0.0
 30
0.0
 70
   128
 71
     2
 72
    -1
 73
   -13
  0
VERTEX
  5
FF9
  8
0
 10
0.0
 20
0.0
 30
0.0
 70
   128
 71
    -2
 72
    13
 73
   -12
  0
VERTEX
  5
FFA
  8
0
 10
0.0
 20
0.0
 30
0.0
 70
   128
 71
    -1
 72
    14
 73
   -13
  0
VERTEX
  5
FFB
  8
0
 10
0.0
 20
0.0
 30
0.0
 70
   128
 71
    -1
 72
    15
 73
   -14
  0
VERTEX
  5
FFC
  8
0
 10
0.0
 20
0.0
 30
0.0
 70
   128
 71
    -1
 72
    16
 73
   -15
  0
VERTEX
  5
FFD
  8
0
 10
0.0
 20
0.0
 30
0.0
 70
   128
 71
     1
 72
    -4
 73
   -17
  0
VERTEX
  5
FFE
  8
0
 10
0.0
 20
0.0
 30
0.0
 70
   128
 71
    -1
 72
    17
 73
   -16
  0
VERTEX
  5
FFF
  8
0
 10
0.0
 20
0.0
 30
0.0
 70
   128
 71
    -4
 72
    18
 73
   -17
  0
VERTEX
  5
1000
  8
0
 10
0.0
 20
0.0
 30
0.0
 70
   128
 71
    -4
 72
    19
 73
   -18
  0
VERTEX
  5
1001
  8
0
 10
0.0
 20
0.0
 30
0.0
 70
   128
 71
    -4
 72
    20
 73
   -19
  0
VERTEX
  5
1002
  8
0
 10
0.0
 20
0.0
 30
0.0
 70
   128
 71
    -4
 72
    21
 73
   -20
  0
VERTEX
  5
1003
  8
0
 10
0.0
 20
0.0
 30
0.0
 70
   128
 71
    -4
 72
    22
 73
   -21
  0
VERTEX
  5
1004
  8
0
 10
0.0
 20
0.0
 30
0.0
 70
   128
 71
    -4
 72
    23
 73
   -22
  0
VERTEX
  5
1005
  8
0
 10
0.0
 20
0.0
 30
0.0
 70
   128
 71
    25
 72
   -24
 73
    -3
  0
VERTEX
  5
1006
  8
0
 10
0.0
 20
0.0
 30
0.0
 70
   128
 71
    -3
 72
    -5
 73
   -26
  0
VERTEX
  5
1007
  8
0
 10
0.0
 20
0.0
 30
0.0
 70
   128
 71
    -3
 72
    26
 73
   -25
  0
VERTEX
  5
1008
  8
0
 10
0.0
 20
0.0
 30
0.0
 70
   128
 71
    -5
 72
    27
 73
   -26
  0
VERTEX
  5
1009
  8
0
 10
0.0
 20
0.0
 30
0.0
 70
   128
 71
    -5
 72
    28
 73
   -27
  0
VERTEX
  5
100A
  8
0
 10
0.0
 20
0.0
 30
0.0
 70
   128
 71
     5
 72
   -23
 73
   -28
  0
VERTEX
  5
100B
  8
0
 10
0.0
 20
0.0
 30
0.0
 70
   128
 71
   -23
 72
    29
 73
   -28
  0
VERTEX
  5
100C
  8
0
 10
0.0
 20
0.0
 30
0.0
 70
   128
 71
   -23
 72
    30
 73
   -29
  0
VERTEX
  5
100D
  8
0
 10
0.0
 20
0.0
 30
0.0
 70
   128
 71
   -23
 72
    -4
 73
   -31
  0
VERTEX
  5
100E
  8
0
 10
0.0
 20
0.0
 30
0.0
 70
   128
 71
   -23
 72
    31
 73
   -30
  0
VERTEX
  5
100F
  8
0
 10
0.0
 20
0.0
 30
0.0
 70
   128
 71
    -4
 72
    24
 73
   -31
  0
VERTEX
  5
1010
  8
0
 10
0.0
 20
0.0
 30
0.0
 70
   128
 71
     4
 72
    -3
 73
   -24
  0
SEQEND
  5
189D
  8
0
  0
POLYLINE
  5
1011
  8
0
 66
     1
 10
0.0
 20
0.0
 30
0.0
 70
    64
 71
     4
 72
     2
  0
VERTEX
  5
1012
  8
0
 10
-208.3059448033005
 20
127.0523572193118
 30
120.3064017178312
 70
   192
  0
VERTEX
  5
1013
  8
0
 10
-208.3059448033005
 20
127.0523572193118
 30
-120.3064017178312
 70
   192
  0
VERTEX
  5
1014
  8
0
 10
-209.9999999999998
 20
30.0
 30
-122.0004569145307
 70
   192
  0
VERTEX
  5
1015
  8
0
 10
-210.0
 20
30.0
 30
122.0004569145308
 70
   192
  0
VERTEX
  5
1016
  8
0
 10
0.0
 20
0.0
 30
0.0
 70
   128
 71
     3
 72
     4
 73
    -1
  0
VERTEX
  5
1017
  8
0
 10
0.0
 20
0.0
 30
0.0
 70
   128
 71
     2
 72
    -3
 73
     1
  0
SEQEND
  5
189E
  8
0
  0
POLYLINE
  5
1018
  8
0
 66
     1
 10
0.0
 20
0.0
 30
0.0
 70
    64
 71
     8
 72
     6
  0
VERTEX
  5
1019
  8
0
 10
-3.42641174015943
 20
-9.097779320328401
 30
-71.5479750542968
 70
   192
  0
VERTEX
  5
101A
  8
0
 10
-3.42641174015943
 20
-9.097779320328401
 30
71.5479750542968
 70
   192
  0
VERTEX
  5
101B
  8
0
 10
-71.01556185451385
 20
7.320245406534102
 30
75.06895021748379
 70
   192
  0
VERTEX
  5
101C
  8
0
 10
-71.01565167809687
 20
7.320222991303106
 30
-75.06896122211373
 70
   192
  0
VERTEX
  5
101D
  8
0
 10
-132.7618298061518
 20
42.43075547254566
 30
82.59791801307875
 70
   192
  0
VERTEX
  5
101E
  8
0
 10
-132.7619283371162
 20
42.43082809395424
 30
-82.59793523198208
 70
   192
  0
VERTEX
  5
101F
  8
0
 10
-181.5599026866645
 20
92.29418719818649
 30
93.2907508551917
 70
   192
  0
VERTEX
  5
1020
  8
0
 10
-181.559902686664
 20
92.2941871981862
 30
-93.29075085519162
 70
   192
  0
VERTEX
  5
1021
  8
0
 10
0.0
 20
0.0
 30
0.0
 70
   128
 71
     1
 72
     2
 73
     3
  0
VERTEX
  5
1022
  8
0
 10
0.0
 20
0.0
 30
0.0
 70
   128
 71
     1
 72
     3
 73
     4
  0
VERTEX
  5
1023
  8
0
 10
0.0
 20
0.0
 30
0.0
 70
   128
 71
     4
 72
     3
 73
     5
  0
VERTEX
  5
1024
  8
0
 10
0.0
 20
0.0
 30
0.0
 70
   128
 71
     4
 72
     5
 73
     6
  0
VERTEX
  5
1025
  8
0
 10
0.0
 20
0.0
 30
0.0
 70
   128
 71
     6
 72
     7
 73
     8
  0
VERTEX
  5
1026
  8
0
 10
0.0
 20
0.0
 30
0.0
 70
   128
 71
     6
 72
     5
 73
     7
  0
SEQEND
  5
189F
  8
0
  0
POLYLINE
  5
1027
  8
0
 66
     1
 10
0.0
 20
0.0
 30
0.0
 70
    64
 71
    19
 72
    17
  0
VERTEX
  5
1028
  8
0
 10
43.5826196127982
 20
-12.4076424153931
 30
70.80140175315313
 70
   192
  0
VERTEX
  5
1029
  8
0
 10
39.32639363397328
 20
-12.2249824636638
 30
0.0007392359568064
 70
   192
  0
VERTEX
  5
102A
  8
0
 10
46.68465965342723
 20
-12.52634049951578
 30
29.85437057225555
 70
   192
  0
VERTEX
  5
102B
  8
0
 10
67.12762109687804
 20
-13.00006748791043
 30
-52.92597871230684
 70
   192
  0
VERTEX
  5
102C
  8
0
 10
67.1369756033106
 20
-13.0001620007334
 30
-52.9079097004874
 70
   192
  0
VERTEX
  5
102D
  8
0
 10
46.69702987500136
 20
-12.52678875626124
 30
-29.87791747561914
 70
   192
  0
VERTEX
  5
102E
  8
0
 10
43.58261961279818
 20
-12.40764241539309
 30
-70.80146477440051
 70
   192
  0
VERTEX
  5
102F
  8
0
 10
67.12248612912555
 20
-13.00001556028117
 30
-52.94562225490964
 70
   192
  0
VERTEX
  5
1030
  8
0
 10
67.12094821067541
 20
-13.0
 30
-52.9659100335582
 70
   192
  0
VERTEX
  5
1031
  8
0
 10
67.12094821067541
 20
-13.0
 30
-70.66800216902361
 70
   192
  0
VERTEX
  5
1032
  8
0
 10
67.12094821067541
 20
-13.0
 30
52.9659100335582
 70
   192
  0
VERTEX
  5
1033
  8
0
 10
67.12094821067541
 20
-13.0
 30
70.6677894723138
 70
   192
  0
VERTEX
  5
1034
  8
0
 10
67.12249395972404
 20
-13.00001563854744
 30
52.94554537284313
 70
   192
  0
VERTEX
  5
1035
  8
0
 10
67.12766767180814
 20
-13.00006795981185
 30
52.92590950376481
 70
   192
  0
VERTEX
  5
1036
  8
0
 10
67.1369756033106
 20
-13.0001620007334
 30
52.90790970048729
 70
   192
  0
VERTEX
  5
1037
  8
0
 10
20.05971171828965
 20
-11.10690218883586
 30
-71.09480482480342
 70
   192
  0
VERTEX
  5
1038
  8
0
 10
20.05971171828965
 20
-11.10690218883586
 30
71.09479694714744
 70
   192
  0
VERTEX
  5
1039
  8
0
 10
-3.42641174015943
 20
-9.097779320328401
 30
71.5479750542968
 70
   192
  0
VERTEX
  5
103A
  8
0
 10
-3.42641174015943
 20
-9.097779320328401
 30
-71.54797505429678
 70
   192
  0
VERTEX
  5
103B
  8
0
 10
0.0
 20
0.0
 30
0.0
 70
   128
 71
     1
 72
     2
 73
     3
  0
VERTEX
  5
103C
  8
0
 10
0.0
 20
0.0
 30
0.0
 70
   128
 71
     4
 72
     5
 73
     6
  0
VERTEX
  5
103D
  8
0
 10
0.0
 20
0.0
 30
0.0
 70
   128
 71
     4
 72
     6
 73
     7
  0
VERTEX
  5
103E
  8
0
 10
0.0
 20
0.0
 30
0.0
 70
   128
 71
     7
 72
     8
 73
     4
  0
VERTEX
  5
103F
  8
0
 10
0.0
 20
0.0
 30
0.0
 70
   128
 71
     7
 72
     9
 73
     8
  0
VERTEX
  5
1040
  8
0
 10
0.0
 20
0.0
 30
0.0
 70
   128
 71
     7
 72
    10
 73
     9
  0
VERTEX
  5
1041
  8
0
 10
0.0
 20
0.0
 30
0.0
 70
   128
 71
    11
 72
    12
 73
     1
  0
VERTEX
  5
1042
  8
0
 10
0.0
 20
0.0
 30
0.0
 70
   128
 71
     1
 72
    13
 73
    11
  0
VERTEX
  5
1043
  8
0
 10
0.0
 20
0.0
 30
0.0
 70
   128
 71
     1
 72
    14
 73
    13
  0
VERTEX
  5
1044
  8
0
 10
0.0
 20
0.0
 30
0.0
 70
   128
 71
     1
 72
     3
 73
    15
  0
VERTEX
  5
1045
  8
0
 10
0.0
 20
0.0
 30
0.0
 70
   128
 71
     1
 72
    15
 73
    14
  0
VERTEX
  5
1046
  8
0
 10
0.0
 20
0.0
 30
0.0
 70
   128
 71
    16
 72
     7
 73
     6
  0
VERTEX
  5
1047
  8
0
 10
0.0
 20
0.0
 30
0.0
 70
   128
 71
    16
 72
     6
 73
     2
  0
VERTEX
  5
1048
  8
0
 10
0.0
 20
0.0
 30
0.0
 70
   128
 71
     2
 72
     1
 73
    17
  0
VERTEX
  5
1049
  8
0
 10
0.0
 20
0.0
 30
0.0
 70
   128
 71
     2
 72
    17
 73
    16
  0
VERTEX
  5
104A
  8
0
 10
0.0
 20
0.0
 30
0.0
 70
   128
 71
    16
 72
    17
 73
   -18
  0
VERTEX
  5
104B
  8
0
 10
0.0
 20
0.0
 30
0.0
 70
   128
 71
   -16
 72
    18
 73
    19
  0
SEQEND
  5
18A0
  8
0
  0
POLYLINE
  5
104C
  8
0
 66
     1
 10
0.0
 20
0.0
 30
0.0
 70
    64
 71
     6
 72
     4
  0
VERTEX
  5
104D
  8
0
 10
139.1869886932044
 20
-13.0
 30
-70.66800216902361
 70
   192
  0
VERTEX
  5
104E
  8
0
 10
67.12094821067541
 20
-13.0
 30
-70.6680021690236
 70
   192
  0
VERTEX
  5
104F
  8
0
 10
67.12094821067538
 20
-13.00000000000001
 30
-52.96591003355822
 70
   192
  0
VERTEX
  5
1050
  8
0
 10
90.45006884262288
 20
-13.00000000000001
 30
-62.85722557403284
 70
   192
  0
VERTEX
  5
1051
  8
0
 10
115.7893300165615
 20
-12.99999999999999
 30
-62.9457452900368
 70
   192
  0
VERTEX
  5
1052
  8
0
 10
139.1869886932044
 20
-13.0
 30
-53.21766423401615
 70
   192
  0
VERTEX
  5
1053
  8
0
 10
0.0
 20
0.0
 30
0.0
 70
   128
 71
     4
 72
     3
 73
    -2
  0
VERTEX
  5
1054
  8
0
 10
0.0
 20
0.0
 30
0.0
 70
   128
 71
     2
 72
    -1
 73
    -5
  0
VERTEX
  5
1055
  8
0
 10
0.0
 20
0.0
 30
0.0
 70
   128
 71
    -2
 72
     5
 73
    -4
  0
VERTEX
  5
1056
  8
0
 10
0.0
 20
0.0
 30
0.0
 70
   128
 71
     1
 72
     6
 73
    -5
  0
SEQEND
  5
18A1
  8
0
  0
POLYLINE
  5
1057
  8
0
 66
     1
 10
0.0
 20
0.0
 30
0.0
 70
    64
 71
    13
 72
    11
  0
VERTEX
  5
1058
  8
0
 10
165.7461682238211
 20
-11.63599271032349
 30
-70.96104899736255
 70
   192
  0
VERTEX
  5
1059
  8
0
 10
166.9633558263286
 20
-11.50806339365407
 30
0.052194508105561
 70
   192
  0
VERTEX
  5
105A
  8
0
 10
159.6358279159202
 20
-12.192463030401
 30
-29.99831200039648
 70
   192
  0
VERTEX
  5
105B
  8
0
 10
165.7461682238201
 20
-11.6359927103236
 30
70.96104899736258
 70
   192
  0
VERTEX
  5
105C
  8
0
 10
159.6237245609285
 20
-12.19342017595307
 30
30.02150835820717
 70
   192
  0
VERTEX
  5
105D
  8
0
 10
178.964409868854
 20
-9.93098359822805
 30
-71.3273575327863
 70
   192
  0
VERTEX
  5
105E
  8
0
 10
178.964409868854
 20
-9.93098359822805
 30
71.3273575327863
 70
   192
  0
VERTEX
  5
105F
  8
0
 10
152.4753067680942
 20
-12.65899817758091
 30
70.74126387610835
 70
   192
  0
VERTEX
  5
1060
  8
0
 10
139.1869886932044
 20
-13.0
 30
53.21766423401611
 70
   192
  0
VERTEX
  5
1061
  8
0
 10
139.1869886932044
 20
-13.0
 30
70.66800216902361
 70
   192
  0
VERTEX
  5
1062
  8
0
 10
152.4753067680953
 20
-12.65899817758086
 30
-70.74126387610832
 70
   192
  0
VERTEX
  5
1063
  8
0
 10
139.1869886932044
 20
-13.0
 30
-53.2176642340162
 70
   192
  0
VERTEX
  5
1064
  8
0
 10
139.1869886932044
 20
-13.0
 30
-70.6680021690236
 70
   192
  0
VERTEX
  5
1065
  8
0
 10
0.0
 20
0.0
 30
0.0
 70
   128
 71
     1
 72
     2
 73
     3
  0
VERTEX
  5
1066
  8
0
 10
0.0
 20
0.0
 30
0.0
 70
   128
 71
     4
 72
     5
 73
     2
  0
VERTEX
  5
1067
  8
0
 10
0.0
 20
0.0
 30
0.0
 70
   128
 71
     2
 72
     1
 73
     6
  0
VERTEX
  5
1068
  8
0
 10
0.0
 20
0.0
 30
0.0
 70
   128
 71
     6
 72
     7
 73
     4
  0
VERTEX
  5
1069
  8
0
 10
0.0
 20
0.0
 30
0.0
 70
   128
 71
     6
 72
     4
 73
     2
  0
VERTEX
  5
106A
  8
0
 10
0.0
 20
0.0
 30
0.0
 70
   128
 71
     5
 72
     4
 73
     8
  0
VERTEX
  5
106B
  8
0
 10
0.0
 20
0.0
 30
0.0
 70
   128
 71
     9
 72
     5
 73
     8
  0
VERTEX
  5
106C
  8
0
 10
0.0
 20
0.0
 30
0.0
 70
   128
 71
     8
 72
    10
 73
     9
  0
VERTEX
  5
106D
  8
0
 10
0.0
 20
0.0
 30
0.0
 70
   128
 71
    11
 72
    12
 73
    13
  0
VERTEX
  5
106E
  8
0
 10
0.0
 20
0.0
 30
0.0
 70
   128
 71
    11
 72
     1
 73
     3
  0
VERTEX
  5
106F
  8
0
 10
0.0
 20
0.0
 30
0.0
 70
   128
 71
    11
 72
     3
 73
    12
  0
SEQEND
  5
18A2
  8
0
  0
POLYLINE
  5
1070
  8
0
 66
     1
 10
0.0
 20
0.0
 30
0.0
 70
    64
 71
     8
 72
     6
  0
VERTEX
  5
1071
  8
0
 10
196.714307277845
 20
9.72142101110738
 30
-71.9755168332756
 70
   192
  0
VERTEX
  5
1072
  8
0
 10
193.6569645849208
 20
-0.1382977911592255
 30
71.6514981168172
 70
   192
  0
VERTEX
  5
1073
  8
0
 10
193.6569328603569
 20
-0.138349669643567
 30
-71.65149611369353
 70
   192
  0
VERTEX
  5
1074
  8
0
 10
196.714307277845
 20
9.72142101110738
 30
71.9755168332756
 70
   192
  0
VERTEX
  5
1075
  8
0
 10
187.5908007403023
 20
-6.518215679751274
 30
71.44032273526528
 70
   192
  0
VERTEX
  5
1076
  8
0
 10
187.5907686549995
 20
-6.518237605283716
 30
-71.4403225386163
 70
   192
  0
VERTEX
  5
1077
  8
0
 10
178.964409868854
 20
-9.93098359822805
 30
71.3273575327863
 70
   192
  0
VERTEX
  5
1078
  8
0
 10
178.964409868854
 20
-9.93098359822805
 30
-71.3273575327863
 70
   192
  0
VERTEX
  5
1079
  8
0
 10
0.0
 20
0.0
 30
0.0
 70
   128
 71
     1
 72
     2
 73
     3
  0
VERTEX
  5
107A
  8
0
 10
0.0
 20
0.0
 30
0.0
 70
   128
 71
     1
 72
     4
 73
     2
  0
VERTEX
  5
107B
  8
0
 10
0.0
 20
0.0
 30
0.0
 70
   128
 71
     3
 72
     2
 73
     5
  0
VERTEX
  5
107C
  8
0
 10
0.0
 20
0.0
 30
0.0
 70
   128
 71
     3
 72
     5
 73
     6
  0
VERTEX
  5
107D
  8
0
 10
0.0
 20
0.0
 30
0.0
 70
   128
 71
     6
 72
     5
 73
     7
  0
VERTEX
  5
107E
  8
0
 10
0.0
 20
0.0
 30
0.0
 70
   128
 71
     6
 72
     7
 73
     8
  0
SEQEND
  5
18A3
  8
0
  0
POLYLINE
  5
107F
  8
0
 66
     1
 10
0.0
 20
0.0
 30
0.0
 70
    64
 71
    13
 72
    11
  0
VERTEX
  5
1080
  8
0
 10
201.9392196229758
 20
109.4186876499434
 30
-94.99244444234662
 70
   192
  0
VERTEX
  5
1081
  8
0
 10
196.714307277845
 20
9.72142101110738
 30
-71.9755168332756
 70
   192
  0
VERTEX
  5
1082
  8
0
 10
196.7143072778453
 20
9.721421011107369
 30
71.97551683327558
 70
   192
  0
VERTEX
  5
1083
  8
0
 10
201.939219622976
 20
109.4186876499434
 30
94.9924444423467
 70
   192
  0
VERTEX
  5
1084
  8
0
 10
201.9392196229758
 20
109.4186876499434
 30
61.31750153291652
 70
   192
  0
VERTEX
  5
1085
  8
0
 10
200.8075965996681
 20
87.82603406322998
 30
59.42579661278904
 70
   192
  0
VERTEX
  5
1086
  8
0
 10
200.3357414751613
 20
78.82250193571095
 30
56.29201232255227
 70
   192
  0
VERTEX
  5
1087
  8
0
 10
199.9982529537452
 20
72.3828373280318
 30
49.25470721007899
 70
   192
  0
VERTEX
  5
1088
  8
0
 10
199.8759923461366
 20
70.0499659627258
 30
39.99999999999999
 70
   192
  0
VERTEX
  5
1089
  8
0
 10
199.9982529537452
 20
72.3828373280318
 30
30.74529278992101
 70
   192
  0
VERTEX
  5
108A
  8
0
 10
200.3357414751613
 20
78.82250193571096
 30
23.70798767744773
 70
   192
  0
VERTEX
  5
108B
  8
0
 10
200.8075965996683
 20
87.82603406322998
 30
20.57420338721099
 70
   192
  0
VERTEX
  5
108C
  8
0
 10
201.939219622976
 20
109.4186876499434
 30
18.68249846708345
 70
   192
  0
VERTEX
  5
108D
  8
0
 10
0.0
 20
0.0
 30
0.0
 70
   128
 71
     6
 72
     5
 73
    -4
  0
VERTEX
  5
108E
  8
0
 10
0.0
 20
0.0
 30
0.0
 70
   128
 71
    -4
 72
     7
 73
    -6
  0
VERTEX
  5
108F
  8
0
 10
0.0
 20
0.0
 30
0.0
 70
   128
 71
    -4
 72
     8
 73
    -7
  0
VERTEX
  5
1090
  8
0
 10
0.0
 20
0.0
 30
0.0
 70
   128
 71
    -8
 72
     4
 73
    -3
  0
VERTEX
  5
1091
  8
0
 10
0.0
 20
0.0
 30
0.0
 70
   128
 71
    -3
 72
     9
 73
    -8
  0
VERTEX
  5
1092
  8
0
 10
0.0
 20
0.0
 30
0.0
 70
   128
 71
    -3
 72
    10
 73
    -9
  0
VERTEX
  5
1093
  8
0
 10
0.0
 20
0.0
 30
0.0
 70
   128
 71
     3
 72
    -2
 73
   -11
  0
VERTEX
  5
1094
  8
0
 10
0.0
 20
0.0
 30
0.0
 70
   128
 71
    -3
 72
    11
 73
   -10
  0
VERTEX
  5
1095
  8
0
 10
0.0
 20
0.0
 30
0.0
 70
   128
 71
    -2
 72
    12
 73
   -11
  0
VERTEX
  5
1096
  8
0
 10
0.0
 20
0.0
 30
0.0
 70
   128
 71
     2
 72
     1
 73
   -13
  0
VERTEX
  5
1097
  8
0
 10
0.0
 20
0.0
 30
0.0
 70
   128
 71
    -2
 72
    13
 73
   -12
  0
SEQEND
  5
18A4
  8
0
  0
POLYLINE
  5
1098
  8
0
 66
     1
 10
0.0
 20
0.0
 30
0.0
 70
    64
 71
    12
 72
    10
  0
VERTEX
  5
1099
  8
0
 10
173.8311546429682
 20
10.30376720927548
 30
-77.3659472510612
 70
   192
  0
VERTEX
  5
109A
  8
0
 10
179.9823126098435
 20
127.6748531630314
 30
-104.4631975556479
 70
   192
  0
VERTEX
  5
109B
  8
0
 10
-178.562672232659
 20
127.6748531630314
 30
-104.4631975556478
 70
   192
  0
VERTEX
  5
109C
  8
0
 10
-133.4987181888554
 20
70.84552387339717
 30
-91.34311309967093
 70
   192
  0
VERTEX
  5
109D
  8
0
 10
-71.23531518672634
 20
30.09325184484314
 30
-81.93470977218175
 70
   192
  0
VERTEX
  5
109E
  8
0
 10
-1.1211641566255
 20
11.53689317995566
 30
-77.650636813342
 70
   192
  0
VERTEX
  5
109F
  8
0
 10
21.62221565904628
 20
9.590407365281738
 30
-77.20125515425666
 70
   192
  0
VERTEX
  5
10A0
  8
0
 10
44.41894595156825
 20
8.327703064030786
 30
-76.90973689630039
 70
   192
  0
VERTEX
  5
10A1
  8
0
 10
67.23816935899339
 20
7.75048945656133
 30
-76.77647663485091
 70
   192
  0
VERTEX
  5
10A2
  8
0
 10
139.1869886932044
 20
7.750489456561348
 30
-76.77647663485091
 70
   192
  0
VERTEX
  5
10A3
  8
0
 10
150.7698485562445
 20
8.034528442026916
 30
-76.84205220163446
 70
   192
  0
VERTEX
  5
10A4
  8
0
 10
162.3318030731929
 20
8.886645398423692
 30
-77.03877890198517
 70
   192
  0
VERTEX
  5
10A5
  8
0
 10
0.0
 20
0.0
 30
0.0
 70
   128
 71
     5
 72
     6
 73
    -7
  0
VERTEX
  5
10A6
  8
0
 10
0.0
 20
0.0
 30
0.0
 70
   128
 71
     4
 72
    -5
 73
    -7
  0
VERTEX
  5
10A7
  8
0
 10
0.0
 20
0.0
 30
0.0
 70
   128
 71
     3
 72
    -4
 73
    -7
  0
VERTEX
  5
10A8
  8
0
 10
0.0
 20
0.0
 30
0.0
 70
   128
 71
     2
 72
    -3
 73
    -7
  0
VERTEX
  5
10A9
  8
0
 10
0.0
 20
0.0
 30
0.0
 70
   128
 71
     7
 72
    -8
 73
    -2
  0
VERTEX
  5
10AA
  8
0
 10
0.0
 20
0.0
 30
0.0
 70
   128
 71
     8
 72
    -9
 73
    -2
  0
VERTEX
  5
10AB
  8
0
 10
0.0
 20
0.0
 30
0.0
 70
   128
 71
     9
 72
   -10
 73
    -2
  0
VERTEX
  5
10AC
  8
0
 10
0.0
 20
0.0
 30
0.0
 70
   128
 71
    10
 72
   -11
 73
    -2
  0
VERTEX
  5
10AD
  8
0
 10
0.0
 20
0.0
 30
0.0
 70
   128
 71
    11
 72
   -12
 73
    -2
  0
VERTEX
  5
10AE
  8
0
 10
0.0
 20
0.0
 30
0.0
 70
   128
 71
    12
 72
     1
 73
    -2
  0
SEQEND
  5
18A5
  8
0
  0
POLYLINE
  5
10AF
  8
0
 66
     1
 10
0.0
 20
0.0
 30
0.0
 70
    64
 71
    12
 72
    10
  0
VERTEX
  5
10B0
  8
0
 10
-1.121164156625492
 20
11.53689317995578
 30
77.650636813342
 70
   192
  0
VERTEX
  5
10B1
  8
0
 10
-71.23531518672637
 20
30.0932518448432
 30
81.93470977218175
 70
   192
  0
VERTEX
  5
10B2
  8
0
 10
-133.4987181888553
 20
70.84552387339714
 30
91.34311309967092
 70
   192
  0
VERTEX
  5
10B3
  8
0
 10
-178.562672232659
 20
127.6748531630314
 30
104.4631975556478
 70
   192
  0
VERTEX
  5
10B4
  8
0
 10
179.9823126098435
 20
127.6748531630314
 30
104.4631975556478
 70
   192
  0
VERTEX
  5
10B5
  8
0
 10
173.8311546429682
 20
10.30376720927545
 30
77.36594725106119
 70
   192
  0
VERTEX
  5
10B6
  8
0
 10
162.3318030731928
 20
8.886645398423681
 30
77.03877890198515
 70
   192
  0
VERTEX
  5
10B7
  8
0
 10
150.7698485562445
 20
8.034528442026922
 30
76.84205220163446
 70
   192
  0
VERTEX
  5
10B8
  8
0
 10
139.1869886932044
 20
7.75048945656134
 30
76.77647663485091
 70
   192
  0
VERTEX
  5
10B9
  8
0
 10
67.2381693590034
 20
7.750489456561342
 30
76.77647663485091
 70
   192
  0
VERTEX
  5
10BA
  8
0
 10
44.41894595157473
 20
8.327703064030556
 30
76.90973689630032
 70
   192
  0
VERTEX
  5
10BB
  8
0
 10
21.62221565904966
 20
9.590407365281536
 30
77.20125515425659
 70
   192
  0
VERTEX
  5
10BC
  8
0
 10
0.0
 20
0.0
 30
0.0
 70
   128
 71
     5
 72
     6
 73
    -7
  0
VERTEX
  5
10BD
  8
0
 10
0.0
 20
0.0
 30
0.0
 70
   128
 71
     7
 72
    -8
 73
    -5
  0
VERTEX
  5
10BE
  8
0
 10
0.0
 20
0.0
 30
0.0
 70
   128
 71
     8
 72
    -9
 73
    -5
  0
VERTEX
  5
10BF
  8
0
 10
0.0
 20
0.0
 30
0.0
 70
   128
 71
     9
 72
   -10
 73
    -5
  0
VERTEX
  5
10C0
  8
0
 10
0.0
 20
0.0
 30
0.0
 70
   128
 71
    10
 72
   -11
 73
    -5
  0
VERTEX
  5
10C1
  8
0
 10
0.0
 20
0.0
 30
0.0
 70
   128
 71
    11
 72
   -12
 73
    -5
  0
VERTEX
  5
10C2
  8
0
 10
0.0
 20
0.0
 30
0.0
 70
   128
 71
     3
 72
     4
 73
    -5
  0
VERTEX
  5
10C3
  8
0
 10
0.0
 20
0.0
 30
0.0
 70
   128
 71
     2
 72
    -3
 73
    -5
  0
VERTEX
  5
10C4
  8
0
 10
0.0
 20
0.0
 30
0.0
 70
   128
 71
     1
 72
    -2
 73
    -5
  0
VERTEX
  5
10C5
  8
0
 10
0.0
 20
0.0
 30
0.0
 70
   128
 71
    12
 72
    -1
 73
    -5
  0
SEQEND
  5
18A6
  8
0
  0
POLYLINE
  5
10C6
  8
0
 66
     1
 10
0.0
 20
0.0
 30
0.0
 70
    64
 71
     4
 72
     2
  0
VERTEX
  5
10C7
  8
0
 10
-207.000456914531
 20
30.0
 30
125.0
 70
   192
  0
VERTEX
  5
10C8
  8
0
 10
288.0
 20
30.0
 30
125.0
 70
   192
  0
VERTEX
  5
10C9
  8
0
 10
288.0
 20
127.0523572193118
 30
123.3059448033004
 70
   192
  0
VERTEX
  5
10CA
  8
0
 10
-205.306401717831
 20
127.0523572193118
 30
123.3059448033004
 70
   192
  0
VERTEX
  5
10CB
  8
0
 10
0.0
 20
0.0
 30
0.0
 70
   128
 71
     3
 72
     4
 73
    -1
  0
VERTEX
  5
10CC
  8
0
 10
0.0
 20
0.0
 30
0.0
 70
   128
 71
     2
 72
    -3
 73
     1
  0
SEQEND
  5
18A7
  8
0
  0
POLYLINE
  5
10CD
  8
0
 66
     1
 10
0.0
 20
0.0
 30
0.0
 70
    64
 71
     4
 72
     2
  0
VERTEX
  5
10CE
  8
0
 10
-205.306401717831
 20
127.0523572193118
 30
-123.3059448033004
 70
   192
  0
VERTEX
  5
10CF
  8
0
 10
288.0
 20
127.0523572193118
 30
-123.3059448033004
 70
   192
  0
VERTEX
  5
10D0
  8
0
 10
288.0
 20
30.0
 30
-125.0
 70
   192
  0
VERTEX
  5
10D1
  8
0
 10
-207.000456914531
 20
30.0
 30
-125.0
 70
   192
  0
VERTEX
  5
10D2
  8
0
 10
0.0
 20
0.0
 30
0.0
 70
   128
 71
     3
 72
     4
 73
    -1
  0
VERTEX
  5
10D3
  8
0
 10
0.0
 20
0.0
 30
0.0
 70
   128
 71
     2
 72
    -3
 73
     1
  0
SEQEND
  5
18A8
  8
0
  0
POLYLINE
  5
10D4
  8
0
 66
     1
 10
0.0
 20
0.0
 30
0.0
 70
    64
 71
    12
 72
    10
  0
VERTEX
  5
10D5
  8
0
 10
-1.924607283295189
 20
4.81011837761463
 30
72.24061595676946
 70
   192
  0
VERTEX
  5
10D6
  8
0
 10
-58.18453367197414
 20
16.39505506492764
 30
70.68544264992057
 70
   192
  0
VERTEX
  5
10D7
  8
0
 10
-111.1241540019183
 20
42.88779495886678
 30
76.54692646480802
 70
   192
  0
VERTEX
  5
10D8
  8
0
 10
-2.123445714683694
 20
3.836758921775777
 30
67.9069361654897
 70
   192
  0
VERTEX
  5
10D9
  8
0
 10
-71.23531518672637
 20
30.0932518448432
 30
81.93470977218175
 70
   192
  0
VERTEX
  5
10DA
  8
0
 10
-1.121164156625492
 20
11.53689317995578
 30
77.650636813342
 70
   192
  0
VERTEX
  5
10DB
  8
0
 10
-1.566946256292789
 20
7.557887110556928
 30
75.71762493942147
 70
   192
  0
VERTEX
  5
10DC
  8
0
 10
-183.6601159123868
 20
128.2042512659647
 30
103.5710933626146
 70
   192
  0
VERTEX
  5
10DD
  8
0
 10
-178.562672232659
 20
127.6748531630314
 30
104.4631975556478
 70
   192
  0
VERTEX
  5
10DE
  8
0
 10
-133.4987181888553
 20
70.84552387339714
 30
91.34311309967092
 70
   192
  0
VERTEX
  5
10DF
  8
0
 10
-187.6964349496665
 20
128.4968316061797
 30
100.4057012932103
 70
   192
  0
VERTEX
  5
10E0
  8
0
 10
-189.156808279137
 20
128.4275090637112
 30
95.47247556855851
 70
   192
  0
VERTEX
  5
10E1
  8
0
 10
0.0
 20
0.0
 30
0.0
 70
   128
 71
     1
 72
     2
 73
     3
  0
VERTEX
  5
10E2
  8
0
 10
0.0
 20
0.0
 30
0.0
 70
   128
 71
     1
 72
     4
 73
     2
  0
VERTEX
  5
10E3
  8
0
 10
0.0
 20
0.0
 30
0.0
 70
   128
 71
     5
 72
     6
 73
     7
  0
VERTEX
  5
10E4
  8
0
 10
0.0
 20
0.0
 30
0.0
 70
   128
 71
     8
 72
     9
 73
    10
  0
VERTEX
  5
10E5
  8
0
 10
0.0
 20
0.0
 30
0.0
 70
   128
 71
    10
 72
    11
 73
     8
  0
VERTEX
  5
10E6
  8
0
 10
0.0
 20
0.0
 30
0.0
 70
   128
 71
    11
 72
     7
 73
     1
  0
VERTEX
  5
10E7
  8
0
 10
0.0
 20
0.0
 30
0.0
 70
   128
 71
    11
 72
     1
 73
     3
  0
VERTEX
  5
10E8
  8
0
 10
0.0
 20
0.0
 30
0.0
 70
   128
 71
    11
 72
     3
 73
    12
  0
VERTEX
  5
10E9
  8
0
 10
0.0
 20
0.0
 30
0.0
 70
   128
 71
    10
 72
     5
 73
     7
  0
VERTEX
  5
10EA
  8
0
 10
0.0
 20
0.0
 30
0.0
 70
   128
 71
    10
 72
     7
 73
    11
  0
SEQEND
  5
18A9
  8
0
  0
POLYLINE
  5
10EB
  8
0
 66
     1
 10
0.0
 20
0.0
 30
0.0
 70
    64
 71
    12
 72
    10
  0
VERTEX
  5
10EC
  8
0
 10
-2.1234457146837
 20
3.836758921775705
 30
67.9069361654897
 70
   192
  0
VERTEX
  5
10ED
  8
0
 10
20.95090031136049
 20
1.862531559530388
 30
67.4570699628157
 70
   192
  0
VERTEX
  5
10EE
  8
0
 10
44.06136168584783
 20
0.5836119189384785
 30
67.16564318328615
 70
   192
  0
VERTEX
  5
10EF
  8
0
 10
67.1869886932046
 20
-0.0000000000000139
 30
67.0326558269011
 70
   192
  0
VERTEX
  5
10F0
  8
0
 10
67.19518785427918
 20
0.6505792625616763
 30
70.58056821670948
 70
   192
  0
VERTEX
  5
10F1
  8
0
 10
67.21224807621213
 20
3.109352593649065
 30
74.27975064089082
 70
   192
  0
VERTEX
  5
10F2
  8
0
 10
67.2381693590034
 20
7.75048945656134
 30
76.77647663485091
 70
   192
  0
VERTEX
  5
10F3
  8
0
 10
44.41894595157473
 20
8.327703064030556
 30
76.90973689630032
 70
   192
  0
VERTEX
  5
10F4
  8
0
 10
21.62221565904966
 20
9.590407365281536
 30
77.20125515425659
 70
   192
  0
VERTEX
  5
10F5
  8
0
 10
-1.121164156625492
 20
11.53689317995577
 30
77.65063681334206
 70
   192
  0
VERTEX
  5
10F6
  8
0
 10
-1.566946256292789
 20
7.557887110556928
 30
75.71762493942147
 70
   192
  0
VERTEX
  5
10F7
  8
0
 10
-1.924607283295189
 20
4.81011837761463
 30
72.24061595676946
 70
   192
  0
VERTEX
  5
10F8
  8
0
 10
0.0
 20
0.0
 30
0.0
 70
   128
 71
     8
 72
     7
 73
     6
  0
VERTEX
  5
10F9
  8
0
 10
0.0
 20
0.0
 30
0.0
 70
   128
 71
     8
 72
     6
 73
    11
  0
VERTEX
  5
10FA
  8
0
 10
0.0
 20
0.0
 30
0.0
 70
   128
 71
    11
 72
     9
 73
     8
  0
VERTEX
  5
10FB
  8
0
 10
0.0
 20
0.0
 30
0.0
 70
   128
 71
    11
 72
    10
 73
     9
  0
VERTEX
  5
10FC
  8
0
 10
0.0
 20
0.0
 30
0.0
 70
   128
 71
     6
 72
     5
 73
    12
  0
VERTEX
  5
10FD
  8
0
 10
0.0
 20
0.0
 30
0.0
 70
   128
 71
     6
 72
    12
 73
    11
  0
VERTEX
  5
10FE
  8
0
 10
0.0
 20
0.0
 30
0.0
 70
   128
 71
     2
 72
     1
 73
    12
  0
VERTEX
  5
10FF
  8
0
 10
0.0
 20
0.0
 30
0.0
 70
   128
 71
     2
 72
    12
 73
     5
  0
VERTEX
  5
1100
  8
0
 10
0.0
 20
0.0
 30
0.0
 70
   128
 71
     5
 72
     3
 73
     2
  0
VERTEX
  5
1101
  8
0
 10
0.0
 20
0.0
 30
0.0
 70
   128
 71
     5
 72
     4
 73
     3
  0
SEQEND
  5
18AA
  8
0
  0
POLYLINE
  5
1102
  8
0
 66
     1
 10
0.0
 20
0.0
 30
0.0
 70
    64
 71
     8
 72
     6
  0
VERTEX
  5
1103
  8
0
 10
67.21224807621213
 20
3.109352593649065
 30
74.27975064089082
 70
   192
  0
VERTEX
  5
1104
  8
0
 10
67.2381693590034
 20
7.75048945656134
 30
76.77647663485091
 70
   192
  0
VERTEX
  5
1105
  8
0
 10
139.1869886932044
 20
7.750489456561348
 30
76.77647663485091
 70
   192
  0
VERTEX
  5
1106
  8
0
 10
139.1869886932044
 20
3.752114854560397
 30
74.84071625376508
 70
   192
  0
VERTEX
  5
1107
  8
0
 10
67.19518785427918
 20
0.6505792625616763
 30
70.58056821670948
 70
   192
  0
VERTEX
  5
1108
  8
0
 10
139.1869886932044
 20
0.9867083855453842
 30
71.36412384566813
 70
   192
  0
VERTEX
  5
1109
  8
0
 10
67.1869886932046
 20
-0.0000000000000139
 30
67.0326558269011
 70
   192
  0
VERTEX
  5
110A
  8
0
 10
139.1869886932044
 20
0.0000000000000071
 30
67.0327759869985
 70
   192
  0
VERTEX
  5
110B
  8
0
 10
0.0
 20
0.0
 30
0.0
 70
   128
 71
     1
 72
     2
 73
     3
  0
VERTEX
  5
110C
  8
0
 10
0.0
 20
0.0
 30
0.0
 70
   128
 71
     4
 72
     1
 73
     3
  0
VERTEX
  5
110D
  8
0
 10
0.0
 20
0.0
 30
0.0
 70
   128
 71
     5
 72
     1
 73
     4
  0
VERTEX
  5
110E
  8
0
 10
0.0
 20
0.0
 30
0.0
 70
   128
 71
     6
 72
     5
 73
     4
  0
VERTEX
  5
110F
  8
0
 10
0.0
 20
0.0
 30
0.0
 70
   128
 71
     7
 72
     5
 73
     6
  0
VERTEX
  5
1110
  8
0
 10
0.0
 20
0.0
 30
0.0
 70
   128
 71
     8
 72
     7
 73
     6
  0
SEQEND
  5
18AB
  8
0
  0
POLYLINE
  5
1111
  8
0
 66
     1
 10
0.0
 20
0.0
 30
0.0
 70
    64
 71
    12
 72
    10
  0
VERTEX
  5
1112
  8
0
 10
139.1869886932044
 20
-0.0000000000000278
 30
67.0327759869985
 70
   192
  0
VERTEX
  5
1113
  8
0
 10
151.7933908685028
 20
0.3230981022339037
 30
67.10434065657348
 70
   192
  0
VERTEX
  5
1114
  8
0
 10
164.3832735319569
 20
1.292392408935666
 30
67.31903466529836
 70
   192
  0
VERTEX
  5
1115
  8
0
 10
176.9233617198085
 20
2.9078829201053
 30
67.6768580131732
 70
   192
  0
VERTEX
  5
1116
  8
0
 10
176.2115248644694
 20
4.004472900141867
 30
72.39677567283891
 70
   192
  0
VERTEX
  5
1117
  8
0
 10
175.0896342466503
 20
6.729376668968079
 30
75.68012207475206
 70
   192
  0
VERTEX
  5
1118
  8
0
 10
173.8311546429685
 20
10.30376720927546
 30
77.36594725106109
 70
   192
  0
VERTEX
  5
1119
  8
0
 10
162.3318030731928
 20
8.886645398423681
 30
77.03877890198515
 70
   192
  0
VERTEX
  5
111A
  8
0
 10
150.7698485562445
 20
8.034528442026922
 30
76.84205220163446
 70
   192
  0
VERTEX
  5
111B
  8
0
 10
139.1869886932044
 20
7.750489456561349
 30
76.77647663485085
 70
   192
  0
VERTEX
  5
111C
  8
0
 10
139.1869886932044
 20
3.752114854560397
 30
74.84071625376508
 70
   192
  0
VERTEX
  5
111D
  8
0
 10
139.1869886932044
 20
0.9867083855453842
 30
71.36412384566813
 70
   192
  0
VERTEX
  5
111E
  8
0
 10
0.0
 20
0.0
 30
0.0
 70
   128
 71
     8
 72
     7
 73
     6
  0
VERTEX
  5
111F
  8
0
 10
0.0
 20
0.0
 30
0.0
 70
   128
 71
     6
 72
     9
 73
     8
  0
VERTEX
  5
1120
  8
0
 10
0.0
 20
0.0
 30
0.0
 70
   128
 71
     6
 72
    11
 73
    10
  0
VERTEX
  5
1121
  8
0
 10
0.0
 20
0.0
 30
0.0
 70
   128
 71
     6
 72
    10
 73
     9
  0
VERTEX
  5
1122
  8
0
 10
0.0
 20
0.0
 30
0.0
 70
   128
 71
     6
 72
     5
 73
    12
  0
VERTEX
  5
1123
  8
0
 10
0.0
 20
0.0
 30
0.0
 70
   128
 71
     6
 72
    12
 73
    11
  0
VERTEX
  5
1124
  8
0
 10
0.0
 20
0.0
 30
0.0
 70
   128
 71
     2
 72
     1
 73
    12
  0
VERTEX
  5
1125
  8
0
 10
0.0
 20
0.0
 30
0.0
 70
   128
 71
    12
 72
     3
 73
     2
  0
VERTEX
  5
1126
  8
0
 10
0.0
 20
0.0
 30
0.0
 70
   128
 71
    12
 72
     5
 73
     4
  0
VERTEX
  5
1127
  8
0
 10
0.0
 20
0.0
 30
0.0
 70
   128
 71
    12
 72
     4
 73
     3
  0
SEQEND
  5
18AC
  8
0
  0
POLYLINE
  5
1128
  8
0
 66
     1
 10
0.0
 20
0.0
 30
0.0
 70
    64
 71
    14
 72
    12
  0
VERTEX
  5
1129
  8
0
 10
173.8311546429682
 20
10.30376720927545
 30
77.36594725106119
 70
   192
  0
VERTEX
  5
112A
  8
0
 10
179.9823126098435
 20
127.6748531630314
 30
104.4631975556479
 70
   192
  0
VERTEX
  5
112B
  8
0
 10
180.7093649485326
 20
127.6838913946327
 30
104.4381587950454
 70
   192
  0
VERTEX
  5
112C
  8
0
 10
181.4298948747763
 20
127.6893143335933
 30
104.3585989120798
 70
   192
  0
VERTEX
  5
112D
  8
0
 10
182.140173350654
 20
127.6911219799134
 30
104.2253644096638
 70
   192
  0
VERTEX
  5
112E
  8
0
 10
189.851005095881
 20
127.1570078687288
 30
94.2014295468217
 70
   192
  0
VERTEX
  5
112F
  8
0
 10
183.7321233260357
 20
10.40178844226566
 30
67.24636323336583
 70
   192
  0
VERTEX
  5
1130
  8
0
 10
183.7005946578495
 20
10.27547534967053
 30
67.94063003266837
 70
   192
  0
VERTEX
  5
1131
  8
0
 10
183.6191064015648
 20
10.15001585381424
 30
68.6326205510021
 70
   192
  0
VERTEX
  5
1132
  8
0
 10
183.4873997109595
 20
10.0258106597858
 30
69.3201611149957
 70
   192
  0
VERTEX
  5
1133
  8
0
 10
186.0606620850697
 20
127.6256767672259
 30
102.323259369345
 70
   192
  0
VERTEX
  5
1134
  8
0
 10
188.887135773438
 20
127.4316337666636
 30
98.67703674118255
 70
   192
  0
VERTEX
  5
1135
  8
0
 10
177.8009169446572
 20
9.657596015793722
 30
76.35614740997548
 70
   192
  0
VERTEX
  5
1136
  8
0
 10
181.2932727648284
 20
9.506485782320368
 30
73.66700519740392
 70
   192
  0
VERTEX
  5
1137
  8
0
 10
0.0
 20
0.0
 30
0.0
 70
   128
 71
     1
 72
     2
 73
     3
  0
VERTEX
  5
1138
  8
0
 10
0.0
 20
0.0
 30
0.0
 70
   128
 71
     3
 72
     4
 73
     5
  0
VERTEX
  5
1139
  8
0
 10
0.0
 20
0.0
 30
0.0
 70
   128
 71
     6
 72
     7
 73
     8
  0
VERTEX
  5
113A
  8
0
 10
0.0
 20
0.0
 30
0.0
 70
   128
 71
     8
 72
     9
 73
     6
  0
VERTEX
  5
113B
  8
0
 10
0.0
 20
0.0
 30
0.0
 70
   128
 71
     9
 72
    10
 73
     6
  0
VERTEX
  5
113C
  8
0
 10
0.0
 20
0.0
 30
0.0
 70
   128
 71
     1
 72
     3
 73
     5
  0
VERTEX
  5
113D
  8
0
 10
0.0
 20
0.0
 30
0.0
 70
   128
 71
     5
 72
    11
 73
     1
  0
VERTEX
  5
113E
  8
0
 10
0.0
 20
0.0
 30
0.0
 70
   128
 71
     1
 72
    11
 73
    12
  0
VERTEX
  5
113F
  8
0
 10
0.0
 20
0.0
 30
0.0
 70
   128
 71
    13
 72
     1
 73
    12
  0
VERTEX
  5
1140
  8
0
 10
0.0
 20
0.0
 30
0.0
 70
   128
 71
    13
 72
    12
 73
     6
  0
VERTEX
  5
1141
  8
0
 10
0.0
 20
0.0
 30
0.0
 70
   128
 71
    14
 72
    13
 73
     6
  0
VERTEX
  5
1142
  8
0
 10
0.0
 20
0.0
 30
0.0
 70
   128
 71
     6
 72
    10
 73
    14
  0
SEQEND
  5
18AD
  8
0
  0
POLYLINE
  5
1143
  8
0
 66
     1
 10
0.0
 20
0.0
 30
0.0
 70
    64
 71
     9
 72
     7
  0
VERTEX
  5
1144
  8
0
 10
176.9233617198085
 20
2.907882920105276
 30
67.67685801317316
 70
   192
  0
VERTEX
  5
1145
  8
0
 10
180.1012000236799
 20
4.17367825967103
 30
68.39998629414045
 70
   192
  0
VERTEX
  5
1146
  8
0
 10
182.4379857139922
 20
6.70764770183224
 30
68.98499923561968
 70
   192
  0
VERTEX
  5
1147
  8
0
 10
183.4873997109595
 20
10.0258106597858
 30
69.3201611149957
 70
   192
  0
VERTEX
  5
1148
  8
0
 10
181.2932727648284
 20
9.506485782320368
 30
73.66700519740392
 70
   192
  0
VERTEX
  5
1149
  8
0
 10
177.8009169446572
 20
9.657596015793722
 30
76.35614740997548
 70
   192
  0
VERTEX
  5
114A
  8
0
 10
173.8311546429685
 20
10.30376720927546
 30
77.36594725106109
 70
   192
  0
VERTEX
  5
114B
  8
0
 10
175.0896342466503
 20
6.729376668968079
 30
75.68012207475206
 70
   192
  0
VERTEX
  5
114C
  8
0
 10
176.2115248644694
 20
4.004472900141867
 30
72.39677567283891
 70
   192
  0
VERTEX
  5
114D
  8
0
 10
0.0
 20
0.0
 30
0.0
 70
   128
 71
     3
 72
     2
 73
     5
  0
VERTEX
  5
114E
  8
0
 10
0.0
 20
0.0
 30
0.0
 70
   128
 71
     5
 72
     4
 73
     3
  0
VERTEX
  5
114F
  8
0
 10
0.0
 20
0.0
 30
0.0
 70
   128
 71
     2
 72
     8
 73
     6
  0
VERTEX
  5
1150
  8
0
 10
0.0
 20
0.0
 30
0.0
 70
   128
 71
     6
 72
     5
 73
     2
  0
VERTEX
  5
1151
  8
0
 10
0.0
 20
0.0
 30
0.0
 70
   128
 71
     8
 72
     7
 73
     6
  0
VERTEX
  5
1152
  8
0
 10
0.0
 20
0.0
 30
0.0
 70
   128
 71
     2
 72
     9
 73
     8
  0
VERTEX
  5
1153
  8
0
 10
0.0
 20
0.0
 30
0.0
 70
   128
 71
     2
 72
     1
 73
     9
  0
SEQEND
  5
18AE
  8
0
  0
POLYLINE
  5
1154
  8
0
 66
     1
 10
0.0
 20
0.0
 30
0.0
 70
    64
 71
    12
 72
    10
  0
VERTEX
  5
1155
  8
0
 10
176.9233617198085
 20
2.9078829201053
 30
67.6768580131732
 70
   192
  0
VERTEX
  5
1156
  8
0
 10
176.9494504810941
 20
2.911928823148552
 30
67.5345824658598
 70
   192
  0
VERTEX
  5
1157
  8
0
 10
176.9650647222694
 20
2.914351824001311
 30
67.39097371283145
 70
   192
  0
VERTEX
  5
1158
  8
0
 10
176.97025764642
 20
2.915158114899764
 30
67.2463632333659
 70
   192
  0
VERTEX
  5
1159
  8
0
 10
180.3182536449756
 20
4.257866046662553
 30
67.2463632333659
 70
   192
  0
VERTEX
  5
115A
  8
0
 10
182.7360652455855
 20
6.934828665064092
 30
67.2463632333659
 70
   192
  0
VERTEX
  5
115B
  8
0
 10
183.7321233260355
 20
10.40178844226564
 30
67.2463632333659
 70
   192
  0
VERTEX
  5
115C
  8
0
 10
183.7005946578495
 20
10.27547534967053
 30
67.94063003266837
 70
   192
  0
VERTEX
  5
115D
  8
0
 10
183.6191064015648
 20
10.15001585381424
 30
68.6326205510021
 70
   192
  0
VERTEX
  5
115E
  8
0
 10
183.4873997109596
 20
10.02581065978579
 30
69.32016111499573
 70
   192
  0
VERTEX
  5
115F
  8
0
 10
182.4379857139922
 20
6.70764770183224
 30
68.98499923561968
 70
   192
  0
VERTEX
  5
1160
  8
0
 10
180.1012000236799
 20
4.17367825967103
 30
68.39998629414045
 70
   192
  0
VERTEX
  5
1161
  8
0
 10
0.0
 20
0.0
 30
0.0
 70
   128
 71
     8
 72
     7
 73
     6
  0
VERTEX
  5
1162
  8
0
 10
0.0
 20
0.0
 30
0.0
 70
   128
 71
     8
 72
     6
 73
    11
  0
VERTEX
  5
1163
  8
0
 10
0.0
 20
0.0
 30
0.0
 70
   128
 71
    11
 72
     9
 73
     8
  0
VERTEX
  5
1164
  8
0
 10
0.0
 20
0.0
 30
0.0
 70
   128
 71
    11
 72
    10
 73
     9
  0
VERTEX
  5
1165
  8
0
 10
0.0
 20
0.0
 30
0.0
 70
   128
 71
     6
 72
     5
 73
    12
  0
VERTEX
  5
1166
  8
0
 10
0.0
 20
0.0
 30
0.0
 70
   128
 71
     6
 72
    12
 73
    11
  0
VERTEX
  5
1167
  8
0
 10
0.0
 20
0.0
 30
0.0
 70
   128
 71
     2
 72
     1
 73
    12
  0
VERTEX
  5
1168
  8
0
 10
0.0
 20
0.0
 30
0.0
 70
   128
 71
    12
 72
     3
 73
     2
  0
VERTEX
  5
1169
  8
0
 10
0.0
 20
0.0
 30
0.0
 70
   128
 71
    12
 72
     5
 73
     4
  0
VERTEX
  5
116A
  8
0
 10
0.0
 20
0.0
 30
0.0
 70
   128
 71
    12
 72
     4
 73
     3
  0
SEQEND
  5
18AF
  8
0
  0
POLYLINE
  5
116B
  8
0
 66
     1
 10
0.0
 20
0.0
 30
0.0
 70
    64
 71
    11
 72
     9
  0
VERTEX
  5
116C
  8
0
 10
183.4873997109595
 20
10.02581065978574
 30
-69.3201611149958
 70
   192
  0
VERTEX
  5
116D
  8
0
 10
183.6187937034687
 20
10.14953759922484
 30
-68.63525857767543
 70
   192
  0
VERTEX
  5
116E
  8
0
 10
189.8510050958807
 20
127.1570078687288
 30
-94.20142954682171
 70
   192
  0
VERTEX
  5
116F
  8
0
 10
183.7004192672637
 20
10.27487288819086
 30
-67.943942635232
 70
   192
  0
VERTEX
  5
1170
  8
0
 10
183.7321233260356
 20
10.40178844226563
 30
-67.2463632333659
 70
   192
  0
VERTEX
  5
1171
  8
0
 10
184.8298705481968
 20
127.6621276652205
 30
-103.168554119323
 70
   192
  0
VERTEX
  5
1172
  8
0
 10
179.9823126098435
 20
127.6748531630314
 30
-104.4631975556478
 70
   192
  0
VERTEX
  5
1173
  8
0
 10
173.8311546429682
 20
10.30376720927548
 30
-77.3659472510612
 70
   192
  0
VERTEX
  5
1174
  8
0
 10
177.8009169446611
 20
9.657596015795962
 30
-76.35614740997445
 70
   192
  0
VERTEX
  5
1175
  8
0
 10
188.5671462731802
 20
127.4679873303665
 30
-99.31438884293303
 70
   192
  0
VERTEX
  5
1176
  8
0
 10
181.2932727648246
 20
9.506485782317135
 30
-73.66700519740725
 70
   192
  0
VERTEX
  5
1177
  8
0
 10
0.0
 20
0.0
 30
0.0
 70
   128
 71
     1
 72
     2
 73
     3
  0
VERTEX
  5
1178
  8
0
 10
0.0
 20
0.0
 30
0.0
 70
   128
 71
     2
 72
     4
 73
     3
  0
VERTEX
  5
1179
  8
0
 10
0.0
 20
0.0
 30
0.0
 70
   128
 71
     4
 72
     5
 73
     3
  0
VERTEX
  5
117A
  8
0
 10
0.0
 20
0.0
 30
0.0
 70
   128
 71
     6
 72
     7
 73
     8
  0
VERTEX
  5
117B
  8
0
 10
0.0
 20
0.0
 30
0.0
 70
   128
 71
     9
 72
     6
 73
     8
  0
VERTEX
  5
117C
  8
0
 10
0.0
 20
0.0
 30
0.0
 70
   128
 71
    10
 72
     6
 73
     9
  0
VERTEX
  5
117D
  8
0
 10
0.0
 20
0.0
 30
0.0
 70
   128
 71
    11
 72
    10
 73
     9
  0
VERTEX
  5
117E
  8
0
 10
0.0
 20
0.0
 30
0.0
 70
   128
 71
     3
 72
    10
 73
    11
  0
VERTEX
  5
117F
  8
0
 10
0.0
 20
0.0
 30
0.0
 70
   128
 71
     1
 72
     3
 73
    11
  0
SEQEND
  5
18B0
  8
0
  0
POLYLINE
  5
1180
  8
0
 66
     1
 10
0.0
 20
0.0
 30
0.0
 70
    64
 71
    12
 72
    10
  0
VERTEX
  5
1181
  8
0
 10
176.97025764642
 20
2.915158114899775
 30
-67.2463632333659
 70
   192
  0
VERTEX
  5
1182
  8
0
 10
176.9650765928102
 20
2.914353664365385
 30
-67.39102735169693
 70
   192
  0
VERTEX
  5
1183
  8
0
 10
176.9494742221756
 20
2.911932503876693
 30
-67.53452890262477
 70
   192
  0
VERTEX
  5
1184
  8
0
 10
176.9233617198085
 20
2.907882920105288
 30
-67.67685801317316
 70
   192
  0
VERTEX
  5
1185
  8
0
 10
180.1012000236799
 20
4.173678259671028
 30
-68.39998629414048
 70
   192
  0
VERTEX
  5
1186
  8
0
 10
182.4379857139921
 20
6.707647701832209
 30
-68.98499923561972
 70
   192
  0
VERTEX
  5
1187
  8
0
 10
183.4873997109595
 20
10.02581065978574
 30
-69.3201611149958
 70
   192
  0
VERTEX
  5
1188
  8
0
 10
183.6187937034687
 20
10.14953759922484
 30
-68.63525857767543
 70
   192
  0
VERTEX
  5
1189
  8
0
 10
183.7004192672637
 20
10.27487288819086
 30
-67.943942635232
 70
   192
  0
VERTEX
  5
118A
  8
0
 10
183.7321233260356
 20
10.40178844226564
 30
-67.2463632333659
 70
   192
  0
VERTEX
  5
118B
  8
0
 10
182.7360652455855
 20
6.934828665064114
 30
-67.2463632333659
 70
   192
  0
VERTEX
  5
118C
  8
0
 10
180.3182536449756
 20
4.257866046662587
 30
-67.2463632333659
 70
   192
  0
VERTEX
  5
118D
  8
0
 10
0.0
 20
0.0
 30
0.0
 70
   128
 71
     8
 72
     7
 73
     6
  0
VERTEX
  5
118E
  8
0
 10
0.0
 20
0.0
 30
0.0
 70
   128
 71
     6
 72
     9
 73
     8
  0
VERTEX
  5
118F
  8
0
 10
0.0
 20
0.0
 30
0.0
 70
   128
 71
     6
 72
    11
 73
    10
  0
VERTEX
  5
1190
  8
0
 10
0.0
 20
0.0
 30
0.0
 70
   128
 71
     6
 72
    10
 73
     9
  0
VERTEX
  5
1191
  8
0
 10
0.0
 20
0.0
 30
0.0
 70
   128
 71
     6
 72
     5
 73
    12
  0
VERTEX
  5
1192
  8
0
 10
0.0
 20
0.0
 30
0.0
 70
   128
 71
     6
 72
    12
 73
    11
  0
VERTEX
  5
1193
  8
0
 10
0.0
 20
0.0
 30
0.0
 70
   128
 71
     2
 72
     1
 73
    12
  0
VERTEX
  5
1194
  8
0
 10
0.0
 20
0.0
 30
0.0
 70
   128
 71
     2
 72
    12
 73
     5
  0
VERTEX
  5
1195
  8
0
 10
0.0
 20
0.0
 30
0.0
 70
   128
 71
     5
 72
     3
 73
     2
  0
VERTEX
  5
1196
  8
0
 10
0.0
 20
0.0
 30
0.0
 70
   128
 71
     5
 72
     4
 73
     3
  0
SEQEND
  5
18B1
  8
0
  0
POLYLINE
  5
1197
  8
0
 66
     1
 10
0.0
 20
0.0
 30
0.0
 70
    64
 71
     9
 72
     7
  0
VERTEX
  5
1198
  8
0
 10
176.9233617198085
 20
2.907882920105305
 30
-67.6768580131732
 70
   192
  0
VERTEX
  5
1199
  8
0
 10
176.3087468925335
 20
3.801729015424329
 30
-71.97444534316331
 70
   192
  0
VERTEX
  5
119A
  8
0
 10
175.2271693338047
 20
6.366112619407512
 30
-75.38759921944279
 70
   192
  0
VERTEX
  5
119B
  8
0
 10
173.8311546429685
 20
10.3037672092755
 30
-77.36594725106109
 70
   192
  0
VERTEX
  5
119C
  8
0
 10
177.8009169446611
 20
9.657596015795962
 30
-76.35614740997445
 70
   192
  0
VERTEX
  5
119D
  8
0
 10
181.2932727648246
 20
9.506485782317135
 30
-73.66700519740725
 70
   192
  0
VERTEX
  5
119E
  8
0
 10
183.4873997109596
 20
10.02581065978573
 30
-69.32016111499578
 70
   192
  0
VERTEX
  5
119F
  8
0
 10
182.4379857139921
 20
6.707647701832209
 30
-68.98499923561972
 70
   192
  0
VERTEX
  5
11A0
  8
0
 10
180.1012000236799
 20
4.173678259671028
 30
-68.39998629414048
 70
   192
  0
VERTEX
  5
11A1
  8
0
 10
0.0
 20
0.0
 30
0.0
 70
   128
 71
     5
 72
     4
 73
     8
  0
VERTEX
  5
11A2
  8
0
 10
0.0
 20
0.0
 30
0.0
 70
   128
 71
     8
 72
     6
 73
     5
  0
VERTEX
  5
11A3
  8
0
 10
0.0
 20
0.0
 30
0.0
 70
   128
 71
     8
 72
     7
 73
     6
  0
VERTEX
  5
11A4
  8
0
 10
0.0
 20
0.0
 30
0.0
 70
   128
 71
     4
 72
     9
 73
     8
  0
VERTEX
  5
11A5
  8
0
 10
0.0
 20
0.0
 30
0.0
 70
   128
 71
     2
 72
     1
 73
     9
  0
VERTEX
  5
11A6
  8
0
 10
0.0
 20
0.0
 30
0.0
 70
   128
 71
     9
 72
     3
 73
     2
  0
VERTEX
  5
11A7
  8
0
 10
0.0
 20
0.0
 30
0.0
 70
   128
 71
     9
 72
     4
 73
     3
  0
SEQEND
  5
18B2
  8
0
  0
POLYLINE
  5
11A8
  8
0
 66
     1
 10
0.0
 20
0.0
 30
0.0
 70
    64
 71
    12
 72
    10
  0
VERTEX
  5
11A9
  8
0
 10
-183.6718754412668
 20
128.2053151170393
 30
-103.5661977466698
 70
   192
  0
VERTEX
  5
11AA
  8
0
 10
-187.7047563650142
 20
128.4971803576644
 30
-100.3937552242956
 70
   192
  0
VERTEX
  5
11AB
  8
0
 10
-133.4987181888554
 20
70.84552387339717
 30
-91.34311309967093
 70
   192
  0
VERTEX
  5
11AC
  8
0
 10
-178.562672232659
 20
127.6748531630314
 30
-104.4631975556478
 70
   192
  0
VERTEX
  5
11AD
  8
0
 10
-1.56694625629279
 20
7.557887110556873
 30
-75.71762493942141
 70
   192
  0
VERTEX
  5
11AE
  8
0
 10
-1.121164156625497
 20
11.53689317995565
 30
-77.65063681334202
 70
   192
  0
VERTEX
  5
11AF
  8
0
 10
-71.23531518672634
 20
30.09325184484314
 30
-81.93470977218175
 70
   192
  0
VERTEX
  5
11B0
  8
0
 10
-58.18453367198551
 20
16.39505506493168
 30
-70.68544264992121
 70
   192
  0
VERTEX
  5
11B1
  8
0
 10
-2.1234457146837
 20
3.836758921775705
 30
-67.9069361654897
 70
   192
  0
VERTEX
  5
11B2
  8
0
 10
-1.924607283295186
 20
4.81011837761463
 30
-72.24061595676942
 70
   192
  0
VERTEX
  5
11B3
  8
0
 10
-111.1241540019382
 20
42.88779495888004
 30
-76.54692646481075
 70
   192
  0
VERTEX
  5
11B4
  8
0
 10
-189.1568082791365
 20
128.4275090637112
 30
-95.47247556855851
 70
   192
  0
VERTEX
  5
11B5
  8
0
 10
0.0
 20
0.0
 30
0.0
 70
   128
 71
     1
 72
     2
 73
     3
  0
VERTEX
  5
11B6
  8
0
 10
0.0
 20
0.0
 30
0.0
 70
   128
 71
     3
 72
     4
 73
     1
  0
VERTEX
  5
11B7
  8
0
 10
0.0
 20
0.0
 30
0.0
 70
   128
 71
     5
 72
     6
 73
     7
  0
VERTEX
  5
11B8
  8
0
 10
0.0
 20
0.0
 30
0.0
 70
   128
 71
     8
 72
     9
 73
    10
  0
VERTEX
  5
11B9
  8
0
 10
0.0
 20
0.0
 30
0.0
 70
   128
 71
    10
 72
    11
 73
     8
  0
VERTEX
  5
11BA
  8
0
 10
0.0
 20
0.0
 30
0.0
 70
   128
 71
    10
 72
     2
 73
    12
  0
VERTEX
  5
11BB
  8
0
 10
0.0
 20
0.0
 30
0.0
 70
   128
 71
    10
 72
    12
 73
    11
  0
VERTEX
  5
11BC
  8
0
 10
0.0
 20
0.0
 30
0.0
 70
   128
 71
     3
 72
     2
 73
    10
  0
VERTEX
  5
11BD
  8
0
 10
0.0
 20
0.0
 30
0.0
 70
   128
 71
     3
 72
    10
 73
     5
  0
VERTEX
  5
11BE
  8
0
 10
0.0
 20
0.0
 30
0.0
 70
   128
 71
     3
 72
     5
 73
     7
  0
SEQEND
  5
18B3
  8
0
  0
POLYLINE
  5
11BF
  8
0
 66
     1
 10
0.0
 20
0.0
 30
0.0
 70
    64
 71
    12
 72
    10
  0
VERTEX
  5
11C0
  8
0
 10
176.9233617198085
 20
2.907882920105305
 30
-67.6768580131732
 70
   192
  0
VERTEX
  5
11C1
  8
0
 10
164.3832735319569
 20
1.292392408935668
 30
-67.31903466529835
 70
   192
  0
VERTEX
  5
11C2
  8
0
 10
151.7933908685028
 20
0.323098102233904
 30
-67.10434065657346
 70
   192
  0
VERTEX
  5
11C3
  8
0
 10
139.1869886932044
 20
0.0000000000000071
 30
-67.0327759869985
 70
   192
  0
VERTEX
  5
11C4
  8
0
 10
139.1869886932044
 20
0.9867083855453807
 30
-71.36412384566812
 70
   192
  0
VERTEX
  5
11C5
  8
0
 10
139.1869886932044
 20
3.752114854560397
 30
-74.84071625376508
 70
   192
  0
VERTEX
  5
11C6
  8
0
 10
139.1869886932044
 20
7.75048945656133
 30
-76.77647663485091
 70
   192
  0
VERTEX
  5
11C7
  8
0
 10
150.7698485562445
 20
8.034528442026916
 30
-76.84205220163446
 70
   192
  0
VERTEX
  5
11C8
  8
0
 10
162.3318030731929
 20
8.886645398423692
 30
-77.03877890198517
 70
   192
  0
VERTEX
  5
11C9
  8
0
 10
173.8311546429685
 20
10.3037672092755
 30
-77.36594725106109
 70
   192
  0
VERTEX
  5
11CA
  8
0
 10
175.2271693338047
 20
6.366112619407512
 30
-75.38759921944279
 70
   192
  0
VERTEX
  5
11CB
  8
0
 10
176.3087468925335
 20
3.801729015424329
 30
-71.97444534316331
 70
   192
  0
VERTEX
  5
11CC
  8
0
 10
0.0
 20
0.0
 30
0.0
 70
   128
 71
     8
 72
     7
 73
     6
  0
VERTEX
  5
11CD
  8
0
 10
0.0
 20
0.0
 30
0.0
 70
   128
 71
     6
 72
    11
 73
     9
  0
VERTEX
  5
11CE
  8
0
 10
0.0
 20
0.0
 30
0.0
 70
   128
 71
     6
 72
     9
 73
     8
  0
VERTEX
  5
11CF
  8
0
 10
0.0
 20
0.0
 30
0.0
 70
   128
 71
    11
 72
    10
 73
     9
  0
VERTEX
  5
11D0
  8
0
 10
0.0
 20
0.0
 30
0.0
 70
   128
 71
     6
 72
     5
 73
    12
  0
VERTEX
  5
11D1
  8
0
 10
0.0
 20
0.0
 30
0.0
 70
   128
 71
     6
 72
    12
 73
    11
  0
VERTEX
  5
11D2
  8
0
 10
0.0
 20
0.0
 30
0.0
 70
   128
 71
     2
 72
     1
 73
    12
  0
VERTEX
  5
11D3
  8
0
 10
0.0
 20
0.0
 30
0.0
 70
   128
 71
    12
 72
     5
 73
     3
  0
VERTEX
  5
11D4
  8
0
 10
0.0
 20
0.0
 30
0.0
 70
   128
 71
    12
 72
     3
 73
     2
  0
VERTEX
  5
11D5
  8
0
 10
0.0
 20
0.0
 30
0.0
 70
   128
 71
     5
 72
     4
 73
     3
  0
SEQEND
  5
18B4
  8
0
  0
POLYLINE
  5
11D6
  8
0
 66
     1
 10
0.0
 20
0.0
 30
0.0
 70
    64
 71
    12
 72
    10
  0
VERTEX
  5
11D7
  8
0
 10
-2.12344571468369
 20
3.836758921775797
 30
-67.9069361654897
 70
   192
  0
VERTEX
  5
11D8
  8
0
 10
-1.924607283295186
 20
4.81011837761463
 30
-72.24061595676942
 70
   192
  0
VERTEX
  5
11D9
  8
0
 10
-1.56694625629279
 20
7.557887110556873
 30
-75.71762493942141
 70
   192
  0
VERTEX
  5
11DA
  8
0
 10
-1.1211641566255
 20
11.53689317995566
 30
-77.650636813342
 70
   192
  0
VERTEX
  5
11DB
  8
0
 10
21.62221565904628
 20
9.590407365281738
 30
-77.20125515425666
 70
   192
  0
VERTEX
  5
11DC
  8
0
 10
44.41894595156825
 20
8.327703064030786
 30
-76.90973689630039
 70
   192
  0
VERTEX
  5
11DD
  8
0
 10
67.23816935899339
 20
7.75048945656133
 30
-76.77647663485091
 70
   192
  0
VERTEX
  5
11DE
  8
0
 10
67.21224807812146
 20
3.109353767618994
 30
-74.27975175711987
 70
   192
  0
VERTEX
  5
11DF
  8
0
 10
67.19518785619186
 20
0.650579837564504
 30
-70.58056973027183
 70
   192
  0
VERTEX
  5
11E0
  8
0
 10
67.1869886932046
 20
-0.0000000000000139
 30
-67.0327759869985
 70
   192
  0
VERTEX
  5
11E1
  8
0
 10
44.06136168585119
 20
0.583611918938344
 30
-67.16567878627804
 70
   192
  0
VERTEX
  5
11E2
  8
0
 10
20.95090031136382
 20
1.862531559530153
 30
-67.45707441318972
 70
   192
  0
VERTEX
  5
11E3
  8
0
 10
0.0
 20
0.0
 30
0.0
 70
   128
 71
     8
 72
     7
 73
     6
  0
VERTEX
  5
11E4
  8
0
 10
0.0
 20
0.0
 30
0.0
 70
   128
 71
     8
 72
     6
 73
    11
  0
VERTEX
  5
11E5
  8
0
 10
0.0
 20
0.0
 30
0.0
 70
   128
 71
    11
 72
     9
 73
     8
  0
VERTEX
  5
11E6
  8
0
 10
0.0
 20
0.0
 30
0.0
 70
   128
 71
    11
 72
    10
 73
     9
  0
VERTEX
  5
11E7
  8
0
 10
0.0
 20
0.0
 30
0.0
 70
   128
 71
     6
 72
     5
 73
    12
  0
VERTEX
  5
11E8
  8
0
 10
0.0
 20
0.0
 30
0.0
 70
   128
 71
     6
 72
    12
 73
    11
  0
VERTEX
  5
11E9
  8
0
 10
0.0
 20
0.0
 30
0.0
 70
   128
 71
     2
 72
     1
 73
    12
  0
VERTEX
  5
11EA
  8
0
 10
0.0
 20
0.0
 30
0.0
 70
   128
 71
    12
 72
     3
 73
     2
  0
VERTEX
  5
11EB
  8
0
 10
0.0
 20
0.0
 30
0.0
 70
   128
 71
    12
 72
     5
 73
     3
  0
VERTEX
  5
11EC
  8
0
 10
0.0
 20
0.0
 30
0.0
 70
   128
 71
     5
 72
     4
 73
     3
  0
SEQEND
  5
18B5
  8
0
  0
POLYLINE
  5
11ED
  8
0
 66
     1
 10
0.0
 20
0.0
 30
0.0
 70
    64
 71
     8
 72
     6
  0
VERTEX
  5
11EE
  8
0
 10
67.19518785619186
 20
0.650579837564504
 30
-70.58056973027183
 70
   192
  0
VERTEX
  5
11EF
  8
0
 10
139.1869886932044
 20
0.9867083855453807
 30
-71.36412384566812
 70
   192
  0
VERTEX
  5
11F0
  8
0
 10
139.1869886932044
 20
3.752114854560397
 30
-74.84071625376508
 70
   192
  0
VERTEX
  5
11F1
  8
0
 10
139.1869886932044
 20
7.75048945656134
 30
-76.77647663485084
 70
   192
  0
VERTEX
  5
11F2
  8
0
 10
67.23816935899339
 20
7.750489456561342
 30
-76.77647663485091
 70
   192
  0
VERTEX
  5
11F3
  8
0
 10
67.21224807812146
 20
3.109353767618994
 30
-74.27975175711987
 70
   192
  0
VERTEX
  5
11F4
  8
0
 10
139.1869886932044
 20
0.0000000000000071
 30
-67.0327759869985
 70
   192
  0
VERTEX
  5
11F5
  8
0
 10
67.1869886932046
 20
-0.0000000000000139
 30
-67.0327759869985
 70
   192
  0
VERTEX
  5
11F6
  8
0
 10
0.0
 20
0.0
 30
0.0
 70
   128
 71
     1
 72
     2
 73
     3
  0
VERTEX
  5
11F7
  8
0
 10
0.0
 20
0.0
 30
0.0
 70
   128
 71
     3
 72
     4
 73
     5
  0
VERTEX
  5
11F8
  8
0
 10
0.0
 20
0.0
 30
0.0
 70
   128
 71
     6
 72
     3
 73
     5
  0
VERTEX
  5
11F9
  8
0
 10
0.0
 20
0.0
 30
0.0
 70
   128
 71
     1
 72
     3
 73
     6
  0
VERTEX
  5
11FA
  8
0
 10
0.0
 20
0.0
 30
0.0
 70
   128
 71
     7
 72
     2
 73
     1
  0
VERTEX
  5
11FB
  8
0
 10
0.0
 20
0.0
 30
0.0
 70
   128
 71
     8
 72
     7
 73
     1
  0
SEQEND
  5
18B6
  8
0
  0
POLYLINE
  5
11FC
  8
0
 66
     1
 10
0.0
 20
0.0
 30
0.0
 70
    64
 71
    12
 72
    10
  0
VERTEX
  5
11FD
  8
0
 10
-191.79540977861
 20
130.0
 30
-95.47247556855851
 70
   192
  0
VERTEX
  5
11FE
  8
0
 10
-190.7433788782341
 20
129.8094894526683
 30
-95.47247556855851
 70
   192
  0
VERTEX
  5
11FF
  8
0
 10
-189.8249632996186
 20
129.2621539897696
 30
-95.47247556855851
 70
   192
  0
VERTEX
  5
1200
  8
0
 10
-189.1568082791367
 20
128.4275090637111
 30
-95.47247556855851
 70
   192
  0
VERTEX
  5
1201
  8
0
 10
-187.7047563650142
 20
128.4971803576644
 30
-100.3937552242956
 70
   192
  0
VERTEX
  5
1202
  8
0
 10
-183.6718754412668
 20
128.2053151170393
 30
-103.5661977466698
 70
   192
  0
VERTEX
  5
1203
  8
0
 10
-178.562672232659
 20
127.6748531630314
 30
-104.4631975556478
 70
   192
  0
VERTEX
  5
1204
  8
0
 10
-178.562672232659
 20
128.8743655436318
 30
-105.0439256699734
 70
   192
  0
VERTEX
  5
1205
  8
0
 10
-178.562672232659
 20
129.7039874843364
 30
-106.0869033924025
 70
   192
  0
VERTEX
  5
1206
  8
0
 10
-178.562672232659
 20
130.0
 30
-107.3863077500034
 70
   192
  0
VERTEX
  5
1207
  8
0
 10
-184.9783533606642
 20
130.0
 30
-105.9878887808195
 70
   192
  0
VERTEX
  5
1208
  8
0
 10
-189.9421624716039
 20
130.0
 30
-101.7243722084253
 70
   192
  0
VERTEX
  5
1209
  8
0
 10
0.0
 20
0.0
 30
0.0
 70
   128
 71
     6
 72
     7
 73
     8
  0
VERTEX
  5
120A
  8
0
 10
0.0
 20
0.0
 30
0.0
 70
   128
 71
     8
 72
     9
 73
     6
  0
VERTEX
  5
120B
  8
0
 10
0.0
 20
0.0
 30
0.0
 70
   128
 71
     9
 72
    11
 73
     6
  0
VERTEX
  5
120C
  8
0
 10
0.0
 20
0.0
 30
0.0
 70
   128
 71
     9
 72
    10
 73
    11
  0
VERTEX
  5
120D
  8
0
 10
0.0
 20
0.0
 30
0.0
 70
   128
 71
    12
 72
     5
 73
     6
  0
VERTEX
  5
120E
  8
0
 10
0.0
 20
0.0
 30
0.0
 70
   128
 71
    11
 72
    12
 73
     6
  0
VERTEX
  5
120F
  8
0
 10
0.0
 20
0.0
 30
0.0
 70
   128
 71
    12
 72
     1
 73
     2
  0
VERTEX
  5
1210
  8
0
 10
0.0
 20
0.0
 30
0.0
 70
   128
 71
     2
 72
     3
 73
    12
  0
VERTEX
  5
1211
  8
0
 10
0.0
 20
0.0
 30
0.0
 70
   128
 71
     3
 72
     5
 73
    12
  0
VERTEX
  5
1212
  8
0
 10
0.0
 20
0.0
 30
0.0
 70
   128
 71
     3
 72
     4
 73
     5
  0
SEQEND
  5
18B7
  8
0
  0
POLYLINE
  5
1213
  8
0
 66
     1
 10
0.0
 20
0.0
 30
0.0
 70
    64
 71
     8
 72
     6
  0
VERTEX
  5
1214
  8
0
 10
-178.562672232659
 20
128.8743655436318
 30
-105.0439256699734
 70
   192
  0
VERTEX
  5
1215
  8
0
 10
179.9823126098435
 20
128.8743655436318
 30
-105.0439256699734
 70
   192
  0
VERTEX
  5
1216
  8
0
 10
179.9823126098435
 20
129.7039874843364
 30
-106.0869033924025
 70
   192
  0
VERTEX
  5
1217
  8
0
 10
-178.562672232659
 20
129.7039874843364
 30
-106.0869033924025
 70
   192
  0
VERTEX
  5
1218
  8
0
 10
-178.562672232659
 20
127.6748531630315
 30
-104.4631975556477
 70
   192
  0
VERTEX
  5
1219
  8
0
 10
179.9823126098434
 20
127.6748531630314
 30
-104.4631975556478
 70
   192
  0
VERTEX
  5
121A
  8
0
 10
179.9823126098435
 20
130.0
 30
-107.3863077500034
 70
   192
  0
VERTEX
  5
121B
  8
0
 10
-178.5626722326589
 20
130.0
 30
-107.3863077500034
 70
   192
  0
VERTEX
  5
121C
  8
0
 10
0.0
 20
0.0
 30
0.0
 70
   128
 71
     1
 72
     2
 73
    -3
  0
VERTEX
  5
121D
  8
0
 10
0.0
 20
0.0
 30
0.0
 70
   128
 71
    -1
 72
     3
 73
     4
  0
VERTEX
  5
121E
  8
0
 10
0.0
 20
0.0
 30
0.0
 70
   128
 71
     5
 72
     6
 73
    -2
  0
VERTEX
  5
121F
  8
0
 10
0.0
 20
0.0
 30
0.0
 70
   128
 71
    -5
 72
     2
 73
     1
  0
VERTEX
  5
1220
  8
0
 10
0.0
 20
0.0
 30
0.0
 70
   128
 71
     4
 72
     3
 73
    -7
  0
VERTEX
  5
1221
  8
0
 10
0.0
 20
0.0
 30
0.0
 70
   128
 71
    -4
 72
     7
 73
     8
  0
SEQEND
  5
18B8
  8
0
  0
POLYLINE
  5
1222
  8
0
 66
     1
 10
0.0
 20
0.0
 30
0.0
 70
    64
 71
     8
 72
     6
  0
VERTEX
  5
1223
  8
0
 10
-190.7433788782341
 20
129.8094894526683
 30
-95.47247556855851
 70
   192
  0
VERTEX
  5
1224
  8
0
 10
-190.7433788782342
 20
129.8094894526683
 30
95.47247556855851
 70
   192
  0
VERTEX
  5
1225
  8
0
 10
-189.8249632996187
 20
129.2621539897697
 30
95.47247556855851
 70
   192
  0
VERTEX
  5
1226
  8
0
 10
-189.8249632996186
 20
129.2621539897696
 30
-95.47247556855851
 70
   192
  0
VERTEX
  5
1227
  8
0
 10
-191.79540977861
 20
130.0
 30
-95.47247556855851
 70
   192
  0
VERTEX
  5
1228
  8
0
 10
-191.79540977861
 20
130.0
 30
95.47247556855851
 70
   192
  0
VERTEX
  5
1229
  8
0
 10
-189.1568082791368
 20
128.4275090637113
 30
95.47247556855851
 70
   192
  0
VERTEX
  5
122A
  8
0
 10
-189.156808279137
 20
128.4275090637112
 30
-95.47247556855851
 70
   192
  0
VERTEX
  5
122B
  8
0
 10
0.0
 20
0.0
 30
0.0
 70
   128
 71
     1
 72
     2
 73
    -3
  0
VERTEX
  5
122C
  8
0
 10
0.0
 20
0.0
 30
0.0
 70
   128
 71
    -1
 72
     3
 73
     4
  0
VERTEX
  5
122D
  8
0
 10
0.0
 20
0.0
 30
0.0
 70
   128
 71
     5
 72
     6
 73
    -2
  0
VERTEX
  5
122E
  8
0
 10
0.0
 20
0.0
 30
0.0
 70
   128
 71
    -5
 72
     2
 73
     1
  0
VERTEX
  5
122F
  8
0
 10
0.0
 20
0.0
 30
0.0
 70
   128
 71
     4
 72
     3
 73
    -7
  0
VERTEX
  5
1230
  8
0
 10
0.0
 20
0.0
 30
0.0
 70
   128
 71
    -4
 72
     7
 73
     8
  0
SEQEND
  5
18B9
  8
0
  0
POLYLINE
  5
1231
  8
0
 66
     1
 10
0.0
 20
0.0
 30
0.0
 70
    64
 71
    12
 72
    10
  0
VERTEX
  5
1232
  8
0
 10
179.9823126098435
 20
130.0
 30
-107.3863077500034
 70
   192
  0
VERTEX
  5
1233
  8
0
 10
179.9823126098435
 20
129.7039874843364
 30
-106.0869033924025
 70
   192
  0
VERTEX
  5
1234
  8
0
 10
179.9823126098435
 20
128.8743655436318
 30
-105.0439256699734
 70
   192
  0
VERTEX
  5
1235
  8
0
 10
179.9823126098435
 20
127.6748531630315
 30
-104.4631975556477
 70
   192
  0
VERTEX
  5
1236
  8
0
 10
184.8298705481968
 20
127.6621276652205
 30
-103.168554119323
 70
   192
  0
VERTEX
  5
1237
  8
0
 10
188.5671462731802
 20
127.4679873303665
 30
-99.31438884293303
 70
   192
  0
VERTEX
  5
1238
  8
0
 10
189.851005095881
 20
127.1570078687288
 30
-94.2014295468217
 70
   192
  0
VERTEX
  5
1239
  8
0
 10
190.3027494116752
 20
128.5897577926996
 30
-94.2014295468217
 70
   192
  0
VERTEX
  5
123A
  8
0
 10
191.3924648394054
 20
129.6238591214182
 30
-94.2014295468217
 70
   192
  0
VERTEX
  5
123B
  8
0
 10
192.8468937001445
 20
130.0
 30
-94.2014295468217
 70
   192
  0
VERTEX
  5
123C
  8
0
 10
191.2070549236668
 20
130.0
 30
-100.6636404858459
 70
   192
  0
VERTEX
  5
123D
  8
0
 10
186.2875385942327
 20
129.9999999999999
 30
-105.705640933964
 70
   192
  0
VERTEX
  5
123E
  8
0
 10
0.0
 20
0.0
 30
0.0
 70
   128
 71
     6
 72
     7
 73
     8
  0
VERTEX
  5
123F
  8
0
 10
0.0
 20
0.0
 30
0.0
 70
   128
 71
     9
 72
    11
 73
     6
  0
VERTEX
  5
1240
  8
0
 10
0.0
 20
0.0
 30
0.0
 70
   128
 71
     8
 72
     9
 73
     6
  0
VERTEX
  5
1241
  8
0
 10
0.0
 20
0.0
 30
0.0
 70
   128
 71
     9
 72
    10
 73
    11
  0
VERTEX
  5
1242
  8
0
 10
0.0
 20
0.0
 30
0.0
 70
   128
 71
    12
 72
     5
 73
     6
  0
VERTEX
  5
1243
  8
0
 10
0.0
 20
0.0
 30
0.0
 70
   128
 71
    11
 72
    12
 73
     6
  0
VERTEX
  5
1244
  8
0
 10
0.0
 20
0.0
 30
0.0
 70
   128
 71
    12
 72
     1
 73
     2
  0
VERTEX
  5
1245
  8
0
 10
0.0
 20
0.0
 30
0.0
 70
   128
 71
     3
 72
     5
 73
    12
  0
VERTEX
  5
1246
  8
0
 10
0.0
 20
0.0
 30
0.0
 70
   128
 71
     2
 72
     3
 73
    12
  0
VERTEX
  5
1247
  8
0
 10
0.0
 20
0.0
 30
0.0
 70
   128
 71
     3
 72
     4
 73
     5
  0
SEQEND
  5
18BA
  8
0
  0
POLYLINE
  5
1248
  8
0
 66
     1
 10
0.0
 20
0.0
 30
0.0
 70
    64
 71
    12
 72
    10
  0
VERTEX
  5
1249
  8
0
 10
-189.1568082791368
 20
128.4275090637113
 30
95.47247556855851
 70
   192
  0
VERTEX
  5
124A
  8
0
 10
-189.8249632996187
 20
129.2621539897697
 30
95.47247556855851
 70
   192
  0
VERTEX
  5
124B
  8
0
 10
-190.7433788782342
 20
129.8094894526683
 30
95.47247556855851
 70
   192
  0
VERTEX
  5
124C
  8
0
 10
-191.79540977861
 20
130.0
 30
95.47247556855851
 70
   192
  0
VERTEX
  5
124D
  8
0
 10
-189.9246988379907
 20
130.0
 30
101.7506814935485
 70
   192
  0
VERTEX
  5
124E
  8
0
 10
-184.9741366855501
 20
130.0
 30
105.9898558288926
 70
   192
  0
VERTEX
  5
124F
  8
0
 10
-178.562672232659
 20
130.0
 30
107.3863077500034
 70
   192
  0
VERTEX
  5
1250
  8
0
 10
-178.562672232659
 20
129.7039874843364
 30
106.0869033924025
 70
   192
  0
VERTEX
  5
1251
  8
0
 10
-178.562672232659
 20
128.8743655436318
 30
105.0439256699734
 70
   192
  0
VERTEX
  5
1252
  8
0
 10
-178.562672232659
 20
127.6748531630315
 30
104.4631975556477
 70
   192
  0
VERTEX
  5
1253
  8
0
 10
-183.6601159123868
 20
128.2042512659647
 30
103.5710933626146
 70
   192
  0
VERTEX
  5
1254
  8
0
 10
-187.6964349496665
 20
128.4968316061797
 30
100.4057012932103
 70
   192
  0
VERTEX
  5
1255
  8
0
 10
0.0
 20
0.0
 30
0.0
 70
   128
 71
     6
 72
     7
 73
     8
  0
VERTEX
  5
1256
  8
0
 10
0.0
 20
0.0
 30
0.0
 70
   128
 71
     8
 72
     9
 73
     6
  0
VERTEX
  5
1257
  8
0
 10
0.0
 20
0.0
 30
0.0
 70
   128
 71
     9
 72
    11
 73
     6
  0
VERTEX
  5
1258
  8
0
 10
0.0
 20
0.0
 30
0.0
 70
   128
 71
     9
 72
    10
 73
    11
  0
VERTEX
  5
1259
  8
0
 10
0.0
 20
0.0
 30
0.0
 70
   128
 71
    12
 72
     5
 73
     6
  0
VERTEX
  5
125A
  8
0
 10
0.0
 20
0.0
 30
0.0
 70
   128
 71
    11
 72
    12
 73
     6
  0
VERTEX
  5
125B
  8
0
 10
0.0
 20
0.0
 30
0.0
 70
   128
 71
    12
 72
     1
 73
     2
  0
VERTEX
  5
125C
  8
0
 10
0.0
 20
0.0
 30
0.0
 70
   128
 71
     2
 72
     3
 73
    12
  0
VERTEX
  5
125D
  8
0
 10
0.0
 20
0.0
 30
0.0
 70
   128
 71
     3
 72
     5
 73
    12
  0
VERTEX
  5
125E
  8
0
 10
0.0
 20
0.0
 30
0.0
 70
   128
 71
     3
 72
     4
 73
     5
  0
SEQEND
  5
18BB
  8
0
  0
POLYLINE
  5
125F
  8
0
 66
     1
 10
0.0
 20
0.0
 30
0.0
 70
    64
 71
     8
 72
     6
  0
VERTEX
  5
1260
  8
0
 10
190.3027494116752
 20
128.5897577926996
 30
-94.2014295468217
 70
   192
  0
VERTEX
  5
1261
  8
0
 10
190.3027494116752
 20
128.5897577926996
 30
94.2014295468217
 70
   192
  0
VERTEX
  5
1262
  8
0
 10
191.3924648394054
 20
129.6238591214182
 30
94.2014295468217
 70
   192
  0
VERTEX
  5
1263
  8
0
 10
191.3924648394054
 20
129.6238591214182
 30
-94.2014295468217
 70
   192
  0
VERTEX
  5
1264
  8
0
 10
189.8510050958808
 20
127.1570078687288
 30
-94.2014295468217
 70
   192
  0
VERTEX
  5
1265
  8
0
 10
189.851005095881
 20
127.1570078687288
 30
94.2014295468217
 70
   192
  0
VERTEX
  5
1266
  8
0
 10
192.8468937001445
 20
130.0
 30
94.2014295468217
 70
   192
  0
VERTEX
  5
1267
  8
0
 10
192.8468937001445
 20
130.0
 30
-94.20142954682174
 70
   192
  0
VERTEX
  5
1268
  8
0
 10
0.0
 20
0.0
 30
0.0
 70
   128
 71
     1
 72
     2
 73
    -3
  0
VERTEX
  5
1269
  8
0
 10
0.0
 20
0.0
 30
0.0
 70
   128
 71
    -1
 72
     3
 73
     4
  0
VERTEX
  5
126A
  8
0
 10
0.0
 20
0.0
 30
0.0
 70
   128
 71
     5
 72
     6
 73
    -2
  0
VERTEX
  5
126B
  8
0
 10
0.0
 20
0.0
 30
0.0
 70
   128
 71
    -5
 72
     2
 73
     1
  0
VERTEX
  5
126C
  8
0
 10
0.0
 20
0.0
 30
0.0
 70
   128
 71
     4
 72
     3
 73
    -7
  0
VERTEX
  5
126D
  8
0
 10
0.0
 20
0.0
 30
0.0
 70
   128
 71
    -4
 72
     7
 73
     8
  0
SEQEND
  5
18BC
  8
0
  0
POLYLINE
  5
126E
  8
0
 66
     1
 10
0.0
 20
0.0
 30
0.0
 70
    64
 71
     8
 72
     6
  0
VERTEX
  5
126F
  8
0
 10
179.9823126098435
 20
128.8743655436318
 30
105.0439256699734
 70
   192
  0
VERTEX
  5
1270
  8
0
 10
-178.562672232659
 20
128.8743655436318
 30
105.0439256699734
 70
   192
  0
VERTEX
  5
1271
  8
0
 10
-178.562672232659
 20
129.7039874843364
 30
106.0869033924025
 70
   192
  0
VERTEX
  5
1272
  8
0
 10
179.9823126098435
 20
129.7039874843364
 30
106.0869033924025
 70
   192
  0
VERTEX
  5
1273
  8
0
 10
179.9823126098435
 20
127.6748531630315
 30
104.4631975556477
 70
   192
  0
VERTEX
  5
1274
  8
0
 10
-178.5626722326589
 20
127.6748531630314
 30
104.4631975556478
 70
   192
  0
VERTEX
  5
1275
  8
0
 10
-178.562672232659
 20
130.0
 30
107.3863077500034
 70
   192
  0
VERTEX
  5
1276
  8
0
 10
179.9823126098434
 20
130.0
 30
107.3863077500034
 70
   192
  0
VERTEX
  5
1277
  8
0
 10
0.0
 20
0.0
 30
0.0
 70
   128
 71
     1
 72
     2
 73
    -3
  0
VERTEX
  5
1278
  8
0
 10
0.0
 20
0.0
 30
0.0
 70
   128
 71
    -1
 72
     3
 73
     4
  0
VERTEX
  5
1279
  8
0
 10
0.0
 20
0.0
 30
0.0
 70
   128
 71
     5
 72
     6
 73
    -2
  0
VERTEX
  5
127A
  8
0
 10
0.0
 20
0.0
 30
0.0
 70
   128
 71
    -5
 72
     2
 73
     1
  0
VERTEX
  5
127B
  8
0
 10
0.0
 20
0.0
 30
0.0
 70
   128
 71
     4
 72
     3
 73
    -7
  0
VERTEX
  5
127C
  8
0
 10
0.0
 20
0.0
 30
0.0
 70
   128
 71
    -4
 72
     7
 73
     8
  0
SEQEND
  5
18BD
  8
0
  0
POLYLINE
  5
127D
  8
0
 66
     1
 10
0.0
 20
0.0
 30
0.0
 70
    64
 71
    12
 72
    10
  0
VERTEX
  5
127E
  8
0
 10
182.7864231765635
 20
130.0
 30
107.0722419222014
 70
   192
  0
VERTEX
  5
127F
  8
0
 10
182.4998844279837
 20
129.7063950351736
 30
105.8099735437849
 70
   192
  0
VERTEX
  5
1280
  8
0
 10
182.2694318122026
 20
128.8830493909414
 30
104.7947773405994
 70
   192
  0
VERTEX
  5
1281
  8
0
 10
182.1401733506541
 20
127.6911219799134
 30
104.2253644096637
 70
   192
  0
VERTEX
  5
1282
  8
0
 10
181.4298948747763
 20
127.6893143335933
 30
104.3585989120798
 70
   192
  0
VERTEX
  5
1283
  8
0
 10
180.7093649485326
 20
127.6838913946327
 30
104.4381587950454
 70
   192
  0
VERTEX
  5
1284
  8
0
 10
179.9823126098435
 20
127.6748531630314
 30
104.4631975556478
 70
   192
  0
VERTEX
  5
1285
  8
0
 10
179.9823126098435
 20
128.8743655436318
 30
105.0439256699734
 70
   192
  0
VERTEX
  5
1286
  8
0
 10
179.9823126098435
 20
129.7039874843364
 30
106.0869033924025
 70
   192
  0
VERTEX
  5
1287
  8
0
 10
179.9823126098435
 20
130.0
 30
107.3863077500034
 70
   192
  0
VERTEX
  5
1288
  8
0
 10
180.9239926783117
 20
130.0
 30
107.3513197641207
 70
   192
  0
VERTEX
  5
1289
  8
0
 10
181.8611546256218
 20
129.9999999999999
 30
107.2463558064724
 70
   192
  0
VERTEX
  5
128A
  8
0
 10
0.0
 20
0.0
 30
0.0
 70
   128
 71
     6
 72
     7
 73
     8
  0
VERTEX
  5
128B
  8
0
 10
0.0
 20
0.0
 30
0.0
 70
   128
 71
     9
 72
    11
 73
     6
  0
VERTEX
  5
128C
  8
0
 10
0.0
 20
0.0
 30
0.0
 70
   128
 71
     8
 72
     9
 73
     6
  0
VERTEX
  5
128D
  8
0
 10
0.0
 20
0.0
 30
0.0
 70
   128
 71
     9
 72
    10
 73
    11
  0
VERTEX
  5
128E
  8
0
 10
0.0
 20
0.0
 30
0.0
 70
   128
 71
    12
 72
     5
 73
     6
  0
VERTEX
  5
128F
  8
0
 10
0.0
 20
0.0
 30
0.0
 70
   128
 71
    11
 72
    12
 73
     6
  0
VERTEX
  5
1290
  8
0
 10
0.0
 20
0.0
 30
0.0
 70
   128
 71
    12
 72
     1
 73
     2
  0
VERTEX
  5
1291
  8
0
 10
0.0
 20
0.0
 30
0.0
 70
   128
 71
     3
 72
     5
 73
    12
  0
VERTEX
  5
1292
  8
0
 10
0.0
 20
0.0
 30
0.0
 70
   128
 71
     2
 72
     3
 73
    12
  0
VERTEX
  5
1293
  8
0
 10
0.0
 20
0.0
 30
0.0
 70
   128
 71
     3
 72
     4
 73
     5
  0
SEQEND
  5
18BE
  8
0
  0
POLYLINE
  5
1294
  8
0
 66
     1
 10
0.0
 20
0.0
 30
0.0
 70
    64
 71
    12
 72
    10
  0
VERTEX
  5
1295
  8
0
 10
178.738975652263
 20
6.6143492452908
 30
-89.51417799940984
 70
   192
  0
VERTEX
  5
1296
  8
0
 10
187.666099076859
 20
6.70473402466557
 30
-87.09619442739036
 70
   192
  0
VERTEX
  5
1297
  8
0
 10
194.2361217333189
 20
7.840375487191337
 30
-80.68577576999643
 70
   192
  0
VERTEX
  5
1298
  8
0
 10
196.7143072778453
 20
9.721421011107383
 30
-71.9755168332756
 70
   192
  0
VERTEX
  5
1299
  8
0
 10
193.6569328603569
 20
-0.138349669643567
 30
-71.65149611369353
 70
   192
  0
VERTEX
  5
129A
  8
0
 10
187.5907686549995
 20
-6.518237605283716
 30
-71.4403225386163
 70
   192
  0
VERTEX
  5
129B
  8
0
 10
178.964409868854
 20
-9.93098359822805
 30
-71.3273575327863
 70
   192
  0
VERTEX
  5
129C
  8
0
 10
178.4176934993506
 20
-8.211314632635911
 30
-79.13365876664892
 70
   192
  0
VERTEX
  5
129D
  8
0
 10
177.4322320041782
 20
-3.30821341538013
 30
-85.39328840334362
 70
   192
  0
VERTEX
  5
129E
  8
0
 10
176.203276022407
 20
3.806862872528528
 30
-88.86601869892051
 70
   192
  0
VERTEX
  5
129F
  8
0
 10
177.4386475503916
 20
4.296468311926251
 30
-88.97905302107954
 70
   192
  0
VERTEX
  5
12A0
  8
0
 10
178.3772498376709
 20
5.335673862912428
 30
-89.2189725268434
 70
   192
  0
VERTEX
  5
12A1
  8
0
 10
0.0
 20
0.0
 30
0.0
 70
   128
 71
     6
 72
     7
 73
     8
  0
VERTEX
  5
12A2
  8
0
 10
0.0
 20
0.0
 30
0.0
 70
   128
 71
     9
 72
    11
 73
     6
  0
VERTEX
  5
12A3
  8
0
 10
0.0
 20
0.0
 30
0.0
 70
   128
 71
     8
 72
     9
 73
     6
  0
VERTEX
  5
12A4
  8
0
 10
0.0
 20
0.0
 30
0.0
 70
   128
 71
     9
 72
    10
 73
    11
  0
VERTEX
  5
12A5
  8
0
 10
0.0
 20
0.0
 30
0.0
 70
   128
 71
    12
 72
     5
 73
     6
  0
VERTEX
  5
12A6
  8
0
 10
0.0
 20
0.0
 30
0.0
 70
   128
 71
    11
 72
    12
 73
     6
  0
VERTEX
  5
12A7
  8
0
 10
0.0
 20
0.0
 30
0.0
 70
   128
 71
    12
 72
     1
 73
     2
  0
VERTEX
  5
12A8
  8
0
 10
0.0
 20
0.0
 30
0.0
 70
   128
 71
     3
 72
     5
 73
    12
  0
VERTEX
  5
12A9
  8
0
 10
0.0
 20
0.0
 30
0.0
 70
   128
 71
     2
 72
     3
 73
    12
  0
VERTEX
  5
12AA
  8
0
 10
0.0
 20
0.0
 30
0.0
 70
   128
 71
     3
 72
     4
 73
     5
  0
SEQEND
  5
18BF
  8
0
  0
POLYLINE
  5
12AB
  8
0
 66
     1
 10
0.0
 20
0.0
 30
0.0
 70
    64
 71
    12
 72
    10
  0
VERTEX
  5
12AC
  8
0
 10
-3.426411740159428
 20
-9.097779320328403
 30
-71.5479750542968
 70
   192
  0
VERTEX
  5
12AD
  8
0
 10
-3.06850256366012
 20
-7.345732299818476
 30
-79.34859867860035
 70
   192
  0
VERTEX
  5
12AE
  8
0
 10
-2.4247127150558
 20
-2.399748580522349
 30
-85.60721484737398
 70
   192
  0
VERTEX
  5
12AF
  8
0
 10
-1.622304935654664
 20
4.762462344395541
 30
-89.08663622043103
 70
   192
  0
VERTEX
  5
12B0
  8
0
 10
21.27927171188238
 20
2.802566536490242
 30
-88.63415862046531
 70
   192
  0
VERTEX
  5
12B1
  8
0
 10
44.23458415837999
 20
1.531465485706834
 30
-88.34070182013313
 70
   192
  0
VERTEX
  5
12B2
  8
0
 10
67.21253720474871
 20
0.950881021810408
 30
-88.2066633351578
 70
   192
  0
VERTEX
  5
12B3
  8
0
 10
67.16796821382383
 20
-6.886729244870273
 30
-84.18493662879425
 70
   192
  0
VERTEX
  5
12B4
  8
0
 10
67.13851055681529
 20
-11.30393554936437
 30
-78.29563017418043
 70
   192
  0
VERTEX
  5
12B5
  8
0
 10
67.12094821067541
 20
-13.0
 30
-70.66800216902361
 70
   192
  0
VERTEX
  5
12B6
  8
0
 10
43.58261961279818
 20
-12.40764241539309
 30
-70.80146477440051
 70
   192
  0
VERTEX
  5
12B7
  8
0
 10
20.05971171828965
 20
-11.10690218883586
 30
-71.09480482480342
 70
   192
  0
VERTEX
  5
12B8
  8
0
 10
0.0
 20
0.0
 30
0.0
 70
   128
 71
     6
 72
     7
 73
     8
  0
VERTEX
  5
12B9
  8
0
 10
0.0
 20
0.0
 30
0.0
 70
   128
 71
     8
 72
     9
 73
     6
  0
VERTEX
  5
12BA
  8
0
 10
0.0
 20
0.0
 30
0.0
 70
   128
 71
     9
 72
    11
 73
     6
  0
VERTEX
  5
12BB
  8
0
 10
0.0
 20
0.0
 30
0.0
 70
   128
 71
     9
 72
    10
 73
    11
  0
VERTEX
  5
12BC
  8
0
 10
0.0
 20
0.0
 30
0.0
 70
   128
 71
    12
 72
     5
 73
     6
  0
VERTEX
  5
12BD
  8
0
 10
0.0
 20
0.0
 30
0.0
 70
   128
 71
    11
 72
    12
 73
     6
  0
VERTEX
  5
12BE
  8
0
 10
0.0
 20
0.0
 30
0.0
 70
   128
 71
    12
 72
     1
 73
     2
  0
VERTEX
  5
12BF
  8
0
 10
0.0
 20
0.0
 30
0.0
 70
   128
 71
     2
 72
     3
 73
    12
  0
VERTEX
  5
12C0
  8
0
 10
0.0
 20
0.0
 30
0.0
 70
   128
 71
     3
 72
     5
 73
    12
  0
VERTEX
  5
12C1
  8
0
 10
0.0
 20
0.0
 30
0.0
 70
   128
 71
     3
 72
     4
 73
     5
  0
SEQEND
  5
18C0
  8
0
  0
POLYLINE
  5
12C2
  8
0
 66
     1
 10
0.0
 20
0.0
 30
0.0
 70
    64
 71
    12
 72
    10
  0
VERTEX
  5
12C3
  8
0
 10
176.203276022407
 20
3.806862872528528
 30
-88.86601869892051
 70
   192
  0
VERTEX
  5
12C4
  8
0
 10
177.4322320041782
 20
-3.30821341538013
 30
-85.39328840334362
 70
   192
  0
VERTEX
  5
12C5
  8
0
 10
178.4176934993506
 20
-8.211314632635911
 30
-79.13365876664892
 70
   192
  0
VERTEX
  5
12C6
  8
0
 10
178.964409868854
 20
-9.930983598228032
 30
-71.3273575327863
 70
   192
  0
VERTEX
  5
12C7
  8
0
 10
165.7461682238211
 20
-11.63599271032349
 30
-70.96104899736255
 70
   192
  0
VERTEX
  5
12C8
  8
0
 10
152.4753067680953
 20
-12.65899817758086
 30
-70.74126387610832
 70
   192
  0
VERTEX
  5
12C9
  8
0
 10
139.1869886932044
 20
-13.0
 30
-70.66800216902361
 70
   192
  0
VERTEX
  5
12CA
  8
0
 10
139.1869886932044
 20
-11.22392490601832
 30
-78.46442831462895
 70
   192
  0
VERTEX
  5
12CB
  8
0
 10
139.1869886932044
 20
-6.246193261791282
 30
-84.72229464920348
 70
   192
  0
VERTEX
  5
12CC
  8
0
 10
139.1869886932044
 20
0.9508810218104298
 30
-88.20666333515784
 70
   192
  0
VERTEX
  5
12CD
  8
0
 10
151.5665019843707
 20
1.268630808458556
 30
-88.28002165363176
 70
   192
  0
VERTEX
  5
12CE
  8
0
 10
163.9215357515534
 20
2.221880168403028
 30
-88.50009660905371
 70
   192
  0
VERTEX
  5
12CF
  8
0
 10
0.0
 20
0.0
 30
0.0
 70
   128
 71
     6
 72
     7
 73
     8
  0
VERTEX
  5
12D0
  8
0
 10
0.0
 20
0.0
 30
0.0
 70
   128
 71
     9
 72
    11
 73
     6
  0
VERTEX
  5
12D1
  8
0
 10
0.0
 20
0.0
 30
0.0
 70
   128
 71
     8
 72
     9
 73
     6
  0
VERTEX
  5
12D2
  8
0
 10
0.0
 20
0.0
 30
0.0
 70
   128
 71
     9
 72
    10
 73
    11
  0
VERTEX
  5
12D3
  8
0
 10
0.0
 20
0.0
 30
0.0
 70
   128
 71
    12
 72
     5
 73
     6
  0
VERTEX
  5
12D4
  8
0
 10
0.0
 20
0.0
 30
0.0
 70
   128
 71
    11
 72
    12
 73
     6
  0
VERTEX
  5
12D5
  8
0
 10
0.0
 20
0.0
 30
0.0
 70
   128
 71
    12
 72
     1
 73
     2
  0
VERTEX
  5
12D6
  8
0
 10
0.0
 20
0.0
 30
0.0
 70
   128
 71
     3
 72
     5
 73
    12
  0
VERTEX
  5
12D7
  8
0
 10
0.0
 20
0.0
 30
0.0
 70
   128
 71
     2
 72
     3
 73
    12
  0
VERTEX
  5
12D8
  8
0
 10
0.0
 20
0.0
 30
0.0
 70
   128
 71
     3
 72
     4
 73
     5
  0
SEQEND
  5
18C1
  8
0
  0
POLYLINE
  5
12D9
  8
0
 66
     1
 10
0.0
 20
0.0
 30
0.0
 70
    64
 71
     8
 72
     6
  0
VERTEX
  5
12DA
  8
0
 10
139.1869886932044
 20
-6.246193261791282
 30
-84.72229464920348
 70
   192
  0
VERTEX
  5
12DB
  8
0
 10
139.1869886932044
 20
-11.22392490601832
 30
-78.46442831462895
 70
   192
  0
VERTEX
  5
12DC
  8
0
 10
67.13851055681529
 20
-11.30393554936437
 30
-78.29563017418043
 70
   192
  0
VERTEX
  5
12DD
  8
0
 10
139.1869886932044
 20
-13.0
 30
-70.66800216902361
 70
   192
  0
VERTEX
  5
12DE
  8
0
 10
67.12094821067541
 20
-13.00000000000003
 30
-70.66800216902361
 70
   192
  0
VERTEX
  5
12DF
  8
0
 10
67.21253720474871
 20
0.950881021810408
 30
-88.2066633351578
 70
   192
  0
VERTEX
  5
12E0
  8
0
 10
139.1869886932044
 20
0.9508810218104358
 30
-88.2066633351578
 70
   192
  0
VERTEX
  5
12E1
  8
0
 10
67.16796821382383
 20
-6.886729244870273
 30
-84.18493662879425
 70
   192
  0
VERTEX
  5
12E2
  8
0
 10
0.0
 20
0.0
 30
0.0
 70
   128
 71
     1
 72
     2
 73
     3
  0
VERTEX
  5
12E3
  8
0
 10
0.0
 20
0.0
 30
0.0
 70
   128
 71
     2
 72
     4
 73
     5
  0
VERTEX
  5
12E4
  8
0
 10
0.0
 20
0.0
 30
0.0
 70
   128
 71
     6
 72
     7
 73
     1
  0
VERTEX
  5
12E5
  8
0
 10
0.0
 20
0.0
 30
0.0
 70
   128
 71
     6
 72
     1
 73
     8
  0
VERTEX
  5
12E6
  8
0
 10
0.0
 20
0.0
 30
0.0
 70
   128
 71
     8
 72
     1
 73
     3
  0
VERTEX
  5
12E7
  8
0
 10
0.0
 20
0.0
 30
0.0
 70
   128
 71
     3
 72
     2
 73
     5
  0
SEQEND
  5
18C2
  8
0
  0
POLYLINE
  5
12E8
  8
0
 66
     1
 10
0.0
 20
0.0
 30
0.0
 70
    64
 71
    12
 72
    10
  0
VERTEX
  5
12E9
  8
0
 10
196.7143072778453
 20
9.72142101110737
 30
71.9755168332756
 70
   192
  0
VERTEX
  5
12EA
  8
0
 10
194.2361217333189
 20
7.840375487191323
 30
80.68577576999643
 70
   192
  0
VERTEX
  5
12EB
  8
0
 10
187.666099076859
 20
6.704734024665554
 30
87.09619442739036
 70
   192
  0
VERTEX
  5
12EC
  8
0
 10
178.738975652263
 20
6.61434924529078
 30
89.51417799940984
 70
   192
  0
VERTEX
  5
12ED
  8
0
 10
178.3772498376707
 20
5.335673862912423
 30
89.2189725268433
 70
   192
  0
VERTEX
  5
12EE
  8
0
 10
177.4386475503915
 20
4.296468311926249
 30
88.97905302107948
 70
   192
  0
VERTEX
  5
12EF
  8
0
 10
176.203276022407
 20
3.806862872528525
 30
88.8660186989205
 70
   192
  0
VERTEX
  5
12F0
  8
0
 10
177.4322320041781
 20
-3.308213415380152
 30
85.39328840334362
 70
   192
  0
VERTEX
  5
12F1
  8
0
 10
178.4176934993505
 20
-8.211314632635922
 30
79.13365876664892
 70
   192
  0
VERTEX
  5
12F2
  8
0
 10
178.9644098688539
 20
-9.930983598228039
 30
71.3273575327863
 70
   192
  0
VERTEX
  5
12F3
  8
0
 10
187.5908007403023
 20
-6.518215679751274
 30
71.44032273526528
 70
   192
  0
VERTEX
  5
12F4
  8
0
 10
193.6569645849208
 20
-0.1382977911592255
 30
71.6514981168172
 70
   192
  0
VERTEX
  5
12F5
  8
0
 10
0.0
 20
0.0
 30
0.0
 70
   128
 71
     6
 72
     7
 73
     8
  0
VERTEX
  5
12F6
  8
0
 10
0.0
 20
0.0
 30
0.0
 70
   128
 71
     9
 72
    11
 73
     6
  0
VERTEX
  5
12F7
  8
0
 10
0.0
 20
0.0
 30
0.0
 70
   128
 71
     8
 72
     9
 73
     6
  0
VERTEX
  5
12F8
  8
0
 10
0.0
 20
0.0
 30
0.0
 70
   128
 71
     9
 72
    10
 73
    11
  0
VERTEX
  5
12F9
  8
0
 10
0.0
 20
0.0
 30
0.0
 70
   128
 71
    12
 72
     5
 73
     6
  0
VERTEX
  5
12FA
  8
0
 10
0.0
 20
0.0
 30
0.0
 70
   128
 71
    11
 72
    12
 73
     6
  0
VERTEX
  5
12FB
  8
0
 10
0.0
 20
0.0
 30
0.0
 70
   128
 71
    12
 72
     1
 73
     2
  0
VERTEX
  5
12FC
  8
0
 10
0.0
 20
0.0
 30
0.0
 70
   128
 71
     3
 72
     5
 73
    12
  0
VERTEX
  5
12FD
  8
0
 10
0.0
 20
0.0
 30
0.0
 70
   128
 71
     2
 72
     3
 73
    12
  0
VERTEX
  5
12FE
  8
0
 10
0.0
 20
0.0
 30
0.0
 70
   128
 71
     3
 72
     4
 73
     5
  0
SEQEND
  5
18C3
  8
0
  0
POLYLINE
  5
12FF
  8
0
 66
     1
 10
0.0
 20
0.0
 30
0.0
 70
    64
 71
    12
 72
    10
  0
VERTEX
  5
1300
  8
0
 10
178.9644098688539
 20
-9.930983598228039
 30
71.3273575327863
 70
   192
  0
VERTEX
  5
1301
  8
0
 10
178.4176934993505
 20
-8.211314632635922
 30
79.13365876664892
 70
   192
  0
VERTEX
  5
1302
  8
0
 10
177.4322320041781
 20
-3.308213415380152
 30
85.39328840334362
 70
   192
  0
VERTEX
  5
1303
  8
0
 10
176.2032760224069
 20
3.806862872528509
 30
88.86601869892051
 70
   192
  0
VERTEX
  5
1304
  8
0
 10
163.9215357515534
 20
2.221880168403036
 30
88.50009660905374
 70
   192
  0
VERTEX
  5
1305
  8
0
 10
151.5665019843707
 20
1.26863080845856
 30
88.28002165363178
 70
   192
  0
VERTEX
  5
1306
  8
0
 10
139.1869886932044
 20
0.950881021810439
 30
88.2066633351578
 70
   192
  0
VERTEX
  5
1307
  8
0
 10
139.1869886932044
 20
-6.246193261791294
 30
84.72229464920348
 70
   192
  0
VERTEX
  5
1308
  8
0
 10
139.1869886932044
 20
-11.22392490601832
 30
78.46442831462895
 70
   192
  0
VERTEX
  5
1309
  8
0
 10
139.1869886932044
 20
-13.0
 30
70.66800216902361
 70
   192
  0
VERTEX
  5
130A
  8
0
 10
152.4753067680942
 20
-12.65899817758091
 30
70.74126387610835
 70
   192
  0
VERTEX
  5
130B
  8
0
 10
165.7461682238201
 20
-11.6359927103236
 30
70.96104899736258
 70
   192
  0
VERTEX
  5
130C
  8
0
 10
0.0
 20
0.0
 30
0.0
 70
   128
 71
     6
 72
     7
 73
     8
  0
VERTEX
  5
130D
  8
0
 10
0.0
 20
0.0
 30
0.0
 70
   128
 71
     9
 72
    11
 73
     6
  0
VERTEX
  5
130E
  8
0
 10
0.0
 20
0.0
 30
0.0
 70
   128
 71
     8
 72
     9
 73
     6
  0
VERTEX
  5
130F
  8
0
 10
0.0
 20
0.0
 30
0.0
 70
   128
 71
     9
 72
    10
 73
    11
  0
VERTEX
  5
1310
  8
0
 10
0.0
 20
0.0
 30
0.0
 70
   128
 71
    12
 72
     5
 73
     6
  0
VERTEX
  5
1311
  8
0
 10
0.0
 20
0.0
 30
0.0
 70
   128
 71
    11
 72
    12
 73
     6
  0
VERTEX
  5
1312
  8
0
 10
0.0
 20
0.0
 30
0.0
 70
   128
 71
    12
 72
     1
 73
     2
  0
VERTEX
  5
1313
  8
0
 10
0.0
 20
0.0
 30
0.0
 70
   128
 71
     3
 72
     5
 73
    12
  0
VERTEX
  5
1314
  8
0
 10
0.0
 20
0.0
 30
0.0
 70
   128
 71
     2
 72
     3
 73
    12
  0
VERTEX
  5
1315
  8
0
 10
0.0
 20
0.0
 30
0.0
 70
   128
 71
     3
 72
     4
 73
     5
  0
SEQEND
  5
18C4
  8
0
  0
POLYLINE
  5
1316
  8
0
 66
     1
 10
0.0
 20
0.0
 30
0.0
 70
    64
 71
    12
 72
    10
  0
VERTEX
  5
1317
  8
0
 10
-3.42641174015943
 20
-9.097779320328401
 30
71.5479750542968
 70
   192
  0
VERTEX
  5
1318
  8
0
 10
20.05971171828965
 20
-11.10690218883586
 30
71.09479694714744
 70
   192
  0
VERTEX
  5
1319
  8
0
 10
43.5826196127982
 20
-12.4076424153931
 30
70.80140175315313
 70
   192
  0
VERTEX
  5
131A
  8
0
 10
67.12094821067541
 20
-13.0
 30
70.6677894723138
 70
   192
  0
VERTEX
  5
131B
  8
0
 10
67.13851013223754
 20
-11.30331977258391
 30
78.2958209038059
 70
   192
  0
VERTEX
  5
131C
  8
0
 10
67.16796764101564
 20
-6.886827171725407
 30
84.18485050521795
 70
   192
  0
VERTEX
  5
131D
  8
0
 10
67.2125372047485
 20
0.950881021810412
 30
88.2066633351578
 70
   192
  0
VERTEX
  5
131E
  8
0
 10
44.23458415837951
 20
1.531465485706848
 30
88.34070182013322
 70
   192
  0
VERTEX
  5
131F
  8
0
 10
21.2792717118822
 20
2.802566536490231
 30
88.63415862046537
 70
   192
  0
VERTEX
  5
1320
  8
0
 10
-1.622304935654655
 20
4.76246234439552
 30
89.086636220431
 70
   192
  0
VERTEX
  5
1321
  8
0
 10
-2.42471271505579
 20
-2.399748580522365
 30
85.60721484737397
 70
   192
  0
VERTEX
  5
1322
  8
0
 10
-3.068502563660114
 20
-7.345732299818476
 30
79.34859867860035
 70
   192
  0
VERTEX
  5
1323
  8
0
 10
0.0
 20
0.0
 30
0.0
 70
   128
 71
     6
 72
     7
 73
     8
  0
VERTEX
  5
1324
  8
0
 10
0.0
 20
0.0
 30
0.0
 70
   128
 71
    11
 72
     6
 73
     8
  0
VERTEX
  5
1325
  8
0
 10
0.0
 20
0.0
 30
0.0
 70
   128
 71
     8
 72
     9
 73
    11
  0
VERTEX
  5
1326
  8
0
 10
0.0
 20
0.0
 30
0.0
 70
   128
 71
     9
 72
    10
 73
    11
  0
VERTEX
  5
1327
  8
0
 10
0.0
 20
0.0
 30
0.0
 70
   128
 71
    12
 72
     5
 73
     6
  0
VERTEX
  5
1328
  8
0
 10
0.0
 20
0.0
 30
0.0
 70
   128
 71
    11
 72
    12
 73
     6
  0
VERTEX
  5
1329
  8
0
 10
0.0
 20
0.0
 30
0.0
 70
   128
 71
    12
 72
     1
 73
     2
  0
VERTEX
  5
132A
  8
0
 10
0.0
 20
0.0
 30
0.0
 70
   128
 71
     5
 72
    12
 73
     2
  0
VERTEX
  5
132B
  8
0
 10
0.0
 20
0.0
 30
0.0
 70
   128
 71
     2
 72
     3
 73
     5
  0
VERTEX
  5
132C
  8
0
 10
0.0
 20
0.0
 30
0.0
 70
   128
 71
     3
 72
     4
 73
     5
  0
SEQEND
  5
18C5
  8
0
  0
POLYLINE
  5
132D
  8
0
 66
     1
 10
0.0
 20
0.0
 30
0.0
 70
    64
 71
     8
 72
     6
  0
VERTEX
  5
132E
  8
0
 10
139.1869886932044
 20
0.9508810218104236
 30
88.20666333515784
 70
   192
  0
VERTEX
  5
132F
  8
0
 10
67.21253720474849
 20
0.9508810218104112
 30
88.2066633351578
 70
   192
  0
VERTEX
  5
1330
  8
0
 10
67.16796764101564
 20
-6.886827171725407
 30
84.18485050521795
 70
   192
  0
VERTEX
  5
1331
  8
0
 10
139.1869886932044
 20
-6.246193261791294
 30
84.72229464920348
 70
   192
  0
VERTEX
  5
1332
  8
0
 10
67.13851013223754
 20
-11.30331977258391
 30
78.2958209038059
 70
   192
  0
VERTEX
  5
1333
  8
0
 10
139.1869886932044
 20
-11.22392490601832
 30
78.46442831462895
 70
   192
  0
VERTEX
  5
1334
  8
0
 10
67.12094821067541
 20
-13.0
 30
70.6677894723138
 70
   192
  0
VERTEX
  5
1335
  8
0
 10
139.1869886932044
 20
-12.99999999999997
 30
70.66800216902361
 70
   192
  0
VERTEX
  5
1336
  8
0
 10
0.0
 20
0.0
 30
0.0
 70
   128
 71
     1
 72
     2
 73
     3
  0
VERTEX
  5
1337
  8
0
 10
0.0
 20
0.0
 30
0.0
 70
   128
 71
     1
 72
     3
 73
     4
  0
VERTEX
  5
1338
  8
0
 10
0.0
 20
0.0
 30
0.0
 70
   128
 71
     4
 72
     3
 73
     5
  0
VERTEX
  5
1339
  8
0
 10
0.0
 20
0.0
 30
0.0
 70
   128
 71
     4
 72
     5
 73
     6
  0
VERTEX
  5
133A
  8
0
 10
0.0
 20
0.0
 30
0.0
 70
   128
 71
     6
 72
     5
 73
     7
  0
VERTEX
  5
133B
  8
0
 10
0.0
 20
0.0
 30
0.0
 70
   128
 71
     6
 72
     7
 73
     8
  0
SEQEND
  5
18C6
  8
0
  0
POLYLINE
  5
133C
  8
0
 66
     1
 10
0.0
 20
0.0
 30
0.0
 70
    64
 71
    22
 72
    20
  0
VERTEX
  5
133D
  8
0
 10
206.0497789390418
 20
115.9969576571151
 30
-94.9924444423467
 70
   192
  0
VERTEX
  5
133E
  8
0
 10
205.4998102432267
 20
115.662497306682
 30
18.95755618624831
 70
   192
  0
VERTEX
  5
133F
  8
0
 10
204.6349332949855
 20
114.9983944342234
 30
18.30762204975585
 70
   192
  0
VERTEX
  5
1340
  8
0
 10
202.4038552443828
 20
111.7178346755005
 30
18.5304467381841
 70
   192
  0
VERTEX
  5
1341
  8
0
 10
201.939219622976
 20
109.4186876499434
 30
18.68249846708345
 70
   192
  0
VERTEX
  5
1342
  8
0
 10
201.939219622976
 20
109.4186876499434
 30
-94.9924444423467
 70
   192
  0
VERTEX
  5
1343
  8
0
 10
201.9392196229759
 20
109.4186876499434
 30
94.9924444423467
 70
   192
  0
VERTEX
  5
1344
  8
0
 10
201.939219622976
 20
109.4186876499434
 30
61.3175015329166
 70
   192
  0
VERTEX
  5
1345
  8
0
 10
202.4040751114002
 20
111.7178842824778
 30
61.46955031598975
 70
   192
  0
VERTEX
  5
1346
  8
0
 10
205.5000082245049
 20
115.6626307942932
 30
61.04220437321915
 70
   192
  0
VERTEX
  5
1347
  8
0
 10
206.0497789390418
 20
115.9969576571151
 30
94.9924444423467
 70
   192
  0
VERTEX
  5
1348
  8
0
 10
203.143871131761
 20
113.2393541138656
 30
94.9924444423467
 70
   192
  0
VERTEX
  5
1349
  8
0
 10
204.6349332949855
 20
114.9983944342234
 30
61.6923779502441
 70
   192
  0
VERTEX
  5
134A
  8
0
 10
206.0866631258351
 20
116.0173290605546
 30
59.95544421382385
 70
   192
  0
VERTEX
  5
134B
  8
0
 10
209.9282559010125
 20
117.0
 30
94.9924444423467
 70
   192
  0
VERTEX
  5
134C
  8
0
 10
206.296331903096
 20
116.1280521935068
 30
58.690424595347
 70
   192
  0
VERTEX
  5
134D
  8
0
 10
206.296331903096
 20
116.1280521935068
 30
21.30957540465322
 70
   192
  0
VERTEX
  5
134E
  8
0
 10
209.9282559010125
 20
117.0
 30
-94.9924444423467
 70
   192
  0
VERTEX
  5
134F
  8
0
 10
206.0879494877359
 20
116.0179835870591
 30
20.04831837233224
 70
   192
  0
VERTEX
  5
1350
  8
0
 10
203.143871131761
 20
113.2393541138656
 30
-94.9924444423467
 70
   192
  0
VERTEX
  5
1351
  8
0
 10
203.2864150313693
 20
113.4593655477102
 30
18.41317173785957
 70
   192
  0
VERTEX
  5
1352
  8
0
 10
203.2863689864507
 20
113.4592718686013
 30
61.58682707436858
 70
   192
  0
VERTEX
  5
1353
  8
0
 10
0.0
 20
0.0
 30
0.0
 70
   128
 71
     1
 72
     2
 73
     3
  0
VERTEX
  5
1354
  8
0
 10
0.0
 20
0.0
 30
0.0
 70
   128
 71
     4
 72
     5
 73
     6
  0
VERTEX
  5
1355
  8
0
 10
0.0
 20
0.0
 30
0.0
 70
   128
 71
     7
 72
     8
 73
     9
  0
VERTEX
  5
1356
  8
0
 10
0.0
 20
0.0
 30
0.0
 70
   128
 71
    10
 72
    11
 73
    12
  0
VERTEX
  5
1357
  8
0
 10
0.0
 20
0.0
 30
0.0
 70
   128
 71
    13
 72
    10
 73
    12
  0
VERTEX
  5
1358
  8
0
 10
0.0
 20
0.0
 30
0.0
 70
   128
 71
    11
 72
    10
 73
    14
  0
VERTEX
  5
1359
  8
0
 10
0.0
 20
0.0
 30
0.0
 70
   128
 71
    15
 72
    11
 73
    14
  0
VERTEX
  5
135A
  8
0
 10
0.0
 20
0.0
 30
0.0
 70
   128
 71
    14
 72
    16
 73
    15
  0
VERTEX
  5
135B
  8
0
 10
0.0
 20
0.0
 30
0.0
 70
   128
 71
    16
 72
   -17
 73
    15
  0
VERTEX
  5
135C
  8
0
 10
0.0
 20
0.0
 30
0.0
 70
   128
 71
    18
 72
   -15
 73
    17
  0
VERTEX
  5
135D
  8
0
 10
0.0
 20
0.0
 30
0.0
 70
   128
 71
    17
 72
    19
 73
    18
  0
VERTEX
  5
135E
  8
0
 10
0.0
 20
0.0
 30
0.0
 70
   128
 71
     2
 72
     1
 73
    18
  0
VERTEX
  5
135F
  8
0
 10
0.0
 20
0.0
 30
0.0
 70
   128
 71
    19
 72
     2
 73
    18
  0
VERTEX
  5
1360
  8
0
 10
0.0
 20
0.0
 30
0.0
 70
   128
 71
    20
 72
     1
 73
     3
  0
VERTEX
  5
1361
  8
0
 10
0.0
 20
0.0
 30
0.0
 70
   128
 71
    21
 72
    20
 73
     3
  0
VERTEX
  5
1362
  8
0
 10
0.0
 20
0.0
 30
0.0
 70
   128
 71
    12
 72
    22
 73
    13
  0
VERTEX
  5
1363
  8
0
 10
0.0
 20
0.0
 30
0.0
 70
   128
 71
     6
 72
    20
 73
    21
  0
VERTEX
  5
1364
  8
0
 10
0.0
 20
0.0
 30
0.0
 70
   128
 71
     4
 72
     6
 73
    21
  0
VERTEX
  5
1365
  8
0
 10
0.0
 20
0.0
 30
0.0
 70
   128
 71
     9
 72
    22
 73
    12
  0
VERTEX
  5
1366
  8
0
 10
0.0
 20
0.0
 30
0.0
 70
   128
 71
     7
 72
     9
 73
    12
  0
SEQEND
  5
18C7
  8
0
  0
POLYLINE
  5
1367
  8
0
 66
     1
 10
0.0
 20
0.0
 30
0.0
 70
    64
 71
    20
 72
    20
  0
VERTEX
  5
1368
  8
0
 10
134.0666356848673
 20
-18.99999999999999
 30
45.61621798543879
 70
   192
  0
VERTEX
  5
1369
  8
0
 10
113.9938967668552
 20
-19.0
 30
53.95815522808805
 70
   192
  0
VERTEX
  5
136A
  8
0
 10
92.25693931575222
 20
-19.0
 30
53.87186849729638
 70
   192
  0
VERTEX
  5
136B
  8
0
 10
72.25106002257046
 20
-19.00000000000001
 30
45.37083571665056
 70
   192
  0
VERTEX
  5
136C
  8
0
 10
51.1896197959925
 20
-19.00000000000003
 30
17.47580059612632
 70
   192
  0
VERTEX
  5
136D
  8
0
 10
51.1896286817239
 20
-19.00000000000002
 30
-17.47579593291434
 70
   192
  0
VERTEX
  5
136E
  8
0
 10
72.25106002257041
 20
-19.0
 30
-45.3708357166506
 70
   192
  0
VERTEX
  5
136F
  8
0
 10
92.2569393157522
 20
-19.0
 30
-53.87186849729638
 70
   192
  0
VERTEX
  5
1370
  8
0
 10
113.9938967668552
 20
-19.0
 30
-53.95815522808806
 70
   192
  0
VERTEX
  5
1371
  8
0
 10
134.0666356848672
 20
-18.99999999999999
 30
-45.61621798543882
 70
   192
  0
VERTEX
  5
1372
  8
0
 10
155.442836940595
 20
-18.99999999999998
 30
-17.61372698546755
 70
   192
  0
VERTEX
  5
1373
  8
0
 10
155.4428288111231
 20
-18.99999999999998
 30
17.61372267849203
 70
   192
  0
VERTEX
  5
1374
  8
0
 10
125.3394383394384
 20
-18.99999999999999
 30
-0.0000000000000024
 70
   192
  0
VERTEX
  5
1375
  8
0
 10
118.8957875255424
 20
-19.0
 30
-15.55634918610404
 70
   192
  0
VERTEX
  5
1376
  8
0
 10
103.3394383394384
 20
-19.0
 30
-21.99999999999999
 70
   192
  0
VERTEX
  5
1377
  8
0
 10
87.78308915333436
 20
-19.0
 30
-15.55634918610404
 70
   192
  0
VERTEX
  5
1378
  8
0
 10
81.3394383394384
 20
-19.00000000000001
 30
0.0000000000000027
 70
   192
  0
VERTEX
  5
1379
  8
0
 10
87.78308915333436
 20
-19.0
 30
15.55634918610404
 70
   192
  0
VERTEX
  5
137A
  8
0
 10
103.3394383394384
 20
-19.0
 30
22.0
 70
   192
  0
VERTEX
  5
137B
  8
0
 10
118.8957875255424
 20
-19.0
 30
15.55634918610404
 70
   192
  0
VERTEX
  5
137C
  8
0
 10
0.0
 20
0.0
 30
0.0
 70
   128
 71
   -12
 72
    13
 73
   -14
  0
VERTEX
  5
137D
  8
0
 10
0.0
 20
0.0
 30
0.0
 70
   128
 71
    11
 72
   -12
 73
   -14
  0
VERTEX
  5
137E
  8
0
 10
0.0
 20
0.0
 30
0.0
 70
   128
 71
    10
 72
   -11
 73
   -14
  0
VERTEX
  5
137F
  8
0
 10
0.0
 20
0.0
 30
0.0
 70
   128
 71
   -15
 72
     9
 73
   -10
  0
VERTEX
  5
1380
  8
0
 10
0.0
 20
0.0
 30
0.0
 70
   128
 71
    14
 72
   -15
 73
   -10
  0
VERTEX
  5
1381
  8
0
 10
0.0
 20
0.0
 30
0.0
 70
   128
 71
     7
 72
     8
 73
    -9
  0
VERTEX
  5
1382
  8
0
 10
0.0
 20
0.0
 30
0.0
 70
   128
 71
   -16
 72
    -7
 73
    -9
  0
VERTEX
  5
1383
  8
0
 10
0.0
 20
0.0
 30
0.0
 70
   128
 71
    15
 72
   -16
 73
    -9
  0
VERTEX
  5
1384
  8
0
 10
0.0
 20
0.0
 30
0.0
 70
   128
 71
   -17
 72
     6
 73
    -7
  0
VERTEX
  5
1385
  8
0
 10
0.0
 20
0.0
 30
0.0
 70
   128
 71
    16
 72
   -17
 73
    -7
  0
VERTEX
  5
1386
  8
0
 10
0.0
 20
0.0
 30
0.0
 70
   128
 71
     4
 72
     5
 73
    -6
  0
VERTEX
  5
1387
  8
0
 10
0.0
 20
0.0
 30
0.0
 70
   128
 71
   -18
 72
    -4
 73
    -6
  0
VERTEX
  5
1388
  8
0
 10
0.0
 20
0.0
 30
0.0
 70
   128
 71
    17
 72
   -18
 73
    -6
  0
VERTEX
  5
1389
  8
0
 10
0.0
 20
0.0
 30
0.0
 70
   128
 71
     2
 72
     3
 73
    -4
  0
VERTEX
  5
138A
  8
0
 10
0.0
 20
0.0
 30
0.0
 70
   128
 71
   -19
 72
    -2
 73
    -4
  0
VERTEX
  5
138B
  8
0
 10
0.0
 20
0.0
 30
0.0
 70
   128
 71
    18
 72
   -19
 73
    -4
  0
VERTEX
  5
138C
  8
0
 10
0.0
 20
0.0
 30
0.0
 70
   128
 71
   -20
 72
     1
 73
    -2
  0
VERTEX
  5
138D
  8
0
 10
0.0
 20
0.0
 30
0.0
 70
   128
 71
    19
 72
   -20
 73
    -2
  0
VERTEX
  5
138E
  8
0
 10
0.0
 20
0.0
 30
0.0
 70
   128
 71
   -13
 72
    12
 73
    -1
  0
VERTEX
  5
138F
  8
0
 10
0.0
 20
0.0
 30
0.0
 70
   128
 71
    20
 72
   -13
 73
    -1
  0
SEQEND
  5
18C8
  8
0
  0
POLYLINE
  5
1390
  8
0
 66
     1
 10
0.0
 20
0.0
 30
0.0
 70
    64
 71
     4
 72
     2
  0
VERTEX
  5
1391
  8
0
 10
276.9999999999997
 20
29.99999999999999
 30
104.0012184387487
 70
   192
  0
VERTEX
  5
1392
  8
0
 10
275.6186128075704
 20
109.1396192514982
 30
102.6198312463194
 70
   192
  0
VERTEX
  5
1393
  8
0
 10
275.6186128075705
 20
109.1396192514982
 30
-102.6198312463196
 70
   192
  0
VERTEX
  5
1394
  8
0
 10
276.9999999999998
 20
29.99999999999999
 30
-104.0012184387488
 70
   192
  0
VERTEX
  5
1395
  8
0
 10
0.0
 20
0.0
 30
0.0
 70
   128
 71
     3
 72
     4
 73
    -1
  0
VERTEX
  5
1396
  8
0
 10
0.0
 20
0.0
 30
0.0
 70
   128
 71
     2
 72
    -3
 73
     1
  0
SEQEND
  5
18C9
  8
0
  0
POLYLINE
  5
1397
  8
0
 66
     1
 10
0.0
 20
0.0
 30
0.0
 70
    64
 71
    10
 72
     8
  0
VERTEX
  5
1398
  8
0
 10
-195.9931890499825
 20
87.6801606959315
 30
-93.29075085519165
 70
   192
  0
VERTEX
  5
1399
  8
0
 10
-195.9931890499825
 20
87.6801606959315
 30
93.2907508551947
 70
   192
  0
VERTEX
  5
139A
  8
0
 10
-195.9872282196928
 20
88.02165643451842
 30
96.66559905083245
 70
   192
  0
VERTEX
  5
139B
  8
0
 10
-195.9706137535541
 20
88.97349856211011
 30
99.90242723446507
 70
   192
  0
VERTEX
  5
139C
  8
0
 10
-195.9452638109695
 20
90.4257958001414
 30
102.9464822497182
 70
   192
  0
VERTEX
  5
139D
  8
0
 10
-196.9999999999998
 20
29.99999999999999
 30
104.0012184387488
 70
   192
  0
VERTEX
  5
139E
  8
0
 10
-197.0
 20
30.0
 30
-104.001218438749
 70
   192
  0
VERTEX
  5
139F
  8
0
 10
-195.9452638109692
 20
90.42579580014129
 30
-102.9464822497181
 70
   192
  0
VERTEX
  5
13A0
  8
0
 10
-195.970622043394
 20
88.9730236374985
 30
-99.90124223374185
 70
   192
  0
VERTEX
  5
13A1
  8
0
 10
-195.9872466528145
 20
88.02060040166197
 30
-96.659789204923
 70
   192
  0
VERTEX
  5
13A2
  8
0
 10
0.0
 20
0.0
 30
0.0
 70
   128
 71
     7
 72
     8
 73
    -9
  0
VERTEX
  5
13A3
  8
0
 10
0.0
 20
0.0
 30
0.0
 70
   128
 71
     9
 72
   -10
 73
    -7
  0
VERTEX
  5
13A4
  8
0
 10
0.0
 20
0.0
 30
0.0
 70
   128
 71
    10
 72
    -1
 73
    -7
  0
VERTEX
  5
13A5
  8
0
 10
0.0
 20
0.0
 30
0.0
 70
   128
 71
    -7
 72
     1
 73
    -2
  0
VERTEX
  5
13A6
  8
0
 10
0.0
 20
0.0
 30
0.0
 70
   128
 71
     6
 72
    -7
 73
    -2
  0
VERTEX
  5
13A7
  8
0
 10
0.0
 20
0.0
 30
0.0
 70
   128
 71
     2
 72
    -3
 73
    -6
  0
VERTEX
  5
13A8
  8
0
 10
0.0
 20
0.0
 30
0.0
 70
   128
 71
     3
 72
    -4
 73
    -6
  0
VERTEX
  5
13A9
  8
0
 10
0.0
 20
0.0
 30
0.0
 70
   128
 71
     4
 72
     5
 73
    -6
  0
SEQEND
  5
18CA
  8
0
  0
POLYLINE
  5
13AA
  8
0
 66
     1
 10
0.0
 20
0.0
 30
0.0
 70
    64
 71
    14
 72
    12
  0
VERTEX
  5
13AB
  8
0
 10
180.243580310299
 20
33.66392720301928
 30
-111.936045912779
 70
   192
  0
VERTEX
  5
13AC
  8
0
 10
-96.01920405705198
 20
33.66392720301921
 30
-111.936045912779
 70
   192
  0
VERTEX
  5
13AD
  8
0
 10
-131.0155149516747
 20
44.55032224118229
 30
-111.7460231805536
 70
   192
  0
VERTEX
  5
13AE
  8
0
 10
-161.841180481231
 20
64.65130330388048
 30
-111.3951592509835
 70
   192
  0
VERTEX
  5
13AF
  8
0
 10
-187.946482249718
 20
90.4257958001413
 30
-110.9452638109692
 70
   192
  0
VERTEX
  5
13B0
  8
0
 10
-189.0012184387488
 20
30.0
 30
-112.0
 70
   192
  0
VERTEX
  5
13B1
  8
0
 10
269.001218438749
 20
30.0
 30
-112.0
 70
   192
  0
VERTEX
  5
13B2
  8
0
 10
267.6198312463194
 20
109.1396192514982
 30
-110.6186128075706
 70
   192
  0
VERTEX
  5
13B3
  8
0
 10
208.8379745483355
 20
109.1396192514982
 30
-110.6186128075706
 70
   192
  0
VERTEX
  5
13B4
  8
0
 10
204.2503381726156
 20
81.39130719097881
 30
-111.1029613962354
 70
   192
  0
VERTEX
  5
13B5
  8
0
 10
197.9883633868719
 20
58.1144347044078
 30
-111.5092607168144
 70
   192
  0
VERTEX
  5
13B6
  8
0
 10
190.8255748328865
 20
42.18433027330025
 30
-111.7873217239726
 70
   192
  0
VERTEX
  5
13B7
  8
0
 10
188.3287089761423
 20
38.64873487787136
 30
-111.8490357711598
 70
   192
  0
VERTEX
  5
13B8
  8
0
 10
184.9296984458942
 20
35.35629616896951
 30
-111.9065055025959
 70
   192
  0
VERTEX
  5
13B9
  8
0
 10
0.0
 20
0.0
 30
0.0
 70
   128
 71
     8
 72
     9
 73
   -10
  0
VERTEX
  5
13BA
  8
0
 10
0.0
 20
0.0
 30
0.0
 70
   128
 71
   -11
 72
     7
 73
    -8
  0
VERTEX
  5
13BB
  8
0
 10
0.0
 20
0.0
 30
0.0
 70
   128
 71
    10
 72
   -11
 73
    -8
  0
VERTEX
  5
13BC
  8
0
 10
0.0
 20
0.0
 30
0.0
 70
   128
 71
    11
 72
   -12
 73
    -7
  0
VERTEX
  5
13BD
  8
0
 10
0.0
 20
0.0
 30
0.0
 70
   128
 71
    12
 72
   -13
 73
    -7
  0
VERTEX
  5
13BE
  8
0
 10
0.0
 20
0.0
 30
0.0
 70
   128
 71
    13
 72
   -14
 73
    -7
  0
VERTEX
  5
13BF
  8
0
 10
0.0
 20
0.0
 30
0.0
 70
   128
 71
    14
 72
    -1
 73
    -7
  0
VERTEX
  5
13C0
  8
0
 10
0.0
 20
0.0
 30
0.0
 70
   128
 71
    -7
 72
     1
 73
    -2
  0
VERTEX
  5
13C1
  8
0
 10
0.0
 20
0.0
 30
0.0
 70
   128
 71
    -2
 72
     6
 73
    -7
  0
VERTEX
  5
13C2
  8
0
 10
0.0
 20
0.0
 30
0.0
 70
   128
 71
     2
 72
    -3
 73
    -6
  0
VERTEX
  5
13C3
  8
0
 10
0.0
 20
0.0
 30
0.0
 70
   128
 71
     3
 72
    -4
 73
    -6
  0
VERTEX
  5
13C4
  8
0
 10
0.0
 20
0.0
 30
0.0
 70
   128
 71
     4
 72
     5
 73
    -6
  0
SEQEND
  5
18CB
  8
0
  0
POLYLINE
  5
13C5
  8
0
 66
     1
 10
0.0
 20
0.0
 30
0.0
 70
    64
 71
    14
 72
    12
  0
VERTEX
  5
13C6
  8
0
 10
180.243580310299
 20
33.66392720301925
 30
111.936045912779
 70
   192
  0
VERTEX
  5
13C7
  8
0
 10
184.9293056441075
 20
35.35602717426698
 30
111.9065101979158
 70
   192
  0
VERTEX
  5
13C8
  8
0
 10
188.3284244385633
 20
38.64837707263068
 30
111.8490420166736
 70
   192
  0
VERTEX
  5
13C9
  8
0
 10
190.8255748328865
 20
42.18433027329995
 30
111.7873217239726
 70
   192
  0
VERTEX
  5
13CA
  8
0
 10
197.9883633868717
 20
58.11443470440739
 30
111.5092607168143
 70
   192
  0
VERTEX
  5
13CB
  8
0
 10
204.2503381726153
 20
81.39130719097851
 30
111.1029613962354
 70
   192
  0
VERTEX
  5
13CC
  8
0
 10
208.8379745483355
 20
109.1396192514982
 30
110.6186128075706
 70
   192
  0
VERTEX
  5
13CD
  8
0
 10
267.6198312463195
 20
109.1396192514982
 30
110.6186128075706
 70
   192
  0
VERTEX
  5
13CE
  8
0
 10
269.0012184387488
 20
30.0
 30
112.0
 70
   192
  0
VERTEX
  5
13CF
  8
0
 10
-189.001218438749
 20
30.0
 30
112.0
 70
   192
  0
VERTEX
  5
13D0
  8
0
 10
-187.9464822497182
 20
90.4257958001413
 30
110.9452638109693
 70
   192
  0
VERTEX
  5
13D1
  8
0
 10
-161.7966153658613
 20
64.6151494134605
 30
111.3957903194882
 70
   192
  0
VERTEX
  5
13D2
  8
0
 10
-131.0279039814124
 20
44.55659192466232
 30
111.7459137428216
 70
   192
  0
VERTEX
  5
13D3
  8
0
 10
-96.01920405705229
 20
33.66392720301945
 30
111.936045912779
 70
   192
  0
VERTEX
  5
13D4
  8
0
 10
0.0
 20
0.0
 30
0.0
 70
   128
 71
    10
 72
    11
 73
   -12
  0
VERTEX
  5
13D5
  8
0
 10
0.0
 20
0.0
 30
0.0
 70
   128
 71
    12
 72
   -13
 73
   -10
  0
VERTEX
  5
13D6
  8
0
 10
0.0
 20
0.0
 30
0.0
 70
   128
 71
    13
 72
   -14
 73
   -10
  0
VERTEX
  5
13D7
  8
0
 10
0.0
 20
0.0
 30
0.0
 70
   128
 71
    14
 72
    -1
 73
   -10
  0
VERTEX
  5
13D8
  8
0
 10
0.0
 20
0.0
 30
0.0
 70
   128
 71
    -1
 72
     9
 73
   -10
  0
VERTEX
  5
13D9
  8
0
 10
0.0
 20
0.0
 30
0.0
 70
   128
 71
    -9
 72
     1
 73
    -2
  0
VERTEX
  5
13DA
  8
0
 10
0.0
 20
0.0
 30
0.0
 70
   128
 71
     2
 72
    -3
 73
    -9
  0
VERTEX
  5
13DB
  8
0
 10
0.0
 20
0.0
 30
0.0
 70
   128
 71
     3
 72
    -4
 73
    -9
  0
VERTEX
  5
13DC
  8
0
 10
0.0
 20
0.0
 30
0.0
 70
   128
 71
     4
 72
    -5
 73
    -9
  0
VERTEX
  5
13DD
  8
0
 10
0.0
 20
0.0
 30
0.0
 70
   128
 71
    -6
 72
     8
 73
    -9
  0
VERTEX
  5
13DE
  8
0
 10
0.0
 20
0.0
 30
0.0
 70
   128
 71
     5
 72
    -6
 73
    -9
  0
VERTEX
  5
13DF
  8
0
 10
0.0
 20
0.0
 30
0.0
 70
   128
 71
     6
 72
     7
 73
    -8
  0
SEQEND
  5
18CC
  8
0
  0
POLYLINE
  5
13E0
  8
0
 66
     1
 10
0.0
 20
0.0
 30
0.0
 70
    64
 71
    32
 72
    32
  0
VERTEX
  5
13E1
  8
0
 10
-207.000456914531
 20
30.0
 30
-125.0
 70
   192
  0
VERTEX
  5
13E2
  8
0
 10
-208.4674428143203
 20
29.99999999999994
 30
-124.61686070358
 70
   192
  0
VERTEX
  5
13E3
  8
0
 10
-209.61686070358
 20
29.99999999999994
 30
-123.4674428143203
 70
   192
  0
VERTEX
  5
13E4
  8
0
 10
-210.0
 20
30.0
 30
-122.0004569145308
 70
   192
  0
VERTEX
  5
13E5
  8
0
 10
-210.0
 20
30.0
 30
122.0004569145308
 70
   192
  0
VERTEX
  5
13E6
  8
0
 10
-209.6168607035803
 20
29.99999999999996
 30
123.4674428143203
 70
   192
  0
VERTEX
  5
13E7
  8
0
 10
-208.4674428143205
 20
29.99999999999995
 30
124.6168607035801
 70
   192
  0
VERTEX
  5
13E8
  8
0
 10
-207.000456914531
 20
30.0
 30
125.0
 70
   192
  0
VERTEX
  5
13E9
  8
0
 10
288.0
 20
30.0
 30
125.0
 70
   192
  0
VERTEX
  5
13EA
  8
0
 10
288.9780833528217
 20
29.99999999999996
 30
124.7444819215644
 70
   192
  0
VERTEX
  5
13EB
  8
0
 10
289.7445208382055
 20
29.99999999999996
 30
123.9779276862578
 70
   192
  0
VERTEX
  5
13EC
  8
0
 10
290.0
 20
30.0
 30
122.9996953439122
 70
   192
  0
VERTEX
  5
13ED
  8
0
 10
290.0
 20
30.0
 30
-122.9996953439122
 70
   192
  0
VERTEX
  5
13EE
  8
0
 10
289.7445208382055
 20
29.99999999999995
 30
-123.9779276862578
 70
   192
  0
VERTEX
  5
13EF
  8
0
 10
288.9780833528216
 20
29.99999999999995
 30
-124.7444819215644
 70
   192
  0
VERTEX
  5
13F0
  8
0
 10
288.0
 20
30.0
 30
-125.0
 70
   192
  0
VERTEX
  5
13F1
  8
0
 10
269.001218438749
 20
30.0
 30
-112.0
 70
   192
  0
VERTEX
  5
13F2
  8
0
 10
272.9131808381875
 20
29.99999999999996
 30
-110.9782952095469
 70
   192
  0
VERTEX
  5
13F3
  8
0
 10
275.9782952095469
 20
29.99999999999996
 30
-107.9131808381876
 70
   192
  0
VERTEX
  5
13F4
  8
0
 10
277.0
 20
30.0
 30
-104.001218438749
 70
   192
  0
VERTEX
  5
13F5
  8
0
 10
277.0
 20
30.0
 30
104.001218438749
 70
   192
  0
VERTEX
  5
13F6
  8
0
 10
275.9782952095468
 20
29.99999999999994
 30
107.9131808381876
 70
   192
  0
VERTEX
  5
13F7
  8
0
 10
272.9131808381874
 20
29.99999999999994
 30
110.9782952095469
 70
   192
  0
VERTEX
  5
13F8
  8
0
 10
269.001218438749
 20
30.0
 30
111.9999999999999
 70
   192
  0
VERTEX
  5
13F9
  8
0
 10
-189.001218438749
 20
30.0
 30
112.0
 70
   192
  0
VERTEX
  5
13FA
  8
0
 10
-192.9131808381877
 20
29.99999999999994
 30
110.978295209547
 70
   192
  0
VERTEX
  5
13FB
  8
0
 10
-195.978295209547
 20
29.99999999999994
 30
107.9131808381876
 70
   192
  0
VERTEX
  5
13FC
  8
0
 10
-197.0
 20
30.0
 30
104.001218438749
 70
   192
  0
VERTEX
  5
13FD
  8
0
 10
-197.0
 20
30.0
 30
-104.001218438749
 70
   192
  0
VERTEX
  5
13FE
  8
0
 10
-195.9782952095468
 20
29.99999999999997
 30
-107.9131808381875
 70
   192
  0
VERTEX
  5
13FF
  8
0
 10
-192.9131808381874
 20
29.99999999999996
 30
-110.9782952095469
 70
   192
  0
VERTEX
  5
1400
  8
0
 10
-189.001218438749
 20
30.0
 30
-112.0
 70
   192
  0
VERTEX
  5
1401
  8
0
 10
0.0
 20
0.0
 30
0.0
 70
   128
 71
    18
 72
   -17
 73
   -13
  0
VERTEX
  5
1402
  8
0
 10
0.0
 20
0.0
 30
0.0
 70
   128
 71
   -13
 72
    19
 73
   -18
  0
VERTEX
  5
1403
  8
0
 10
0.0
 20
0.0
 30
0.0
 70
   128
 71
   -13
 72
    20
 73
   -19
  0
VERTEX
  5
1404
  8
0
 10
0.0
 20
0.0
 30
0.0
 70
   128
 71
    13
 72
   -12
 73
   -21
  0
VERTEX
  5
1405
  8
0
 10
0.0
 20
0.0
 30
0.0
 70
   128
 71
   -13
 72
    21
 73
   -20
  0
VERTEX
  5
1406
  8
0
 10
0.0
 20
0.0
 30
0.0
 70
   128
 71
   -12
 72
    22
 73
   -21
  0
VERTEX
  5
1407
  8
0
 10
0.0
 20
0.0
 30
0.0
 70
   128
 71
   -12
 72
    23
 73
   -22
  0
VERTEX
  5
1408
  8
0
 10
0.0
 20
0.0
 30
0.0
 70
   128
 71
   -12
 72
    24
 73
   -23
  0
VERTEX
  5
1409
  8
0
 10
0.0
 20
0.0
 30
0.0
 70
   128
 71
    12
 72
    11
 73
   -10
  0
VERTEX
  5
140A
  8
0
 10
0.0
 20
0.0
 30
0.0
 70
   128
 71
   -12
 72
    10
 73
    -9
  0
VERTEX
  5
140B
  8
0
 10
0.0
 20
0.0
 30
0.0
 70
   128
 71
   -12
 72
     9
 73
    -8
  0
VERTEX
  5
140C
  8
0
 10
0.0
 20
0.0
 30
0.0
 70
   128
 71
   -12
 72
    -8
 73
   -25
  0
VERTEX
  5
140D
  8
0
 10
0.0
 20
0.0
 30
0.0
 70
   128
 71
   -12
 72
    25
 73
   -24
  0
VERTEX
  5
140E
  8
0
 10
0.0
 20
0.0
 30
0.0
 70
   128
 71
    -8
 72
    26
 73
   -25
  0
VERTEX
  5
140F
  8
0
 10
0.0
 20
0.0
 30
0.0
 70
   128
 71
    -8
 72
    27
 73
   -26
  0
VERTEX
  5
1410
  8
0
 10
0.0
 20
0.0
 30
0.0
 70
   128
 71
    -8
 72
    28
 73
   -27
  0
VERTEX
  5
1411
  8
0
 10
0.0
 20
0.0
 30
0.0
 70
   128
 71
     8
 72
     7
 73
    -6
  0
VERTEX
  5
1412
  8
0
 10
0.0
 20
0.0
 30
0.0
 70
   128
 71
    -8
 72
     6
 73
    -5
  0
VERTEX
  5
1413
  8
0
 10
0.0
 20
0.0
 30
0.0
 70
   128
 71
    -8
 72
     5
 73
    -4
  0
VERTEX
  5
1414
  8
0
 10
0.0
 20
0.0
 30
0.0
 70
   128
 71
    -8
 72
    -4
 73
   -29
  0
VERTEX
  5
1415
  8
0
 10
0.0
 20
0.0
 30
0.0
 70
   128
 71
    -8
 72
    29
 73
   -28
  0
VERTEX
  5
1416
  8
0
 10
0.0
 20
0.0
 30
0.0
 70
   128
 71
    -4
 72
    30
 73
   -29
  0
VERTEX
  5
1417
  8
0
 10
0.0
 20
0.0
 30
0.0
 70
   128
 71
    -4
 72
    31
 73
   -30
  0
VERTEX
  5
1418
  8
0
 10
0.0
 20
0.0
 30
0.0
 70
   128
 71
    -4
 72
    32
 73
   -31
  0
VERTEX
  5
1419
  8
0
 10
0.0
 20
0.0
 30
0.0
 70
   128
 71
     4
 72
     3
 73
    -2
  0
VERTEX
  5
141A
  8
0
 10
0.0
 20
0.0
 30
0.0
 70
   128
 71
    -4
 72
     2
 73
    -1
  0
VERTEX
  5
141B
  8
0
 10
0.0
 20
0.0
 30
0.0
 70
   128
 71
    -4
 72
     1
 73
   -16
  0
VERTEX
  5
141C
  8
0
 10
0.0
 20
0.0
 30
0.0
 70
   128
 71
    -4
 72
    16
 73
   -15
  0
VERTEX
  5
141D
  8
0
 10
0.0
 20
0.0
 30
0.0
 70
   128
 71
    -4
 72
    15
 73
   -14
  0
VERTEX
  5
141E
  8
0
 10
0.0
 20
0.0
 30
0.0
 70
   128
 71
    -4
 72
    14
 73
   -13
  0
VERTEX
  5
141F
  8
0
 10
0.0
 20
0.0
 30
0.0
 70
   128
 71
    -4
 72
   -13
 73
   -17
  0
VERTEX
  5
1420
  8
0
 10
0.0
 20
0.0
 30
0.0
 70
   128
 71
    -4
 72
    17
 73
   -32
  0
SEQEND
  5
18CD
  8
0
  0
POLYLINE
  5
1421
  8
0
 66
     1
 10
0.0
 20
0.0
 30
0.0
 70
    64
 71
    15
 72
    13
  0
VERTEX
  5
1422
  8
0
 10
67.12248612912555
 20
-13.00001556028117
 30
-52.94562225490964
 70
   192
  0
VERTEX
  5
1423
  8
0
 10
67.12094821067541
 20
-13.0
 30
-52.9659100335582
 70
   192
  0
VERTEX
  5
1424
  8
0
 10
90.45006884262288
 20
-13.00000000000001
 30
-62.85722557403284
 70
   192
  0
VERTEX
  5
1425
  8
0
 10
135.2864190835025
 20
-15.84078314314142
 30
-47.42705366894262
 70
   192
  0
VERTEX
  5
1426
  8
0
 10
134.0666356848672
 20
-18.99999999999998
 30
-45.61621798543879
 70
   192
  0
VERTEX
  5
1427
  8
0
 10
113.9938967668552
 20
-19.0
 30
-53.95815522808806
 70
   192
  0
VERTEX
  5
1428
  8
0
 10
92.2569393157522
 20
-19.0
 30
-53.87186849729638
 70
   192
  0
VERTEX
  5
1429
  8
0
 10
68.83284044639774
 20
-13.48202307963331
 30
-50.42115889174882
 70
   192
  0
VERTEX
  5
142A
  8
0
 10
67.1369756033106
 20
-13.0001620007334
 30
-52.9079097004874
 70
   192
  0
VERTEX
  5
142B
  8
0
 10
67.12762109687804
 20
-13.00006748791043
 30
-52.92597871230684
 70
   192
  0
VERTEX
  5
142C
  8
0
 10
115.7893300165615
 20
-12.99999999999999
 30
-62.9457452900368
 70
   192
  0
VERTEX
  5
142D
  8
0
 10
137.0814447800498
 20
-13.73738242804482
 30
-50.09186824811364
 70
   192
  0
VERTEX
  5
142E
  8
0
 10
139.1869886932044
 20
-13.0
 30
-53.21766423401618
 70
   192
  0
VERTEX
  5
142F
  8
0
 10
70.7523811753643
 20
-15.38645799690314
 30
-47.59498413127052
 70
   192
  0
VERTEX
  5
1430
  8
0
 10
72.25106002257044
 20
-19.00000000000001
 30
-45.37083571665055
 70
   192
  0
VERTEX
  5
1431
  8
0
 10
0.0
 20
0.0
 30
0.0
 70
   128
 71
     1
 72
     2
 73
     3
  0
VERTEX
  5
1432
  8
0
 10
0.0
 20
0.0
 30
0.0
 70
   128
 71
     4
 72
     5
 73
     6
  0
VERTEX
  5
1433
  8
0
 10
0.0
 20
0.0
 30
0.0
 70
   128
 71
     6
 72
     7
 73
     4
  0
VERTEX
  5
1434
  8
0
 10
0.0
 20
0.0
 30
0.0
 70
   128
 71
     8
 72
     9
 73
    10
  0
VERTEX
  5
1435
  8
0
 10
0.0
 20
0.0
 30
0.0
 70
   128
 71
     3
 72
     8
 73
    10
  0
VERTEX
  5
1436
  8
0
 10
0.0
 20
0.0
 30
0.0
 70
   128
 71
    10
 72
     1
 73
     3
  0
VERTEX
  5
1437
  8
0
 10
0.0
 20
0.0
 30
0.0
 70
   128
 71
    11
 72
    12
 73
     8
  0
VERTEX
  5
1438
  8
0
 10
0.0
 20
0.0
 30
0.0
 70
   128
 71
     3
 72
    11
 73
     8
  0
VERTEX
  5
1439
  8
0
 10
0.0
 20
0.0
 30
0.0
 70
   128
 71
    11
 72
    13
 73
    12
  0
VERTEX
  5
143A
  8
0
 10
0.0
 20
0.0
 30
0.0
 70
   128
 71
     8
 72
    12
 73
     4
  0
VERTEX
  5
143B
  8
0
 10
0.0
 20
0.0
 30
0.0
 70
   128
 71
    14
 72
     8
 73
     4
  0
VERTEX
  5
143C
  8
0
 10
0.0
 20
0.0
 30
0.0
 70
   128
 71
    14
 72
     4
 73
     7
  0
VERTEX
  5
143D
  8
0
 10
0.0
 20
0.0
 30
0.0
 70
   128
 71
    15
 72
    14
 73
     7
  0
SEQEND
  5
18CE
  8
0
  0
POLYLINE
  5
143E
  8
0
 66
     1
 10
0.0
 20
0.0
 30
0.0
 70
    64
 71
    13
 72
    11
  0
VERTEX
  5
143F
  8
0
 10
70.7523811753643
 20
-15.38645799690314
 30
-47.59498413127052
 70
   192
  0
VERTEX
  5
1440
  8
0
 10
72.25106002257041
 20
-19.0
 30
-45.3708357166506
 70
   192
  0
VERTEX
  5
1441
  8
0
 10
51.1896286817239
 20
-19.00000000000002
 30
-17.47579593291434
 70
   192
  0
VERTEX
  5
1442
  8
0
 10
46.69702987500136
 20
-12.52678875626124
 30
-29.87791747561914
 70
   192
  0
VERTEX
  5
1443
  8
0
 10
68.83284044639774
 20
-13.48202307963331
 30
-50.42115889174882
 70
   192
  0
VERTEX
  5
1444
  8
0
 10
67.1369756033106
 20
-13.0001620007334
 30
-52.9079097004874
 70
   192
  0
VERTEX
  5
1445
  8
0
 10
39.32639363397328
 20
-12.2249824636638
 30
0.0007392359568064
 70
   192
  0
VERTEX
  5
1446
  8
0
 10
69.0096797052174
 20
-13.58972622672131
 30
50.15906510049343
 70
   192
  0
VERTEX
  5
1447
  8
0
 10
67.1369756033106
 20
-13.0001620007334
 30
52.90790970048729
 70
   192
  0
VERTEX
  5
1448
  8
0
 10
46.68465965342723
 20
-12.52634049951578
 30
29.85437057225555
 70
   192
  0
VERTEX
  5
1449
  8
0
 10
51.1896197959925
 20
-19.00000000000003
 30
17.47580059612632
 70
   192
  0
VERTEX
  5
144A
  8
0
 10
70.85365927335442
 20
-15.54603047808501
 30
47.44284262145854
 70
   192
  0
VERTEX
  5
144B
  8
0
 10
72.25106002257041
 20
-19.0
 30
45.3708357166506
 70
   192
  0
VERTEX
  5
144C
  8
0
 10
0.0
 20
0.0
 30
0.0
 70
   128
 71
     1
 72
     2
 73
     3
  0
VERTEX
  5
144D
  8
0
 10
0.0
 20
0.0
 30
0.0
 70
   128
 71
     3
 72
     4
 73
     5
  0
VERTEX
  5
144E
  8
0
 10
0.0
 20
0.0
 30
0.0
 70
   128
 71
     3
 72
     5
 73
     1
  0
VERTEX
  5
144F
  8
0
 10
0.0
 20
0.0
 30
0.0
 70
   128
 71
     4
 72
     6
 73
     5
  0
VERTEX
  5
1450
  8
0
 10
0.0
 20
0.0
 30
0.0
 70
   128
 71
     3
 72
     7
 73
     4
  0
VERTEX
  5
1451
  8
0
 10
0.0
 20
0.0
 30
0.0
 70
   128
 71
     8
 72
     9
 73
    10
  0
VERTEX
  5
1452
  8
0
 10
0.0
 20
0.0
 30
0.0
 70
   128
 71
    10
 72
    11
 73
    12
  0
VERTEX
  5
1453
  8
0
 10
0.0
 20
0.0
 30
0.0
 70
   128
 71
    10
 72
    12
 73
     8
  0
VERTEX
  5
1454
  8
0
 10
0.0
 20
0.0
 30
0.0
 70
   128
 71
    11
 72
    13
 73
    12
  0
VERTEX
  5
1455
  8
0
 10
0.0
 20
0.0
 30
0.0
 70
   128
 71
     7
 72
     3
 73
    11
  0
VERTEX
  5
1456
  8
0
 10
0.0
 20
0.0
 30
0.0
 70
   128
 71
     7
 72
    11
 73
    10
  0
SEQEND
  5
18CF
  8
0
  0
POLYLINE
  5
1457
  8
0
 66
     1
 10
0.0
 20
0.0
 30
0.0
 70
    64
 71
    13
 72
    11
  0
VERTEX
  5
1458
  8
0
 10
155.4428288111231
 20
-18.99999999999998
 30
17.61372267849203
 70
   192
  0
VERTEX
  5
1459
  8
0
 10
166.9633558263286
 20
-11.50806339365407
 30
0.052194508105561
 70
   192
  0
VERTEX
  5
145A
  8
0
 10
159.6237245609285
 20
-12.19342017595307
 30
30.02150835820717
 70
   192
  0
VERTEX
  5
145B
  8
0
 10
135.2864190835025
 20
-15.84078314314143
 30
47.42705366894253
 70
   192
  0
VERTEX
  5
145C
  8
0
 10
134.0666356848672
 20
-18.99999999999999
 30
45.61621798543868
 70
   192
  0
VERTEX
  5
145D
  8
0
 10
137.0814447800497
 20
-13.73738242804482
 30
50.09186824811356
 70
   192
  0
VERTEX
  5
145E
  8
0
 10
139.1869886932044
 20
-13.0
 30
53.21766423401611
 70
   192
  0
VERTEX
  5
145F
  8
0
 10
137.0814447800498
 20
-13.73738242804482
 30
-50.09186824811364
 70
   192
  0
VERTEX
  5
1460
  8
0
 10
139.1869886932044
 20
-13.0
 30
-53.21766423401618
 70
   192
  0
VERTEX
  5
1461
  8
0
 10
159.6358279159202
 20
-12.192463030401
 30
-29.99831200039648
 70
   192
  0
VERTEX
  5
1462
  8
0
 10
155.442836940595
 20
-18.99999999999998
 30
-17.61372698546755
 70
   192
  0
VERTEX
  5
1463
  8
0
 10
135.2864190835025
 20
-15.84078314314142
 30
-47.42705366894262
 70
   192
  0
VERTEX
  5
1464
  8
0
 10
134.0666356848672
 20
-19.0
 30
-45.6162179854388
 70
   192
  0
VERTEX
  5
1465
  8
0
 10
0.0
 20
0.0
 30
0.0
 70
   128
 71
     1
 72
     2
 73
     3
  0
VERTEX
  5
1466
  8
0
 10
0.0
 20
0.0
 30
0.0
 70
   128
 71
     4
 72
     5
 73
     1
  0
VERTEX
  5
1467
  8
0
 10
0.0
 20
0.0
 30
0.0
 70
   128
 71
     1
 72
     6
 73
     4
  0
VERTEX
  5
1468
  8
0
 10
0.0
 20
0.0
 30
0.0
 70
   128
 71
     1
 72
     3
 73
     6
  0
VERTEX
  5
1469
  8
0
 10
0.0
 20
0.0
 30
0.0
 70
   128
 71
     3
 72
     7
 73
     6
  0
VERTEX
  5
146A
  8
0
 10
0.0
 20
0.0
 30
0.0
 70
   128
 71
     8
 72
     9
 73
    10
  0
VERTEX
  5
146B
  8
0
 10
0.0
 20
0.0
 30
0.0
 70
   128
 71
     8
 72
    10
 73
    11
  0
VERTEX
  5
146C
  8
0
 10
0.0
 20
0.0
 30
0.0
 70
   128
 71
    11
 72
    12
 73
     8
  0
VERTEX
  5
146D
  8
0
 10
0.0
 20
0.0
 30
0.0
 70
   128
 71
    11
 72
    13
 73
    12
  0
VERTEX
  5
146E
  8
0
 10
0.0
 20
0.0
 30
0.0
 70
   128
 71
    10
 72
     2
 73
     1
  0
VERTEX
  5
146F
  8
0
 10
0.0
 20
0.0
 30
0.0
 70
   128
 71
    10
 72
     1
 73
    11
  0
SEQEND
  5
18D0
  8
0
  0
POLYLINE
  5
1470
  8
0
 66
     1
 10
0.0
 20
0.0
 30
0.0
 70
    64
 71
    15
 72
    13
  0
VERTEX
  5
1471
  8
0
 10
139.1869886932044
 20
-13.0
 30
53.2176642340161
 70
   192
  0
VERTEX
  5
1472
  8
0
 10
115.7893300165615
 20
-12.99999999999999
 30
62.94574529003679
 70
   192
  0
VERTEX
  5
1473
  8
0
 10
90.4500688426229
 20
-13.00000000000001
 30
62.85722557403285
 70
   192
  0
VERTEX
  5
1474
  8
0
 10
67.12249395972404
 20
-13.00001563854744
 30
52.94554537284313
 70
   192
  0
VERTEX
  5
1475
  8
0
 10
67.1209482106754
 20
-13.00000000000001
 30
52.96591003355822
 70
   192
  0
VERTEX
  5
1476
  8
0
 10
67.12766767180814
 20
-13.00006795981185
 30
52.92590950376481
 70
   192
  0
VERTEX
  5
1477
  8
0
 10
67.1369756033106
 20
-13.0001620007334
 30
52.90790970048729
 70
   192
  0
VERTEX
  5
1478
  8
0
 10
135.2864190835025
 20
-15.84078314314143
 30
47.42705366894253
 70
   192
  0
VERTEX
  5
1479
  8
0
 10
137.0814447800497
 20
-13.73738242804482
 30
50.09186824811356
 70
   192
  0
VERTEX
  5
147A
  8
0
 10
70.85365927335442
 20
-15.54603047808501
 30
47.44284262145854
 70
   192
  0
VERTEX
  5
147B
  8
0
 10
69.0096797052174
 20
-13.58972622672131
 30
50.15906510049343
 70
   192
  0
VERTEX
  5
147C
  8
0
 10
134.0666356848673
 20
-18.99999999999999
 30
45.61621798543879
 70
   192
  0
VERTEX
  5
147D
  8
0
 10
113.9938967668552
 20
-19.0
 30
53.95815522808805
 70
   192
  0
VERTEX
  5
147E
  8
0
 10
72.25106002257041
 20
-19.0
 30
45.3708357166506
 70
   192
  0
VERTEX
  5
147F
  8
0
 10
92.25693931575222
 20
-19.0
 30
53.87186849729638
 70
   192
  0
VERTEX
  5
1480
  8
0
 10
0.0
 20
0.0
 30
0.0
 70
   128
 71
     1
 72
     2
 73
     3
  0
VERTEX
  5
1481
  8
0
 10
0.0
 20
0.0
 30
0.0
 70
   128
 71
     3
 72
     4
 73
     1
  0
VERTEX
  5
1482
  8
0
 10
0.0
 20
0.0
 30
0.0
 70
   128
 71
     3
 72
     5
 73
     4
  0
VERTEX
  5
1483
  8
0
 10
0.0
 20
0.0
 30
0.0
 70
   128
 71
     4
 72
     6
 73
     1
  0
VERTEX
  5
1484
  8
0
 10
0.0
 20
0.0
 30
0.0
 70
   128
 71
     6
 72
     7
 73
     1
  0
VERTEX
  5
1485
  8
0
 10
0.0
 20
0.0
 30
0.0
 70
   128
 71
     8
 72
     9
 73
    10
  0
VERTEX
  5
1486
  8
0
 10
0.0
 20
0.0
 30
0.0
 70
   128
 71
     9
 72
     1
 73
    11
  0
VERTEX
  5
1487
  8
0
 10
0.0
 20
0.0
 30
0.0
 70
   128
 71
    12
 72
     8
 73
    13
  0
VERTEX
  5
1488
  8
0
 10
0.0
 20
0.0
 30
0.0
 70
   128
 71
     1
 72
     7
 73
    11
  0
VERTEX
  5
1489
  8
0
 10
0.0
 20
0.0
 30
0.0
 70
   128
 71
     9
 72
    11
 73
    10
  0
VERTEX
  5
148A
  8
0
 10
0.0
 20
0.0
 30
0.0
 70
   128
 71
    10
 72
    14
 73
    15
  0
VERTEX
  5
148B
  8
0
 10
0.0
 20
0.0
 30
0.0
 70
   128
 71
    13
 72
     8
 73
    10
  0
VERTEX
  5
148C
  8
0
 10
0.0
 20
0.0
 30
0.0
 70
   128
 71
    15
 72
    13
 73
    10
  0
SEQEND
  5
18D1
  8
0
  0
POLYLINE
  5
148D
  8
0
 66
     1
 10
0.0
 20
0.0
 30
0.0
 70
    64
 71
     8
 72
     6
  0
VERTEX
  5
148E
  8
0
 10
-205.306401717831
 20
128.530127769297
 30
122.8868491615173
 70
   192
  0
VERTEX
  5
148F
  8
0
 10
288.0
 20
128.530127769297
 30
122.8868491615173
 70
   192
  0
VERTEX
  5
1490
  8
0
 10
288.0
 20
129.6067588407725
 30
121.7912614236804
 70
   192
  0
VERTEX
  5
1491
  8
0
 10
-205.306401717831
 20
129.6067588407725
 30
121.7912614236804
 70
   192
  0
VERTEX
  5
1492
  8
0
 10
-205.306401717831
 20
127.0523572193118
 30
123.3059448033004
 70
   192
  0
VERTEX
  5
1493
  8
0
 10
288.0
 20
127.0523572193118
 30
123.3059448033004
 70
   192
  0
VERTEX
  5
1494
  8
0
 10
288.0
 20
130.0
 30
120.3064017178312
 70
   192
  0
VERTEX
  5
1495
  8
0
 10
-205.306401717831
 20
130.0
 30
120.3064017178312
 70
   192
  0
VERTEX
  5
1496
  8
0
 10
0.0
 20
0.0
 30
0.0
 70
   128
 71
     1
 72
     2
 73
    -3
  0
VERTEX
  5
1497
  8
0
 10
0.0
 20
0.0
 30
0.0
 70
   128
 71
    -1
 72
     3
 73
     4
  0
VERTEX
  5
1498
  8
0
 10
0.0
 20
0.0
 30
0.0
 70
   128
 71
     5
 72
     6
 73
    -2
  0
VERTEX
  5
1499
  8
0
 10
0.0
 20
0.0
 30
0.0
 70
   128
 71
    -5
 72
     2
 73
     1
  0
VERTEX
  5
149A
  8
0
 10
0.0
 20
0.0
 30
0.0
 70
   128
 71
     4
 72
     3
 73
    -7
  0
VERTEX
  5
149B
  8
0
 10
0.0
 20
0.0
 30
0.0
 70
   128
 71
    -4
 72
     7
 73
     8
  0
SEQEND
  5
18D2
  8
0
  0
POLYLINE
  5
149C
  8
0
 66
     1
 10
0.0
 20
0.0
 30
0.0
 70
    64
 71
     8
 72
     6
  0
VERTEX
  5
149D
  8
0
 10
-207.903777756419
 20
127.0715113745421
 30
121.8059095829257
 70
   192
  0
VERTEX
  5
149E
  8
0
 10
-209.6168607035803
 20
29.99999999999996
 30
123.4674428143203
 70
   192
  0
VERTEX
  5
149F
  8
0
 10
-208.4674428143205
 20
29.99999999999995
 30
124.6168607035801
 70
   192
  0
VERTEX
  5
14A0
  8
0
 10
-206.8059095829255
 20
127.0715113745421
 30
122.9037777564192
 70
   192
  0
VERTEX
  5
14A1
  8
0
 10
-208.3059448033002
 20
127.0523572193118
 30
120.3064017178312
 70
   192
  0
VERTEX
  5
14A2
  8
0
 10
-210.0
 20
30.0
 30
122.0004569145307
 70
   192
  0
VERTEX
  5
14A3
  8
0
 10
-207.000456914531
 20
30.0
 30
125.0
 70
   192
  0
VERTEX
  5
14A4
  8
0
 10
-205.3064017178312
 20
127.0523572193118
 30
123.3059448033002
 70
   192
  0
VERTEX
  5
14A5
  8
0
 10
0.0
 20
0.0
 30
0.0
 70
   128
 71
     1
 72
     2
 73
    -3
  0
VERTEX
  5
14A6
  8
0
 10
0.0
 20
0.0
 30
0.0
 70
   128
 71
    -1
 72
     3
 73
     4
  0
VERTEX
  5
14A7
  8
0
 10
0.0
 20
0.0
 30
0.0
 70
   128
 71
     5
 72
     6
 73
     2
  0
VERTEX
  5
14A8
  8
0
 10
0.0
 20
0.0
 30
0.0
 70
   128
 71
     5
 72
     2
 73
     1
  0
VERTEX
  5
14A9
  8
0
 10
0.0
 20
0.0
 30
0.0
 70
   128
 71
     4
 72
     3
 73
     7
  0
VERTEX
  5
14AA
  8
0
 10
0.0
 20
0.0
 30
0.0
 70
   128
 71
     4
 72
     7
 73
     8
  0
SEQEND
  5
18D3
  8
0
  0
POLYLINE
  5
14AB
  8
0
 66
     1
 10
0.0
 20
0.0
 30
0.0
 70
    64
 71
     9
 72
     7
  0
VERTEX
  5
14AC
  8
0
 10
-205.306401717831
 20
129.6067588407725
 30
121.7912614236804
 70
   192
  0
VERTEX
  5
14AD
  8
0
 10
-205.306401717831
 20
130.0
 30
120.3064017178312
 70
   192
  0
VERTEX
  5
14AE
  8
0
 10
-206.7912614236802
 20
129.6067588407725
 30
120.3064017178312
 70
   192
  0
VERTEX
  5
14AF
  8
0
 10
-205.306401717831
 20
128.530127769297
 30
122.8868491615173
 70
   192
  0
VERTEX
  5
14B0
  8
0
 10
-207.8868491615171
 20
128.530127769297
 30
120.3064017178312
 70
   192
  0
VERTEX
  5
14B1
  8
0
 10
-208.3059448033002
 20
127.0523572193118
 30
120.3064017178312
 70
   192
  0
VERTEX
  5
14B2
  8
0
 10
-207.903777756419
 20
127.0715113745421
 30
121.8059095829257
 70
   192
  0
VERTEX
  5
14B3
  8
0
 10
-205.306401717831
 20
127.0523572193118
 30
123.3059448033004
 70
   192
  0
VERTEX
  5
14B4
  8
0
 10
-206.8059095829255
 20
127.0715113745421
 30
122.9037777564192
 70
   192
  0
VERTEX
  5
14B5
  8
0
 10
0.0
 20
0.0
 30
0.0
 70
   128
 71
     1
 72
     2
 73
     3
  0
VERTEX
  5
14B6
  8
0
 10
0.0
 20
0.0
 30
0.0
 70
   128
 71
     3
 72
     4
 73
     1
  0
VERTEX
  5
14B7
  8
0
 10
0.0
 20
0.0
 30
0.0
 70
   128
 71
     5
 72
     6
 73
     7
  0
VERTEX
  5
14B8
  8
0
 10
0.0
 20
0.0
 30
0.0
 70
   128
 71
     8
 72
     4
 73
     3
  0
VERTEX
  5
14B9
  8
0
 10
0.0
 20
0.0
 30
0.0
 70
   128
 71
     8
 72
     3
 73
     5
  0
VERTEX
  5
14BA
  8
0
 10
0.0
 20
0.0
 30
0.0
 70
   128
 71
     8
 72
     5
 73
     7
  0
VERTEX
  5
14BB
  8
0
 10
0.0
 20
0.0
 30
0.0
 70
   128
 71
     8
 72
     7
 73
     9
  0
SEQEND
  5
18D4
  8
0
  0
POLYLINE
  5
14BC
  8
0
 66
     1
 10
0.0
 20
0.0
 30
0.0
 70
    64
 71
     8
 72
     6
  0
VERTEX
  5
14BD
  8
0
 10
288.0
 20
128.530127769297
 30
-122.8868491615171
 70
   192
  0
VERTEX
  5
14BE
  8
0
 10
-205.306401717831
 20
128.530127769297
 30
-122.8868491615171
 70
   192
  0
VERTEX
  5
14BF
  8
0
 10
-205.306401717831
 20
129.6067588407725
 30
-121.7912614236802
 70
   192
  0
VERTEX
  5
14C0
  8
0
 10
288.0
 20
129.6067588407725
 30
-121.7912614236802
 70
   192
  0
VERTEX
  5
14C1
  8
0
 10
288.0
 20
127.0523572193118
 30
-123.3059448033002
 70
   192
  0
VERTEX
  5
14C2
  8
0
 10
-205.306401717831
 20
127.0523572193118
 30
-123.3059448033004
 70
   192
  0
VERTEX
  5
14C3
  8
0
 10
-205.306401717831
 20
130.0
 30
-120.306401717831
 70
   192
  0
VERTEX
  5
14C4
  8
0
 10
288.0
 20
130.0
 30
-120.306401717831
 70
   192
  0
VERTEX
  5
14C5
  8
0
 10
0.0
 20
0.0
 30
0.0
 70
   128
 71
     1
 72
     2
 73
    -3
  0
VERTEX
  5
14C6
  8
0
 10
0.0
 20
0.0
 30
0.0
 70
   128
 71
    -1
 72
     3
 73
     4
  0
VERTEX
  5
14C7
  8
0
 10
0.0
 20
0.0
 30
0.0
 70
   128
 71
     5
 72
     6
 73
    -2
  0
VERTEX
  5
14C8
  8
0
 10
0.0
 20
0.0
 30
0.0
 70
   128
 71
    -5
 72
     2
 73
     1
  0
VERTEX
  5
14C9
  8
0
 10
0.0
 20
0.0
 30
0.0
 70
   128
 71
     4
 72
     3
 73
    -7
  0
VERTEX
  5
14CA
  8
0
 10
0.0
 20
0.0
 30
0.0
 70
   128
 71
    -4
 72
     7
 73
     8
  0
SEQEND
  5
18D5
  8
0
  0
POLYLINE
  5
14CB
  8
0
 66
     1
 10
0.0
 20
0.0
 30
0.0
 70
    64
 71
     8
 72
     6
  0
VERTEX
  5
14CC
  8
0
 10
-206.7912614236802
 20
129.6067588407725
 30
120.3064017178312
 70
   192
  0
VERTEX
  5
14CD
  8
0
 10
-206.7912614236802
 20
129.6067588407725
 30
-120.3064017178312
 70
   192
  0
VERTEX
  5
14CE
  8
0
 10
-207.8868491615171
 20
128.530127769297
 30
-120.3064017178312
 70
   192
  0
VERTEX
  5
14CF
  8
0
 10
-207.8868491615171
 20
128.530127769297
 30
120.3064017178312
 70
   192
  0
VERTEX
  5
14D0
  8
0
 10
-205.306401717831
 20
130.0
 30
120.3064017178312
 70
   192
  0
VERTEX
  5
14D1
  8
0
 10
-205.306401717831
 20
130.0
 30
-120.306401717831
 70
   192
  0
VERTEX
  5
14D2
  8
0
 10
-208.3059448033002
 20
127.0523572193118
 30
-120.3064017178312
 70
   192
  0
VERTEX
  5
14D3
  8
0
 10
-208.3059448033005
 20
127.0523572193118
 30
120.3064017178312
 70
   192
  0
VERTEX
  5
14D4
  8
0
 10
0.0
 20
0.0
 30
0.0
 70
   128
 71
     1
 72
     2
 73
    -3
  0
VERTEX
  5
14D5
  8
0
 10
0.0
 20
0.0
 30
0.0
 70
   128
 71
    -1
 72
     3
 73
     4
  0
VERTEX
  5
14D6
  8
0
 10
0.0
 20
0.0
 30
0.0
 70
   128
 71
     5
 72
     6
 73
    -2
  0
VERTEX
  5
14D7
  8
0
 10
0.0
 20
0.0
 30
0.0
 70
   128
 71
    -5
 72
     2
 73
     1
  0
VERTEX
  5
14D8
  8
0
 10
0.0
 20
0.0
 30
0.0
 70
   128
 71
     4
 72
     3
 73
    -7
  0
VERTEX
  5
14D9
  8
0
 10
0.0
 20
0.0
 30
0.0
 70
   128
 71
    -4
 72
     7
 73
     8
  0
SEQEND
  5
18D6
  8
0
  0
POLYLINE
  5
14DA
  8
0
 66
     1
 10
0.0
 20
0.0
 30
0.0
 70
    64
 71
     9
 72
     7
  0
VERTEX
  5
14DB
  8
0
 10
-207.9037777564189
 20
127.0715113745421
 30
-121.8059095829257
 70
   192
  0
VERTEX
  5
14DC
  8
0
 10
-208.3059448033002
 20
127.0523572193118
 30
-120.3064017178312
 70
   192
  0
VERTEX
  5
14DD
  8
0
 10
-207.8868491615171
 20
128.530127769297
 30
-120.3064017178312
 70
   192
  0
VERTEX
  5
14DE
  8
0
 10
-206.8059095829255
 20
127.0715113745421
 30
-122.9037777564192
 70
   192
  0
VERTEX
  5
14DF
  8
0
 10
-206.7912614236802
 20
129.6067588407725
 30
-120.3064017178312
 70
   192
  0
VERTEX
  5
14E0
  8
0
 10
-205.306401717831
 20
130.0
 30
-120.3064017178312
 70
   192
  0
VERTEX
  5
14E1
  8
0
 10
-205.306401717831
 20
129.6067588407725
 30
-121.7912614236802
 70
   192
  0
VERTEX
  5
14E2
  8
0
 10
-205.306401717831
 20
128.530127769297
 30
-122.8868491615171
 70
   192
  0
VERTEX
  5
14E3
  8
0
 10
-205.306401717831
 20
127.0523572193118
 30
-123.3059448033002
 70
   192
  0
VERTEX
  5
14E4
  8
0
 10
0.0
 20
0.0
 30
0.0
 70
   128
 71
     1
 72
     2
 73
     3
  0
VERTEX
  5
14E5
  8
0
 10
0.0
 20
0.0
 30
0.0
 70
   128
 71
    -3
 72
     4
 73
     1
  0
VERTEX
  5
14E6
  8
0
 10
0.0
 20
0.0
 30
0.0
 70
   128
 71
     5
 72
     6
 73
     7
  0
VERTEX
  5
14E7
  8
0
 10
0.0
 20
0.0
 30
0.0
 70
   128
 71
     8
 72
     9
 73
     4
  0
VERTEX
  5
14E8
  8
0
 10
0.0
 20
0.0
 30
0.0
 70
   128
 71
     8
 72
    -4
 73
     3
  0
VERTEX
  5
14E9
  8
0
 10
0.0
 20
0.0
 30
0.0
 70
   128
 71
     3
 72
     5
 73
    -7
  0
VERTEX
  5
14EA
  8
0
 10
0.0
 20
0.0
 30
0.0
 70
   128
 71
    -3
 72
     7
 73
     8
  0
SEQEND
  5
18D7
  8
0
  0
POLYLINE
  5
14EB
  8
0
 66
     1
 10
0.0
 20
0.0
 30
0.0
 70
    64
 71
     8
 72
     6
  0
VERTEX
  5
14EC
  8
0
 10
-206.8059095829255
 20
127.0715113745421
 30
-122.9037777564192
 70
   192
  0
VERTEX
  5
14ED
  8
0
 10
-208.4674428143203
 20
29.99999999999994
 30
-124.61686070358
 70
   192
  0
VERTEX
  5
14EE
  8
0
 10
-209.61686070358
 20
29.99999999999994
 30
-123.4674428143203
 70
   192
  0
VERTEX
  5
14EF
  8
0
 10
-207.9037777564189
 20
127.0715113745421
 30
-121.8059095829257
 70
   192
  0
VERTEX
  5
14F0
  8
0
 10
-205.306401717831
 20
127.0523572193118
 30
-123.3059448033004
 70
   192
  0
VERTEX
  5
14F1
  8
0
 10
-207.0004569145311
 20
30.0
 30
-125.0000000000001
 70
   192
  0
VERTEX
  5
14F2
  8
0
 10
-210.0
 20
30.0
 30
-122.0004569145308
 70
   192
  0
VERTEX
  5
14F3
  8
0
 10
-208.3059448033002
 20
127.0523572193118
 30
-120.3064017178311
 70
   192
  0
VERTEX
  5
14F4
  8
0
 10
0.0
 20
0.0
 30
0.0
 70
   128
 71
     1
 72
     2
 73
    -3
  0
VERTEX
  5
14F5
  8
0
 10
0.0
 20
0.0
 30
0.0
 70
   128
 71
    -1
 72
     3
 73
     4
  0
VERTEX
  5
14F6
  8
0
 10
0.0
 20
0.0
 30
0.0
 70
   128
 71
     5
 72
     6
 73
     2
  0
VERTEX
  5
14F7
  8
0
 10
0.0
 20
0.0
 30
0.0
 70
   128
 71
     5
 72
     2
 73
     1
  0
VERTEX
  5
14F8
  8
0
 10
0.0
 20
0.0
 30
0.0
 70
   128
 71
     4
 72
     3
 73
     7
  0
VERTEX
  5
14F9
  8
0
 10
0.0
 20
0.0
 30
0.0
 70
   128
 71
     4
 72
     7
 73
     8
  0
SEQEND
  5
18D8
  8
0
  0
POLYLINE
  5
14FA
  8
0
 66
     1
 10
0.0
 20
0.0
 30
0.0
 70
    64
 71
    13
 72
    11
  0
VERTEX
  5
14FB
  8
0
 10
204.95277437268
 20
109.5987699171036
 30
22.54074394237291
 70
   192
  0
VERTEX
  5
14FC
  8
0
 10
203.8211513493723
 20
88.0061163303902
 30
24.43244886250046
 70
   192
  0
VERTEX
  5
14FD
  8
0
 10
203.2894462442069
 20
77.86057854116774
 30
29.44254057445094
 70
   192
  0
VERTEX
  5
14FE
  8
0
 10
203.0745772373373
 20
73.76063365113238
 30
40.0
 70
   192
  0
VERTEX
  5
14FF
  8
0
 10
203.2894462442069
 20
77.86057854116773
 30
50.55745942554906
 70
   192
  0
VERTEX
  5
1500
  8
0
 10
203.8211513493721
 20
88.00611633039021
 30
55.56755113749958
 70
   192
  0
VERTEX
  5
1501
  8
0
 10
204.9527743726795
 20
109.5987699171036
 30
57.4592560576271
 70
   192
  0
VERTEX
  5
1502
  8
0
 10
205.0401996316579
 20
111.2669432336268
 30
57.66214240131854
 70
   192
  0
VERTEX
  5
1503
  8
0
 10
205.125967407953
 20
112.9034898965145
 30
58.02803695029679
 70
   192
  0
VERTEX
  5
1504
  8
0
 10
205.207053833066
 20
114.450711057616
 30
58.690424595347
 70
   192
  0
VERTEX
  5
1505
  8
0
 10
205.207053833066
 20
114.450711057616
 30
21.30957540465325
 70
   192
  0
VERTEX
  5
1506
  8
0
 10
205.1261899624542
 20
112.9077364893735
 30
21.97060287558628
 70
   192
  0
VERTEX
  5
1507
  8
0
 10
205.0402173531587
 20
111.2672813800073
 30
22.33780464034114
 70
   192
  0
VERTEX
  5
1508
  8
0
 10
0.0
 20
0.0
 30
0.0
 70
   128
 71
    12
 72
    11
 73
   -10
  0
VERTEX
  5
1509
  8
0
 10
0.0
 20
0.0
 30
0.0
 70
   128
 71
   -10
 72
    13
 73
   -12
  0
VERTEX
  5
150A
  8
0
 10
0.0
 20
0.0
 30
0.0
 70
   128
 71
     9
 72
    -8
 73
    -1
  0
VERTEX
  5
150B
  8
0
 10
0.0
 20
0.0
 30
0.0
 70
   128
 71
    -9
 72
     1
 73
   -13
  0
VERTEX
  5
150C
  8
0
 10
0.0
 20
0.0
 30
0.0
 70
   128
 71
   -13
 72
    10
 73
    -9
  0
VERTEX
  5
150D
  8
0
 10
0.0
 20
0.0
 30
0.0
 70
   128
 71
     7
 72
     6
 73
    -5
  0
VERTEX
  5
150E
  8
0
 10
0.0
 20
0.0
 30
0.0
 70
   128
 71
    -7
 72
     5
 73
    -4
  0
VERTEX
  5
150F
  8
0
 10
0.0
 20
0.0
 30
0.0
 70
   128
 71
    -7
 72
     4
 73
    -3
  0
VERTEX
  5
1510
  8
0
 10
0.0
 20
0.0
 30
0.0
 70
   128
 71
    -7
 72
     3
 73
    -2
  0
VERTEX
  5
1511
  8
0
 10
0.0
 20
0.0
 30
0.0
 70
   128
 71
    -7
 72
     2
 73
    -1
  0
VERTEX
  5
1512
  8
0
 10
0.0
 20
0.0
 30
0.0
 70
   128
 71
    -1
 72
     8
 73
    -7
  0
SEQEND
  5
18D9
  8
0
  0
POLYLINE
  5
1513
  8
0
 66
     1
 10
0.0
 20
0.0
 30
0.0
 70
    64
 71
     9
 72
     7
  0
VERTEX
  5
1514
  8
0
 10
201.939219622976
 20
109.4186876499434
 30
61.3175015329166
 70
   192
  0
VERTEX
  5
1515
  8
0
 10
202.4040751114002
 20
111.7178842824778
 30
61.46955031598975
 70
   192
  0
VERTEX
  5
1516
  8
0
 10
203.2863689864507
 20
113.4592718686013
 30
61.58682707436858
 70
   192
  0
VERTEX
  5
1517
  8
0
 10
204.6349332949855
 20
114.9983944342234
 30
61.6923779502441
 70
   192
  0
VERTEX
  5
1518
  8
0
 10
204.2322778476769
 20
113.7026195959179
 30
60.18607902040697
 70
   192
  0
VERTEX
  5
1519
  8
0
 10
203.7199818185214
 20
111.6558219018913
 30
59.6398274511453
 70
   192
  0
VERTEX
  5
151A
  8
0
 10
203.445996997828
 20
109.5087287835236
 30
59.38837879527173
 70
   192
  0
VERTEX
  5
151B
  8
0
 10
202.6690143847173
 20
109.5148339518523
 30
59.78348514666042
 70
   192
  0
VERTEX
  5
151C
  8
0
 10
202.1328019161322
 20
109.482791276327
 30
60.46999642737142
 70
   192
  0
VERTEX
  5
151D
  8
0
 10
0.0
 20
0.0
 30
0.0
 70
   128
 71
     8
 72
     7
 73
     6
  0
VERTEX
  5
151E
  8
0
 10
0.0
 20
0.0
 30
0.0
 70
   128
 71
     6
 72
     5
 73
     9
  0
VERTEX
  5
151F
  8
0
 10
0.0
 20
0.0
 30
0.0
 70
   128
 71
     6
 72
     9
 73
     8
  0
VERTEX
  5
1520
  8
0
 10
0.0
 20
0.0
 30
0.0
 70
   128
 71
     2
 72
     1
 73
     9
  0
VERTEX
  5
1521
  8
0
 10
0.0
 20
0.0
 30
0.0
 70
   128
 71
     9
 72
     5
 73
     3
  0
VERTEX
  5
1522
  8
0
 10
0.0
 20
0.0
 30
0.0
 70
   128
 71
     9
 72
     3
 73
     2
  0
VERTEX
  5
1523
  8
0
 10
0.0
 20
0.0
 30
0.0
 70
   128
 71
     5
 72
     4
 73
     3
  0
SEQEND
  5
18DA
  8
0
  0
POLYLINE
  5
1524
  8
0
 66
     1
 10
0.0
 20
0.0
 30
0.0
 70
    64
 71
     8
 72
     6
  0
VERTEX
  5
1525
  8
0
 10
201.0011788928247
 20
87.89013768961357
 30
58.578291507244
 70
   192
  0
VERTEX
  5
1526
  8
0
 10
201.5373913614096
 20
87.92218036513883
 30
57.89178022653309
 70
   192
  0
VERTEX
  5
1527
  8
0
 10
202.6690143847173
 20
109.5148339518523
 30
59.78348514666042
 70
   192
  0
VERTEX
  5
1528
  8
0
 10
202.1328019161322
 20
109.482791276327
 30
60.46999642737142
 70
   192
  0
VERTEX
  5
1529
  8
0
 10
202.31437397452
 20
87.91607519681014
 30
57.49667387514433
 70
   192
  0
VERTEX
  5
152A
  8
0
 10
203.4459969978278
 20
109.5087287835236
 30
59.38837879527182
 70
   192
  0
VERTEX
  5
152B
  8
0
 10
200.8075965996684
 20
87.82603406323001
 30
59.42579661278899
 70
   192
  0
VERTEX
  5
152C
  8
0
 10
201.9392196229759
 20
109.4186876499435
 30
61.31750153291661
 70
   192
  0
VERTEX
  5
152D
  8
0
 10
0.0
 20
0.0
 30
0.0
 70
   128
 71
     1
 72
     2
 73
    -3
  0
VERTEX
  5
152E
  8
0
 10
0.0
 20
0.0
 30
0.0
 70
   128
 71
     4
 72
    -1
 73
     3
  0
VERTEX
  5
152F
  8
0
 10
0.0
 20
0.0
 30
0.0
 70
   128
 71
     2
 72
     5
 73
    -6
  0
VERTEX
  5
1530
  8
0
 10
0.0
 20
0.0
 30
0.0
 70
   128
 71
     3
 72
    -2
 73
     6
  0
VERTEX
  5
1531
  8
0
 10
0.0
 20
0.0
 30
0.0
 70
   128
 71
     7
 72
     1
 73
    -4
  0
VERTEX
  5
1532
  8
0
 10
0.0
 20
0.0
 30
0.0
 70
   128
 71
     8
 72
    -7
 73
     4
  0
SEQEND
  5
18DB
  8
0
  0
POLYLINE
  5
1533
  8
0
 66
     1
 10
0.0
 20
0.0
 30
0.0
 70
    64
 71
     8
 72
     6
  0
VERTEX
  5
1534
  8
0
 10
202.1328019161323
 20
109.482791276327
 30
19.53000357262858
 70
   192
  0
VERTEX
  5
1535
  8
0
 10
202.6690143847173
 20
109.5148339518523
 30
20.21651485333954
 70
   192
  0
VERTEX
  5
1536
  8
0
 10
201.5373913614096
 20
87.92218036513883
 30
22.10821977346686
 70
   192
  0
VERTEX
  5
1537
  8
0
 10
201.0011788928247
 20
87.89013768961357
 30
21.42170849275595
 70
   192
  0
VERTEX
  5
1538
  8
0
 10
203.445996997828
 20
109.5087287835236
 30
20.61162120472818
 70
   192
  0
VERTEX
  5
1539
  8
0
 10
202.3143739745203
 20
87.91607519681011
 30
22.50332612485574
 70
   192
  0
VERTEX
  5
153A
  8
0
 10
201.9392196229759
 20
109.4186876499435
 30
18.68249846708344
 70
   192
  0
VERTEX
  5
153B
  8
0
 10
200.8075965996684
 20
87.82603406323001
 30
20.57420338721095
 70
   192
  0
VERTEX
  5
153C
  8
0
 10
0.0
 20
0.0
 30
0.0
 70
   128
 71
     1
 72
     2
 73
    -3
  0
VERTEX
  5
153D
  8
0
 10
0.0
 20
0.0
 30
0.0
 70
   128
 71
     4
 72
    -1
 73
     3
  0
VERTEX
  5
153E
  8
0
 10
0.0
 20
0.0
 30
0.0
 70
   128
 71
     2
 72
     5
 73
    -6
  0
VERTEX
  5
153F
  8
0
 10
0.0
 20
0.0
 30
0.0
 70
   128
 71
     3
 72
    -2
 73
     6
  0
VERTEX
  5
1540
  8
0
 10
0.0
 20
0.0
 30
0.0
 70
   128
 71
     7
 72
     1
 73
    -4
  0
VERTEX
  5
1541
  8
0
 10
0.0
 20
0.0
 30
0.0
 70
   128
 71
     8
 72
    -7
 73
     4
  0
SEQEND
  5
18DC
  8
0
  0
POLYLINE
  5
1542
  8
0
 66
     1
 10
0.0
 20
0.0
 30
0.0
 70
    64
 71
     9
 72
     7
  0
VERTEX
  5
1543
  8
0
 10
201.9392196229759
 20
109.4186876499435
 30
18.68249846708344
 70
   192
  0
VERTEX
  5
1544
  8
0
 10
202.1328019161323
 20
109.482791276327
 30
19.53000357262858
 70
   192
  0
VERTEX
  5
1545
  8
0
 10
202.6690143847173
 20
109.5148339518523
 30
20.21651485333954
 70
   192
  0
VERTEX
  5
1546
  8
0
 10
203.445996997828
 20
109.5087287835236
 30
20.6116212047282
 70
   192
  0
VERTEX
  5
1547
  8
0
 10
203.7204937261168
 20
111.6583198363607
 30
20.35976475185535
 70
   192
  0
VERTEX
  5
1548
  8
0
 10
204.233742760851
 20
113.7077598011455
 30
19.81156832884043
 70
   192
  0
VERTEX
  5
1549
  8
0
 10
204.6349332949855
 20
114.9983944342234
 30
18.30762204975585
 70
   192
  0
VERTEX
  5
154A
  8
0
 10
203.2864150313693
 20
113.4593655477102
 30
18.41317173785957
 70
   192
  0
VERTEX
  5
154B
  8
0
 10
202.4038552443828
 20
111.7178346755005
 30
18.5304467381841
 70
   192
  0
VERTEX
  5
154C
  8
0
 10
0.0
 20
0.0
 30
0.0
 70
   128
 71
     8
 72
     7
 73
     6
  0
VERTEX
  5
154D
  8
0
 10
0.0
 20
0.0
 30
0.0
 70
   128
 71
     6
 72
     5
 73
     9
  0
VERTEX
  5
154E
  8
0
 10
0.0
 20
0.0
 30
0.0
 70
   128
 71
     6
 72
     9
 73
     8
  0
VERTEX
  5
154F
  8
0
 10
0.0
 20
0.0
 30
0.0
 70
   128
 71
     2
 72
     1
 73
     9
  0
VERTEX
  5
1550
  8
0
 10
0.0
 20
0.0
 30
0.0
 70
   128
 71
     9
 72
     5
 73
     3
  0
VERTEX
  5
1551
  8
0
 10
0.0
 20
0.0
 30
0.0
 70
   128
 71
     9
 72
     3
 73
     2
  0
VERTEX
  5
1552
  8
0
 10
0.0
 20
0.0
 30
0.0
 70
   128
 71
     5
 72
     4
 73
     3
  0
SEQEND
  5
18DD
  8
0
  0
POLYLINE
  5
1553
  8
0
 66
     1
 10
0.0
 20
0.0
 30
0.0
 70
    64
 71
    12
 72
    10
  0
VERTEX
  5
1554
  8
0
 10
203.445996997828
 20
109.5087287835236
 30
20.6116212047282
 70
   192
  0
VERTEX
  5
1555
  8
0
 10
203.7204937261168
 20
111.6583198363607
 30
20.35976475185535
 70
   192
  0
VERTEX
  5
1556
  8
0
 10
204.233742760851
 20
113.7077598011455
 30
19.81156832884043
 70
   192
  0
VERTEX
  5
1557
  8
0
 10
204.6349332949855
 20
114.9983944342234
 30
18.30762204975585
 70
   192
  0
VERTEX
  5
1558
  8
0
 10
204.8518929707883
 20
114.9493241023498
 30
19.29184820208492
 70
   192
  0
VERTEX
  5
1559
  8
0
 10
205.1081696524468
 20
114.759292357894
 30
20.2699166065709
 70
   192
  0
VERTEX
  5
155A
  8
0
 10
205.207053833066
 20
114.450711057616
 30
21.30957540465325
 70
   192
  0
VERTEX
  5
155B
  8
0
 10
205.1261899624542
 20
112.9077364893735
 30
21.97060287558628
 70
   192
  0
VERTEX
  5
155C
  8
0
 10
205.0402173531587
 20
111.2672813800073
 30
22.33780464034114
 70
   192
  0
VERTEX
  5
155D
  8
0
 10
204.9527743726795
 20
109.5987699171036
 30
22.5407439423729
 70
   192
  0
VERTEX
  5
155E
  8
0
 10
204.7591920795233
 20
109.5346662907202
 30
21.6932388368279
 70
   192
  0
VERTEX
  5
155F
  8
0
 10
204.2229796109385
 20
109.5026236151949
 30
21.006727556117
 70
   192
  0
VERTEX
  5
1560
  8
0
 10
0.0
 20
0.0
 30
0.0
 70
   128
 71
     6
 72
     7
 73
     8
  0
VERTEX
  5
1561
  8
0
 10
0.0
 20
0.0
 30
0.0
 70
   128
 71
    11
 72
     6
 73
     8
  0
VERTEX
  5
1562
  8
0
 10
0.0
 20
0.0
 30
0.0
 70
   128
 71
     8
 72
     9
 73
    11
  0
VERTEX
  5
1563
  8
0
 10
0.0
 20
0.0
 30
0.0
 70
   128
 71
     9
 72
    10
 73
    11
  0
VERTEX
  5
1564
  8
0
 10
0.0
 20
0.0
 30
0.0
 70
   128
 71
    12
 72
     5
 73
     6
  0
VERTEX
  5
1565
  8
0
 10
0.0
 20
0.0
 30
0.0
 70
   128
 71
    11
 72
    12
 73
     6
  0
VERTEX
  5
1566
  8
0
 10
0.0
 20
0.0
 30
0.0
 70
   128
 71
     5
 72
     1
 73
     2
  0
VERTEX
  5
1567
  8
0
 10
0.0
 20
0.0
 30
0.0
 70
   128
 71
     2
 72
     3
 73
     5
  0
VERTEX
  5
1568
  8
0
 10
0.0
 20
0.0
 30
0.0
 70
   128
 71
     3
 72
     4
 73
     5
  0
VERTEX
  5
1569
  8
0
 10
0.0
 20
0.0
 30
0.0
 70
   128
 71
     5
 72
    12
 73
     1
  0
SEQEND
  5
18DE
  8
0
  0
POLYLINE
  5
156A
  8
0
 66
     1
 10
0.0
 20
0.0
 30
0.0
 70
    64
 71
     8
 72
     6
  0
VERTEX
  5
156B
  8
0
 10
203.0913565876307
 20
87.90997002848138
 30
22.89843247624433
 70
   192
  0
VERTEX
  5
156C
  8
0
 10
204.2229796109385
 20
109.5026236151949
 30
21.006727556117
 70
   192
  0
VERTEX
  5
156D
  8
0
 10
204.7591920795233
 20
109.5346662907202
 30
21.6932388368279
 70
   192
  0
VERTEX
  5
156E
  8
0
 10
203.6275690562157
 20
87.94201270400664
 30
23.58494375695528
 70
   192
  0
VERTEX
  5
156F
  8
0
 10
202.31437397452
 20
87.91607519681008
 30
22.50332612485567
 70
   192
  0
VERTEX
  5
1570
  8
0
 10
203.4459969978279
 20
109.5087287835236
 30
20.61162120472821
 70
   192
  0
VERTEX
  5
1571
  8
0
 10
204.9527743726796
 20
109.5987699171037
 30
22.54074394237289
 70
   192
  0
VERTEX
  5
1572
  8
0
 10
203.8211513493723
 20
88.0061163303902
 30
24.43244886250044
 70
   192
  0
VERTEX
  5
1573
  8
0
 10
0.0
 20
0.0
 30
0.0
 70
   128
 71
     1
 72
     2
 73
    -3
  0
VERTEX
  5
1574
  8
0
 10
0.0
 20
0.0
 30
0.0
 70
   128
 71
    -1
 72
     3
 73
     4
  0
VERTEX
  5
1575
  8
0
 10
0.0
 20
0.0
 30
0.0
 70
   128
 71
     5
 72
     6
 73
    -2
  0
VERTEX
  5
1576
  8
0
 10
0.0
 20
0.0
 30
0.0
 70
   128
 71
    -5
 72
     2
 73
     1
  0
VERTEX
  5
1577
  8
0
 10
0.0
 20
0.0
 30
0.0
 70
   128
 71
     4
 72
     3
 73
    -7
  0
VERTEX
  5
1578
  8
0
 10
0.0
 20
0.0
 30
0.0
 70
   128
 71
    -4
 72
     7
 73
     8
  0
SEQEND
  5
18DF
  8
0
  0
POLYLINE
  5
1579
  8
0
 66
     1
 10
0.0
 20
0.0
 30
0.0
 70
    64
 71
    19
 72
    20
  0
VERTEX
  5
157A
  8
0
 10
203.2894462442069
 20
77.86057854116774
 30
29.44254057445094
 70
   192
  0
VERTEX
  5
157B
  8
0
 10
203.0745772373373
 20
73.76063365113238
 30
40.0
 70
   192
  0
VERTEX
  5
157C
  8
0
 10
202.9332428664173
 20
73.11995764944275
 30
39.99999999999999
 70
   192
  0
VERTEX
  5
157D
  8
0
 10
203.8211513493721
 20
88.0061163303902
 30
24.4324488625004
 70
   192
  0
VERTEX
  5
157E
  8
0
 10
203.6275690562157
 20
87.94201270400663
 30
56.41505624304471
 70
   192
  0
VERTEX
  5
157F
  8
0
 10
202.5921919080993
 20
72.55948874988212
 30
39.99999999999999
 70
   192
  0
VERTEX
  5
1580
  8
0
 10
203.0913565876307
 20
87.90997002848138
 30
22.89843247624433
 70
   192
  0
VERTEX
  5
1581
  8
0
 10
202.0881249535094
 20
72.1395391709625
 30
39.99999999999999
 70
   192
  0
VERTEX
  5
1582
  8
0
 10
201.5854040327517
 20
74.0065000966793
 30
48.33564754601075
 70
   192
  0
VERTEX
  5
1583
  8
0
 10
201.475284791737
 20
71.90529980692907
 30
40.00000000000001
 70
   192
  0
VERTEX
  5
1584
  8
0
 10
201.88937749204
 20
79.80665922280197
 30
54.67409713277147
 70
   192
  0
VERTEX
  5
1585
  8
0
 10
201.5854040327517
 20
74.0065000966793
 30
31.66435245398926
 70
   192
  0
VERTEX
  5
1586
  8
0
 10
203.6275690562157
 20
87.94201270400664
 30
23.58494375695528
 70
   192
  0
VERTEX
  5
1587
  8
0
 10
203.0913565876307
 20
87.90997002848138
 30
57.10156752375564
 70
   192
  0
VERTEX
  5
1588
  8
0
 10
201.88937749204
 20
79.80665922280197
 30
25.32590286722854
 70
   192
  0
VERTEX
  5
1589
  8
0
 10
202.3143739745202
 20
87.9160751968101
 30
22.50332612485569
 70
   192
  0
VERTEX
  5
158A
  8
0
 10
202.31437397452
 20
87.91607519681008
 30
57.49667387514428
 70
   192
  0
VERTEX
  5
158B
  8
0
 10
203.2894462442069
 20
77.86057854116773
 30
50.55745942554906
 70
   192
  0
VERTEX
  5
158C
  8
0
 10
203.8211513493723
 20
88.0061163303902
 30
55.56755113749954
 70
   192
  0
VERTEX
  5
158D
  8
0
 10
0.0
 20
0.0
 30
0.0
 70
   128
 71
     1
 72
     2
 73
     3
  0
VERTEX
  5
158E
  8
0
 10
0.0
 20
0.0
 30
0.0
 70
   128
 71
     3
 72
     4
 73
     1
  0
VERTEX
  5
158F
  8
0
 10
0.0
 20
0.0
 30
0.0
 70
   128
 71
     5
 72
     6
 73
     3
  0
VERTEX
  5
1590
  8
0
 10
0.0
 20
0.0
 30
0.0
 70
   128
 71
     7
 72
     6
 73
     8
  0
VERTEX
  5
1591
  8
0
 10
0.0
 20
0.0
 30
0.0
 70
   128
 71
     9
 72
    10
 73
     8
  0
VERTEX
  5
1592
  8
0
 10
0.0
 20
0.0
 30
0.0
 70
   128
 71
     8
 72
    11
 73
     9
  0
VERTEX
  5
1593
  8
0
 10
0.0
 20
0.0
 30
0.0
 70
   128
 71
     8
 72
    10
 73
    12
  0
VERTEX
  5
1594
  8
0
 10
0.0
 20
0.0
 30
0.0
 70
   128
 71
     3
 72
     6
 73
     7
  0
VERTEX
  5
1595
  8
0
 10
0.0
 20
0.0
 30
0.0
 70
   128
 71
     3
 72
     7
 73
    13
  0
VERTEX
  5
1596
  8
0
 10
0.0
 20
0.0
 30
0.0
 70
   128
 71
    14
 72
     8
 73
     6
  0
VERTEX
  5
1597
  8
0
 10
0.0
 20
0.0
 30
0.0
 70
   128
 71
    14
 72
     6
 73
     5
  0
VERTEX
  5
1598
  8
0
 10
0.0
 20
0.0
 30
0.0
 70
   128
 71
    15
 72
    16
 73
     7
  0
VERTEX
  5
1599
  8
0
 10
0.0
 20
0.0
 30
0.0
 70
   128
 71
     7
 72
     8
 73
    12
  0
VERTEX
  5
159A
  8
0
 10
0.0
 20
0.0
 30
0.0
 70
   128
 71
     7
 72
    12
 73
    15
  0
VERTEX
  5
159B
  8
0
 10
0.0
 20
0.0
 30
0.0
 70
   128
 71
    17
 72
    11
 73
     8
  0
VERTEX
  5
159C
  8
0
 10
0.0
 20
0.0
 30
0.0
 70
   128
 71
    17
 72
     8
 73
    14
  0
VERTEX
  5
159D
  8
0
 10
0.0
 20
0.0
 30
0.0
 70
   128
 71
     4
 72
     3
 73
    13
  0
VERTEX
  5
159E
  8
0
 10
0.0
 20
0.0
 30
0.0
 70
   128
 71
    18
 72
    19
 73
     5
  0
VERTEX
  5
159F
  8
0
 10
0.0
 20
0.0
 30
0.0
 70
   128
 71
    18
 72
     5
 73
     3
  0
VERTEX
  5
15A0
  8
0
 10
0.0
 20
0.0
 30
0.0
 70
   128
 71
     3
 72
     2
 73
    18
  0
SEQEND
  5
18E0
  8
0
  0
POLYLINE
  5
15A1
  8
0
 66
     1
 10
0.0
 20
0.0
 30
0.0
 70
    64
 71
     8
 72
     6
  0
VERTEX
  5
15A2
  8
0
 10
204.2229796109385
 20
109.5026236151949
 30
58.993272443883
 70
   192
  0
VERTEX
  5
15A3
  8
0
 10
203.0913565876307
 20
87.90997002848138
 30
57.10156752375564
 70
   192
  0
VERTEX
  5
15A4
  8
0
 10
203.6275690562157
 20
87.94201270400663
 30
56.41505624304471
 70
   192
  0
VERTEX
  5
15A5
  8
0
 10
204.7591920795233
 20
109.5346662907201
 30
58.3067611631721
 70
   192
  0
VERTEX
  5
15A6
  8
0
 10
203.445996997828
 20
109.5087287835236
 30
59.38837879527176
 70
   192
  0
VERTEX
  5
15A7
  8
0
 10
202.3143739745201
 20
87.91607519681011
 30
57.49667387514429
 70
   192
  0
VERTEX
  5
15A8
  8
0
 10
203.8211513493721
 20
88.0061163303902
 30
55.5675511374996
 70
   192
  0
VERTEX
  5
15A9
  8
0
 10
204.9527743726798
 20
109.5987699171036
 30
57.45925605762709
 70
   192
  0
VERTEX
  5
15AA
  8
0
 10
0.0
 20
0.0
 30
0.0
 70
   128
 71
     1
 72
     2
 73
    -3
  0
VERTEX
  5
15AB
  8
0
 10
0.0
 20
0.0
 30
0.0
 70
   128
 71
    -1
 72
     3
 73
     4
  0
VERTEX
  5
15AC
  8
0
 10
0.0
 20
0.0
 30
0.0
 70
   128
 71
     5
 72
     6
 73
    -2
  0
VERTEX
  5
15AD
  8
0
 10
0.0
 20
0.0
 30
0.0
 70
   128
 71
    -5
 72
     2
 73
     1
  0
VERTEX
  5
15AE
  8
0
 10
0.0
 20
0.0
 30
0.0
 70
   128
 71
     4
 72
     3
 73
    -7
  0
VERTEX
  5
15AF
  8
0
 10
0.0
 20
0.0
 30
0.0
 70
   128
 71
    -4
 72
     7
 73
     8
  0
SEQEND
  5
18E1
  8
0
  0
POLYLINE
  5
15B0
  8
0
 66
     1
 10
0.0
 20
0.0
 30
0.0
 70
    64
 71
    12
 72
    10
  0
VERTEX
  5
15B1
  8
0
 10
204.9527743726795
 20
109.5987699171036
 30
57.4592560576271
 70
   192
  0
VERTEX
  5
15B2
  8
0
 10
205.0401996316579
 20
111.2669432336268
 30
57.66214240131854
 70
   192
  0
VERTEX
  5
15B3
  8
0
 10
205.125967407953
 20
112.9034898965145
 30
58.02803695029679
 70
   192
  0
VERTEX
  5
15B4
  8
0
 10
205.207053833066
 20
114.450711057616
 30
58.690424595347
 70
   192
  0
VERTEX
  5
15B5
  8
0
 10
205.1072072555643
 20
114.7595284092465
 30
59.73399198176273
 70
   192
  0
VERTEX
  5
15B6
  8
0
 10
204.8515390457655
 20
114.949527587981
 30
60.70937116943156
 70
   192
  0
VERTEX
  5
15B7
  8
0
 10
204.6349332949855
 20
114.9983944342234
 30
61.6923779502441
 70
   192
  0
VERTEX
  5
15B8
  8
0
 10
204.2322778476769
 20
113.7026195959179
 30
60.18607902040697
 70
   192
  0
VERTEX
  5
15B9
  8
0
 10
203.7199818185214
 20
111.6558219018913
 30
59.6398274511453
 70
   192
  0
VERTEX
  5
15BA
  8
0
 10
203.445996997828
 20
109.5087287835236
 30
59.3883787952718
 70
   192
  0
VERTEX
  5
15BB
  8
0
 10
204.2229796109385
 20
109.5026236151949
 30
58.993272443883
 70
   192
  0
VERTEX
  5
15BC
  8
0
 10
204.7591920795233
 20
109.5346662907201
 30
58.3067611631721
 70
   192
  0
VERTEX
  5
15BD
  8
0
 10
0.0
 20
0.0
 30
0.0
 70
   128
 71
     6
 72
     7
 73
     8
  0
VERTEX
  5
15BE
  8
0
 10
0.0
 20
0.0
 30
0.0
 70
   128
 71
     8
 72
     9
 73
     6
  0
VERTEX
  5
15BF
  8
0
 10
0.0
 20
0.0
 30
0.0
 70
   128
 71
    10
 72
    11
 73
     6
  0
VERTEX
  5
15C0
  8
0
 10
0.0
 20
0.0
 30
0.0
 70
   128
 71
     9
 72
    10
 73
     6
  0
VERTEX
  5
15C1
  8
0
 10
0.0
 20
0.0
 30
0.0
 70
   128
 71
    12
 72
     5
 73
     6
  0
VERTEX
  5
15C2
  8
0
 10
0.0
 20
0.0
 30
0.0
 70
   128
 71
    11
 72
    12
 73
     6
  0
VERTEX
  5
15C3
  8
0
 10
0.0
 20
0.0
 30
0.0
 70
   128
 71
    12
 72
     1
 73
     2
  0
VERTEX
  5
15C4
  8
0
 10
0.0
 20
0.0
 30
0.0
 70
   128
 71
     2
 72
     3
 73
    12
  0
VERTEX
  5
15C5
  8
0
 10
0.0
 20
0.0
 30
0.0
 70
   128
 71
     4
 72
     5
 73
    12
  0
VERTEX
  5
15C6
  8
0
 10
0.0
 20
0.0
 30
0.0
 70
   128
 71
     3
 72
     4
 73
    12
  0
SEQEND
  5
18E2
  8
0
  0
POLYLINE
  5
15C7
  8
0
 66
     1
 10
0.0
 20
0.0
 30
0.0
 70
    64
 71
    10
 72
     7
  0
VERTEX
  5
15C8
  8
0
 10
206.296331903096
 20
116.128052193507
 30
58.690424595347
 70
   192
  0
VERTEX
  5
15C9
  8
0
 10
205.7418154670336
 20
115.7098107125412
 30
58.690424595347
 70
   192
  0
VERTEX
  5
15CA
  8
0
 10
205.3635942844653
 20
115.1274011649317
 30
58.690424595347
 70
   192
  0
VERTEX
  5
15CB
  8
0
 10
205.207053833066
 20
114.450711057616
 30
58.690424595347
 70
   192
  0
VERTEX
  5
15CC
  8
0
 10
205.1072072555643
 20
114.7595284092465
 30
59.73399198176273
 70
   192
  0
VERTEX
  5
15CD
  8
0
 10
204.8515390457655
 20
114.949527587981
 30
60.70937116943156
 70
   192
  0
VERTEX
  5
15CE
  8
0
 10
204.6349332949855
 20
114.9983944342234
 30
61.6923779502441
 70
   192
  0
VERTEX
  5
15CF
  8
0
 10
204.6349332949855
 20
114.9983944342234
 30
61.6923779502441
 70
   192
  0
VERTEX
  5
15D0
  8
0
 10
205.5000082245049
 20
115.6626307942932
 30
61.04220437321915
 70
   192
  0
VERTEX
  5
15D1
  8
0
 10
206.0866631258351
 20
116.0173290605546
 30
59.95544421382385
 70
   192
  0
VERTEX
  5
15D2
  8
0
 10
0.0
 20
0.0
 30
0.0
 70
   128
 71
     9
 72
     7
 73
     6
  0
VERTEX
  5
15D3
  8
0
 10
0.0
 20
0.0
 30
0.0
 70
   128
 71
     6
 72
     5
 73
    10
  0
VERTEX
  5
15D4
  8
0
 10
0.0
 20
0.0
 30
0.0
 70
   128
 71
     6
 72
    10
 73
     9
  0
VERTEX
  5
15D5
  8
0
 10
0.0
 20
0.0
 30
0.0
 70
   128
 71
     2
 72
     1
 73
    10
  0
VERTEX
  5
15D6
  8
0
 10
0.0
 20
0.0
 30
0.0
 70
   128
 71
    10
 72
     3
 73
     2
  0
VERTEX
  5
15D7
  8
0
 10
0.0
 20
0.0
 30
0.0
 70
   128
 71
    10
 72
     5
 73
     3
  0
VERTEX
  5
15D8
  8
0
 10
0.0
 20
0.0
 30
0.0
 70
   128
 71
     5
 72
     4
 73
     3
  0
SEQEND
  5
18E3
  8
0
  0
POLYLINE
  5
15D9
  8
0
 66
     1
 10
0.0
 20
0.0
 30
0.0
 70
    64
 71
     8
 72
     6
  0
VERTEX
  5
15DA
  8
0
 10
205.7418154705001
 20
115.7098107162714
 30
21.30957534775922
 70
   192
  0
VERTEX
  5
15DB
  8
0
 10
206.296331903096
 20
116.128052193507
 30
21.3095754046532
 70
   192
  0
VERTEX
  5
15DC
  8
0
 10
206.296331903096
 20
116.128052193507
 30
58.690424595347
 70
   192
  0
VERTEX
  5
15DD
  8
0
 10
205.7418154670336
 20
115.7098107125412
 30
58.690424595347
 70
   192
  0
VERTEX
  5
15DE
  8
0
 10
205.363594288406
 20
115.1274011737423
 30
21.30957535575259
 70
   192
  0
VERTEX
  5
15DF
  8
0
 10
205.3635942844653
 20
115.1274011649317
 30
58.690424595347
 70
   192
  0
VERTEX
  5
15E0
  8
0
 10
205.207053833066
 20
114.450711057616
 30
21.30957540465324
 70
   192
  0
VERTEX
  5
15E1
  8
0
 10
205.207053833066
 20
114.450711057616
 30
58.690424595347
 70
   192
  0
VERTEX
  5
15E2
  8
0
 10
0.0
 20
0.0
 30
0.0
 70
   128
 71
     1
 72
     2
 73
    -3
  0
VERTEX
  5
15E3
  8
0
 10
0.0
 20
0.0
 30
0.0
 70
   128
 71
     4
 72
    -1
 73
     3
  0
VERTEX
  5
15E4
  8
0
 10
0.0
 20
0.0
 30
0.0
 70
   128
 71
     5
 72
     1
 73
    -4
  0
VERTEX
  5
15E5
  8
0
 10
0.0
 20
0.0
 30
0.0
 70
   128
 71
     6
 72
    -5
 73
     4
  0
VERTEX
  5
15E6
  8
0
 10
0.0
 20
0.0
 30
0.0
 70
   128
 71
     7
 72
     5
 73
    -6
  0
VERTEX
  5
15E7
  8
0
 10
0.0
 20
0.0
 30
0.0
 70
   128
 71
     8
 72
    -7
 73
     6
  0
SEQEND
  5
18E4
  8
0
  0
POLYLINE
  5
15E8
  8
0
 66
     1
 10
0.0
 20
0.0
 30
0.0
 70
    64
 71
    10
 72
     7
  0
VERTEX
  5
15E9
  8
0
 10
206.296331903096
 20
116.128052193507
 30
21.3095754046532
 70
   192
  0
VERTEX
  5
15EA
  8
0
 10
206.0879494877359
 20
116.0179835870591
 30
20.04831837233224
 70
   192
  0
VERTEX
  5
15EB
  8
0
 10
205.4998102432267
 20
115.662497306682
 30
18.95755618624831
 70
   192
  0
VERTEX
  5
15EC
  8
0
 10
204.6349332949855
 20
114.9983944342234
 30
18.30762204975585
 70
   192
  0
VERTEX
  5
15ED
  8
0
 10
204.6349332949855
 20
114.9983944342234
 30
18.30762204975585
 70
   192
  0
VERTEX
  5
15EE
  8
0
 10
204.8518929707883
 20
114.9493241023498
 30
19.29184820208492
 70
   192
  0
VERTEX
  5
15EF
  8
0
 10
205.1081696524468
 20
114.759292357894
 30
20.2699166065709
 70
   192
  0
VERTEX
  5
15F0
  8
0
 10
205.207053833066
 20
114.450711057616
 30
21.30957540465325
 70
   192
  0
VERTEX
  5
15F1
  8
0
 10
205.363594288406
 20
115.1274011737423
 30
21.30957535575259
 70
   192
  0
VERTEX
  5
15F2
  8
0
 10
205.7418154705001
 20
115.7098107162714
 30
21.30957534775922
 70
   192
  0
VERTEX
  5
15F3
  8
0
 10
0.0
 20
0.0
 30
0.0
 70
   128
 71
     6
 72
     5
 73
     9
  0
VERTEX
  5
15F4
  8
0
 10
0.0
 20
0.0
 30
0.0
 70
   128
 71
     9
 72
     7
 73
     6
  0
VERTEX
  5
15F5
  8
0
 10
0.0
 20
0.0
 30
0.0
 70
   128
 71
     9
 72
     8
 73
     7
  0
VERTEX
  5
15F6
  8
0
 10
0.0
 20
0.0
 30
0.0
 70
   128
 71
     5
 72
    10
 73
     9
  0
VERTEX
  5
15F7
  8
0
 10
0.0
 20
0.0
 30
0.0
 70
   128
 71
     2
 72
     1
 73
    10
  0
VERTEX
  5
15F8
  8
0
 10
0.0
 20
0.0
 30
0.0
 70
   128
 71
    10
 72
     3
 73
     2
  0
VERTEX
  5
15F9
  8
0
 10
0.0
 20
0.0
 30
0.0
 70
   128
 71
    10
 72
     4
 73
     3
  0
SEQEND
  5
18E5
  8
0
  0
POLYLINE
  5
15FA
  8
0
 66
     1
 10
0.0
 20
0.0
 30
0.0
 70
    64
 71
     8
 72
     6
  0
VERTEX
  5
15FB
  8
0
 10
289.0
 20
127.0476808611009
 30
123.0380364208291
 70
   192
  0
VERTEX
  5
15FC
  8
0
 10
288.0
 20
127.0523572193118
 30
123.3059448033004
 70
   192
  0
VERTEX
  5
15FD
  8
0
 10
288.0
 20
30.0
 30
125.0000000000001
 70
   192
  0
VERTEX
  5
15FE
  8
0
 10
290.0
 20
30.0
 30
122.9996953439122
 70
   192
  0
VERTEX
  5
15FF
  8
0
 10
290.0
 20
127.0174524064372
 30
121.3062494129875
 70
   192
  0
VERTEX
  5
1600
  8
0
 10
289.7320508075689
 20
127.0349048128745
 30
122.306097108144
 70
   192
  0
VERTEX
  5
1601
  8
0
 10
289.7445208382055
 20
29.99999999999996
 30
123.9779276862578
 70
   192
  0
VERTEX
  5
1602
  8
0
 10
288.9780833528217
 20
29.99999999999996
 30
124.7444819215644
 70
   192
  0
VERTEX
  5
1603
  8
0
 10
0.0
 20
0.0
 30
0.0
 70
   128
 71
     1
 72
     2
 73
     3
  0
VERTEX
  5
1604
  8
0
 10
0.0
 20
0.0
 30
0.0
 70
   128
 71
     4
 72
     5
 73
     6
  0
VERTEX
  5
1605
  8
0
 10
0.0
 20
0.0
 30
0.0
 70
   128
 71
     4
 72
     6
 73
     7
  0
VERTEX
  5
1606
  8
0
 10
0.0
 20
0.0
 30
0.0
 70
   128
 71
     7
 72
     6
 73
     1
  0
VERTEX
  5
1607
  8
0
 10
0.0
 20
0.0
 30
0.0
 70
   128
 71
     7
 72
     1
 73
     8
  0
VERTEX
  5
1608
  8
0
 10
0.0
 20
0.0
 30
0.0
 70
   128
 71
     8
 72
     1
 73
     3
  0
SEQEND
  5
18E6
  8
0
  0
POLYLINE
  5
1609
  8
0
 66
     1
 10
0.0
 20
0.0
 30
0.0
 70
    64
 71
    12
 72
    10
  0
VERTEX
  5
160A
  8
0
 10
288.0
 20
128.530127769297
 30
122.8868491615173
 70
   192
  0
VERTEX
  5
160B
  8
0
 10
290.0
 20
127.5100425897656
 30
121.1665508657266
 70
   192
  0
VERTEX
  5
160C
  8
0
 10
290.0
 20
127.8689196135908
 30
120.8013549531143
 70
   192
  0
VERTEX
  5
160D
  8
0
 10
288.0
 20
129.6067588407725
 30
121.7912614236804
 70
   192
  0
VERTEX
  5
160E
  8
0
 10
289.7320508075689
 20
127.0349048128745
 30
122.306097108144
 70
   192
  0
VERTEX
  5
160F
  8
0
 10
290.0
 20
127.0174524064372
 30
121.3062494129876
 70
   192
  0
VERTEX
  5
1610
  8
0
 10
289.0
 20
127.0476808611009
 30
123.0380364208291
 70
   192
  0
VERTEX
  5
1611
  8
0
 10
288.0
 20
127.0523572193118
 30
123.3059448033004
 70
   192
  0
VERTEX
  5
1612
  8
0
 10
289.0
 20
129.7320508075689
 30
120.3064017178312
 70
   192
  0
VERTEX
  5
1613
  8
0
 10
288.0
 20
130.0
 30
120.3064017178312
 70
   192
  0
VERTEX
  5
1614
  8
0
 10
289.7320508075689
 20
129.0
 30
120.3064017178312
 70
   192
  0
VERTEX
  5
1615
  8
0
 10
290.0
 20
128.0
 30
120.3064017178312
 70
   192
  0
VERTEX
  5
1616
  8
0
 10
0.0
 20
0.0
 30
0.0
 70
   128
 71
     1
 72
     2
 73
    -3
  0
VERTEX
  5
1617
  8
0
 10
0.0
 20
0.0
 30
0.0
 70
   128
 71
    -1
 72
     3
 73
     4
  0
VERTEX
  5
1618
  8
0
 10
0.0
 20
0.0
 30
0.0
 70
   128
 71
     5
 72
     6
 73
     2
  0
VERTEX
  5
1619
  8
0
 10
0.0
 20
0.0
 30
0.0
 70
   128
 71
     2
 72
     1
 73
     7
  0
VERTEX
  5
161A
  8
0
 10
0.0
 20
0.0
 30
0.0
 70
   128
 71
     2
 72
     7
 73
     5
  0
VERTEX
  5
161B
  8
0
 10
0.0
 20
0.0
 30
0.0
 70
   128
 71
     1
 72
     8
 73
     7
  0
VERTEX
  5
161C
  8
0
 10
0.0
 20
0.0
 30
0.0
 70
   128
 71
     9
 72
    10
 73
     4
  0
VERTEX
  5
161D
  8
0
 10
0.0
 20
0.0
 30
0.0
 70
   128
 71
     4
 72
    11
 73
     9
  0
VERTEX
  5
161E
  8
0
 10
0.0
 20
0.0
 30
0.0
 70
   128
 71
     4
 72
     3
 73
    12
  0
VERTEX
  5
161F
  8
0
 10
0.0
 20
0.0
 30
0.0
 70
   128
 71
     4
 72
    12
 73
    11
  0
SEQEND
  5
18E7
  8
0
  0
POLYLINE
  5
1620
  8
0
 66
     1
 10
0.0
 20
0.0
 30
0.0
 70
    64
 71
     8
 72
     6
  0
VERTEX
  5
1621
  8
0
 10
289.0
 20
129.7320508075689
 30
-120.306401717831
 70
   192
  0
VERTEX
  5
1622
  8
0
 10
289.0
 20
129.7320508075689
 30
120.3064017178312
 70
   192
  0
VERTEX
  5
1623
  8
0
 10
289.7320508075689
 20
129.0
 30
120.3064017178312
 70
   192
  0
VERTEX
  5
1624
  8
0
 10
289.7320508075689
 20
129.0
 30
-120.306401717831
 70
   192
  0
VERTEX
  5
1625
  8
0
 10
288.0
 20
130.0
 30
-120.306401717831
 70
   192
  0
VERTEX
  5
1626
  8
0
 10
288.0
 20
130.0
 30
120.3064017178312
 70
   192
  0
VERTEX
  5
1627
  8
0
 10
290.0
 20
128.0
 30
120.3064017178312
 70
   192
  0
VERTEX
  5
1628
  8
0
 10
290.0
 20
128.0
 30
-120.306401717831
 70
   192
  0
VERTEX
  5
1629
  8
0
 10
0.0
 20
0.0
 30
0.0
 70
   128
 71
     1
 72
     2
 73
    -3
  0
VERTEX
  5
162A
  8
0
 10
0.0
 20
0.0
 30
0.0
 70
   128
 71
    -1
 72
     3
 73
     4
  0
VERTEX
  5
162B
  8
0
 10
0.0
 20
0.0
 30
0.0
 70
   128
 71
     5
 72
     6
 73
    -2
  0
VERTEX
  5
162C
  8
0
 10
0.0
 20
0.0
 30
0.0
 70
   128
 71
    -5
 72
     2
 73
     1
  0
VERTEX
  5
162D
  8
0
 10
0.0
 20
0.0
 30
0.0
 70
   128
 71
     4
 72
     3
 73
    -7
  0
VERTEX
  5
162E
  8
0
 10
0.0
 20
0.0
 30
0.0
 70
   128
 71
    -4
 72
     7
 73
     8
  0
SEQEND
  5
18E8
  8
0
  0
POLYLINE
  5
162F
  8
0
 66
     1
 10
0.0
 20
0.0
 30
0.0
 70
    64
 71
    12
 72
    10
  0
VERTEX
  5
1630
  8
0
 10
288.0
 20
129.6067588407725
 30
-121.7912614236802
 70
   192
  0
VERTEX
  5
1631
  8
0
 10
290.0
 20
127.8689196135908
 30
-120.8013549531141
 70
   192
  0
VERTEX
  5
1632
  8
0
 10
290.0
 20
127.5100425897656
 30
-121.1665508657264
 70
   192
  0
VERTEX
  5
1633
  8
0
 10
288.0
 20
128.530127769297
 30
-122.8868491615171
 70
   192
  0
VERTEX
  5
1634
  8
0
 10
289.7320508075689
 20
129.0
 30
-120.306401717831
 70
   192
  0
VERTEX
  5
1635
  8
0
 10
290.0
 20
128.0
 30
-120.306401717831
 70
   192
  0
VERTEX
  5
1636
  8
0
 10
289.0
 20
129.7320508075689
 30
-120.306401717831
 70
   192
  0
VERTEX
  5
1637
  8
0
 10
288.0
 20
130.0
 30
-120.306401717831
 70
   192
  0
VERTEX
  5
1638
  8
0
 10
289.0000000000001
 20
127.0476808611009
 30
-123.0380364208291
 70
   192
  0
VERTEX
  5
1639
  8
0
 10
288.0
 20
127.0523572193118
 30
-123.3059448033004
 70
   192
  0
VERTEX
  5
163A
  8
0
 10
289.732050807569
 20
127.0349048128745
 30
-122.3060971081439
 70
   192
  0
VERTEX
  5
163B
  8
0
 10
290.0
 20
127.0174524064372
 30
-121.3062494129874
 70
   192
  0
VERTEX
  5
163C
  8
0
 10
0.0
 20
0.0
 30
0.0
 70
   128
 71
     1
 72
     2
 73
    -3
  0
VERTEX
  5
163D
  8
0
 10
0.0
 20
0.0
 30
0.0
 70
   128
 71
    -1
 72
     3
 73
     4
  0
VERTEX
  5
163E
  8
0
 10
0.0
 20
0.0
 30
0.0
 70
   128
 71
     5
 72
     6
 73
     2
  0
VERTEX
  5
163F
  8
0
 10
0.0
 20
0.0
 30
0.0
 70
   128
 71
     2
 72
     1
 73
     7
  0
VERTEX
  5
1640
  8
0
 10
0.0
 20
0.0
 30
0.0
 70
   128
 71
     2
 72
     7
 73
     5
  0
VERTEX
  5
1641
  8
0
 10
0.0
 20
0.0
 30
0.0
 70
   128
 71
     1
 72
     8
 73
     7
  0
VERTEX
  5
1642
  8
0
 10
0.0
 20
0.0
 30
0.0
 70
   128
 71
     9
 72
    10
 73
     4
  0
VERTEX
  5
1643
  8
0
 10
0.0
 20
0.0
 30
0.0
 70
   128
 71
     4
 72
    11
 73
     9
  0
VERTEX
  5
1644
  8
0
 10
0.0
 20
0.0
 30
0.0
 70
   128
 71
     4
 72
     3
 73
    12
  0
VERTEX
  5
1645
  8
0
 10
0.0
 20
0.0
 30
0.0
 70
   128
 71
     4
 72
    12
 73
    11
  0
SEQEND
  5
18E9
  8
0
  0
POLYLINE
  5
1646
  8
0
 66
     1
 10
0.0
 20
0.0
 30
0.0
 70
    64
 71
     8
 72
     6
  0
VERTEX
  5
1647
  8
0
 10
289.0000000000001
 20
127.0476808611009
 30
-123.0380364208291
 70
   192
  0
VERTEX
  5
1648
  8
0
 10
289.732050807569
 20
127.0349048128745
 30
-122.3060971081439
 70
   192
  0
VERTEX
  5
1649
  8
0
 10
289.7445208382055
 20
29.99999999999995
 30
-123.9779276862578
 70
   192
  0
VERTEX
  5
164A
  8
0
 10
290.0
 20
127.0174524064372
 30
-121.3062494129874
 70
   192
  0
VERTEX
  5
164B
  8
0
 10
290.0
 20
29.99999999999999
 30
-122.9996953439122
 70
   192
  0
VERTEX
  5
164C
  8
0
 10
288.0
 20
30.0
 30
-125.0
 70
   192
  0
VERTEX
  5
164D
  8
0
 10
288.0
 20
127.0523572193118
 30
-123.3059448033003
 70
   192
  0
VERTEX
  5
164E
  8
0
 10
288.9780833528216
 20
29.99999999999995
 30
-124.7444819215644
 70
   192
  0
VERTEX
  5
164F
  8
0
 10
0.0
 20
0.0
 30
0.0
 70
   128
 71
     1
 72
     2
 73
     3
  0
VERTEX
  5
1650
  8
0
 10
0.0
 20
0.0
 30
0.0
 70
   128
 71
     2
 72
     4
 73
     5
  0
VERTEX
  5
1651
  8
0
 10
0.0
 20
0.0
 30
0.0
 70
   128
 71
     6
 72
     7
 73
     8
  0
VERTEX
  5
1652
  8
0
 10
0.0
 20
0.0
 30
0.0
 70
   128
 71
     8
 72
     7
 73
     1
  0
VERTEX
  5
1653
  8
0
 10
0.0
 20
0.0
 30
0.0
 70
   128
 71
     8
 72
     1
 73
     3
  0
VERTEX
  5
1654
  8
0
 10
0.0
 20
0.0
 30
0.0
 70
   128
 71
     3
 72
     2
 73
     5
  0
SEQEND
  5
18EA
  8
0
  0
POLYLINE
  5
1655
  8
0
 66
     1
 10
0.0
 20
0.0
 30
0.0
 70
    64
 71
     8
 72
     6
  0
VERTEX
  5
1656
  8
0
 10
-194.8728183526192
 20
90.47687354742206
 30
106.9451698899701
 70
   192
  0
VERTEX
  5
1657
  8
0
 10
-191.9451698899699
 20
90.47687354742206
 30
109.8728183526194
 70
   192
  0
VERTEX
  5
1658
  8
0
 10
-192.9131808381877
 20
29.99999999999994
 30
110.978295209547
 70
   192
  0
VERTEX
  5
1659
  8
0
 10
-195.978295209547
 20
29.99999999999994
 30
107.9131808381876
 70
   192
  0
VERTEX
  5
165A
  8
0
 10
-196.9999999999998
 20
29.99999999999999
 30
104.0012184387488
 70
   192
  0
VERTEX
  5
165B
  8
0
 10
-195.9452638109691
 20
90.4257958001414
 30
102.9464822497181
 70
   192
  0
VERTEX
  5
165C
  8
0
 10
-187.946482249718
 20
90.42579580014127
 30
110.9452638109693
 70
   192
  0
VERTEX
  5
165D
  8
0
 10
-189.0012184387489
 20
30.0
 30
112.0
 70
   192
  0
VERTEX
  5
165E
  8
0
 10
0.0
 20
0.0
 30
0.0
 70
   128
 71
     1
 72
     2
 73
    -3
  0
VERTEX
  5
165F
  8
0
 10
0.0
 20
0.0
 30
0.0
 70
   128
 71
     4
 72
    -1
 73
     3
  0
VERTEX
  5
1660
  8
0
 10
0.0
 20
0.0
 30
0.0
 70
   128
 71
     5
 72
     6
 73
     1
  0
VERTEX
  5
1661
  8
0
 10
0.0
 20
0.0
 30
0.0
 70
   128
 71
     2
 72
     7
 73
     8
  0
VERTEX
  5
1662
  8
0
 10
0.0
 20
0.0
 30
0.0
 70
   128
 71
     3
 72
     2
 73
     8
  0
VERTEX
  5
1663
  8
0
 10
0.0
 20
0.0
 30
0.0
 70
   128
 71
     5
 72
     1
 73
     4
  0
SEQEND
  5
18EB
  8
0
  0
POLYLINE
  5
1664
  8
0
 66
     1
 10
0.0
 20
0.0
 30
0.0
 70
    64
 71
     8
 72
     6
  0
VERTEX
  5
1665
  8
0
 10
-191.9451698899699
 20
90.47687354742206
 30
-109.8728183526194
 70
   192
  0
VERTEX
  5
1666
  8
0
 10
-194.8728183526192
 20
90.47687354742206
 30
-106.9451698899701
 70
   192
  0
VERTEX
  5
1667
  8
0
 10
-195.9782952095468
 20
29.99999999999997
 30
-107.9131808381875
 70
   192
  0
VERTEX
  5
1668
  8
0
 10
-192.9131808381874
 20
29.99999999999996
 30
-110.9782952095469
 70
   192
  0
VERTEX
  5
1669
  8
0
 10
-189.0012184387488
 20
30.0
 30
-112.0
 70
   192
  0
VERTEX
  5
166A
  8
0
 10
-187.9464822497181
 20
90.4257958001413
 30
-110.9452638109693
 70
   192
  0
VERTEX
  5
166B
  8
0
 10
-195.9452638109691
 20
90.42579580014127
 30
-102.9464822497182
 70
   192
  0
VERTEX
  5
166C
  8
0
 10
-196.9999999999999
 20
29.99999999999999
 30
-104.0012184387488
 70
   192
  0
VERTEX
  5
166D
  8
0
 10
0.0
 20
0.0
 30
0.0
 70
   128
 71
     1
 72
     2
 73
    -3
  0
VERTEX
  5
166E
  8
0
 10
0.0
 20
0.0
 30
0.0
 70
   128
 71
     4
 72
    -1
 73
     3
  0
VERTEX
  5
166F
  8
0
 10
0.0
 20
0.0
 30
0.0
 70
   128
 71
     5
 72
     6
 73
     1
  0
VERTEX
  5
1670
  8
0
 10
0.0
 20
0.0
 30
0.0
 70
   128
 71
     2
 72
     7
 73
     8
  0
VERTEX
  5
1671
  8
0
 10
0.0
 20
0.0
 30
0.0
 70
   128
 71
     3
 72
     2
 73
     8
  0
VERTEX
  5
1672
  8
0
 10
0.0
 20
0.0
 30
0.0
 70
   128
 71
     5
 72
     1
 73
     4
  0
SEQEND
  5
18EC
  8
0
  0
POLYLINE
  5
1673
  8
0
 66
     1
 10
0.0
 20
0.0
 30
0.0
 70
    64
 71
     8
 72
     6
  0
VERTEX
  5
1674
  8
0
 10
271.6185188865714
 20
109.1906969987791
 30
109.5461673492208
 70
   192
  0
VERTEX
  5
1675
  8
0
 10
274.5461673492208
 20
109.1906969987791
 30
106.6185188865715
 70
   192
  0
VERTEX
  5
1676
  8
0
 10
275.9782952095468
 20
29.99999999999994
 30
107.9131808381876
 70
   192
  0
VERTEX
  5
1677
  8
0
 10
272.9131808381874
 20
29.99999999999994
 30
110.9782952095469
 70
   192
  0
VERTEX
  5
1678
  8
0
 10
269.0012184387488
 20
30.0
 30
112.0
 70
   192
  0
VERTEX
  5
1679
  8
0
 10
267.6198312463194
 20
109.1396192514982
 30
110.6186128075707
 70
   192
  0
VERTEX
  5
167A
  8
0
 10
275.6186128075706
 20
109.1396192514983
 30
102.6198312463196
 70
   192
  0
VERTEX
  5
167B
  8
0
 10
276.9999999999997
 20
29.99999999999999
 30
104.0012184387487
 70
   192
  0
VERTEX
  5
167C
  8
0
 10
0.0
 20
0.0
 30
0.0
 70
   128
 71
     1
 72
     2
 73
    -3
  0
VERTEX
  5
167D
  8
0
 10
0.0
 20
0.0
 30
0.0
 70
   128
 71
     4
 72
    -1
 73
     3
  0
VERTEX
  5
167E
  8
0
 10
0.0
 20
0.0
 30
0.0
 70
   128
 71
     5
 72
     6
 73
     1
  0
VERTEX
  5
167F
  8
0
 10
0.0
 20
0.0
 30
0.0
 70
   128
 71
     2
 72
     7
 73
     8
  0
VERTEX
  5
1680
  8
0
 10
0.0
 20
0.0
 30
0.0
 70
   128
 71
     3
 72
     2
 73
     8
  0
VERTEX
  5
1681
  8
0
 10
0.0
 20
0.0
 30
0.0
 70
   128
 71
     5
 72
     1
 73
     4
  0
SEQEND
  5
18ED
  8
0
  0
POLYLINE
  5
1682
  8
0
 66
     1
 10
0.0
 20
0.0
 30
0.0
 70
    64
 71
     8
 72
     6
  0
VERTEX
  5
1683
  8
0
 10
274.5461673492208
 20
109.1906969987791
 30
-106.6185188865715
 70
   192
  0
VERTEX
  5
1684
  8
0
 10
271.6185188865715
 20
109.1906969987791
 30
-109.5461673492208
 70
   192
  0
VERTEX
  5
1685
  8
0
 10
272.9131808381875
 20
29.99999999999996
 30
-110.9782952095469
 70
   192
  0
VERTEX
  5
1686
  8
0
 10
275.9782952095469
 20
29.99999999999996
 30
-107.9131808381876
 70
   192
  0
VERTEX
  5
1687
  8
0
 10
276.9999999999998
 20
29.99999999999999
 30
-104.0012184387488
 70
   192
  0
VERTEX
  5
1688
  8
0
 10
275.6186128075705
 20
109.1396192514982
 30
-102.6198312463195
 70
   192
  0
VERTEX
  5
1689
  8
0
 10
267.6198312463195
 20
109.1396192514983
 30
-110.6186128075707
 70
   192
  0
VERTEX
  5
168A
  8
0
 10
269.0012184387487
 20
30.0
 30
-111.9999999999999
 70
   192
  0
VERTEX
  5
168B
  8
0
 10
0.0
 20
0.0
 30
0.0
 70
   128
 71
     1
 72
     2
 73
    -3
  0
VERTEX
  5
168C
  8
0
 10
0.0
 20
0.0
 30
0.0
 70
   128
 71
     4
 72
    -1
 73
     3
  0
VERTEX
  5
168D
  8
0
 10
0.0
 20
0.0
 30
0.0
 70
   128
 71
     5
 72
     6
 73
     1
  0
VERTEX
  5
168E
  8
0
 10
0.0
 20
0.0
 30
0.0
 70
   128
 71
     2
 72
     7
 73
     8
  0
VERTEX
  5
168F
  8
0
 10
0.0
 20
0.0
 30
0.0
 70
   128
 71
     3
 72
     2
 73
     8
  0
VERTEX
  5
1690
  8
0
 10
0.0
 20
0.0
 30
0.0
 70
   128
 71
     5
 72
     1
 73
     4
  0
SEQEND
  5
18EE
  8
0
  0
POLYLINE
  5
1691
  8
0
 66
     1
 10
0.0
 20
0.0
 30
0.0
 70
    64
 71
    14
 72
    12
  0
VERTEX
  5
1692
  8
0
 10
-181.559902686664
 20
92.2941871981861
 30
-93.2907508551916
 70
   192
  0
VERTEX
  5
1693
  8
0
 10
-181.7017829517484
 20
92.73586875514269
 30
-95.70633427375391
 70
   192
  0
VERTEX
  5
1694
  8
0
 10
-181.907701740315
 20
93.69861736775691
 30
-98.01347899308388
 70
   192
  0
VERTEX
  5
1695
  8
0
 10
-182.1613096444076
 20
95.06752858902767
 30
-100.1769244162951
 70
   192
  0
VERTEX
  5
1696
  8
0
 10
-186.2211262419919
 20
97.07347871663721
 30
-99.07922535019051
 70
   192
  0
VERTEX
  5
1697
  8
0
 10
-190.8662399399811
 20
96.77695430524706
 30
-99.29342611210915
 70
   192
  0
VERTEX
  5
1698
  8
0
 10
-194.5208764829116
 20
94.2785461183917
 30
-100.7468628087478
 70
   192
  0
VERTEX
  5
1699
  8
0
 10
-195.9452638109695
 20
90.4257958001413
 30
-102.9464822497182
 70
   192
  0
VERTEX
  5
169A
  8
0
 10
-195.970622043394
 20
88.9730236374985
 30
-99.90124223374185
 70
   192
  0
VERTEX
  5
169B
  8
0
 10
-195.9872466528145
 20
88.02060040166197
 30
-96.659789204923
 70
   192
  0
VERTEX
  5
169C
  8
0
 10
-195.9931890499826
 20
87.6801606959315
 30
-93.2907508551916
 70
   192
  0
VERTEX
  5
169D
  8
0
 10
-194.4139497010484
 20
92.3143740540124
 30
-93.29075085519159
 70
   192
  0
VERTEX
  5
169E
  8
0
 10
-190.430398167225
 20
95.16064311135948
 30
-93.29075085519158
 70
   192
  0
VERTEX
  5
169F
  8
0
 10
-185.5344946499003
 20
95.15295425676499
 30
-93.29075085519158
 70
   192
  0
VERTEX
  5
16A0
  8
0
 10
0.0
 20
0.0
 30
0.0
 70
   128
 71
     9
 72
     8
 73
     7
  0
VERTEX
  5
16A1
  8
0
 10
0.0
 20
0.0
 30
0.0
 70
   128
 71
     7
 72
    10
 73
     9
  0
VERTEX
  5
16A2
  8
0
 10
0.0
 20
0.0
 30
0.0
 70
   128
 71
     7
 72
    12
 73
    11
  0
VERTEX
  5
16A3
  8
0
 10
0.0
 20
0.0
 30
0.0
 70
   128
 71
     7
 72
    11
 73
    10
  0
VERTEX
  5
16A4
  8
0
 10
0.0
 20
0.0
 30
0.0
 70
   128
 71
     7
 72
     6
 73
    13
  0
VERTEX
  5
16A5
  8
0
 10
0.0
 20
0.0
 30
0.0
 70
   128
 71
     7
 72
    13
 73
    12
  0
VERTEX
  5
16A6
  8
0
 10
0.0
 20
0.0
 30
0.0
 70
   128
 71
     6
 72
     5
 73
    14
  0
VERTEX
  5
16A7
  8
0
 10
0.0
 20
0.0
 30
0.0
 70
   128
 71
     6
 72
    14
 73
    13
  0
VERTEX
  5
16A8
  8
0
 10
0.0
 20
0.0
 30
0.0
 70
   128
 71
     2
 72
     1
 73
    14
  0
VERTEX
  5
16A9
  8
0
 10
0.0
 20
0.0
 30
0.0
 70
   128
 71
     2
 72
    14
 73
     5
  0
VERTEX
  5
16AA
  8
0
 10
0.0
 20
0.0
 30
0.0
 70
   128
 71
     5
 72
     3
 73
     2
  0
VERTEX
  5
16AB
  8
0
 10
0.0
 20
0.0
 30
0.0
 70
   128
 71
     5
 72
     4
 73
     3
  0
SEQEND
  5
18EF
  8
0
  0
POLYLINE
  5
16AC
  8
0
 66
     1
 10
0.0
 20
0.0
 30
0.0
 70
    64
 71
    12
 72
    10
  0
VERTEX
  5
16AD
  8
0
 10
-182.6507453900172
 20
94.77663342559799
 30
-106.9202673658278
 70
   192
  0
VERTEX
  5
16AE
  8
0
 10
-181.8052656875207
 20
95.41311122115378
 30
-102.9464822497182
 70
   192
  0
VERTEX
  5
16AF
  8
0
 10
-183.539255489594
 20
96.96272897372339
 30
-102.9464822497182
 70
   192
  0
VERTEX
  5
16B0
  8
0
 10
-185.6456584190698
 20
97.94817431034468
 30
-102.9464822497182
 70
   192
  0
VERTEX
  5
16B1
  8
0
 10
-194.8276754328809
 20
94.36651726676843
 30
-102.9464822497182
 70
   192
  0
VERTEX
  5
16B2
  8
0
 10
-195.9452638109692
 20
90.42579580014129
 30
-102.9464822497182
 70
   192
  0
VERTEX
  5
16B3
  8
0
 10
-194.8728183526192
 20
90.47687354742206
 30
-106.9451698899701
 70
   192
  0
VERTEX
  5
16B4
  8
0
 10
-191.9451698899699
 20
90.47687354742206
 30
-109.8728183526194
 70
   192
  0
VERTEX
  5
16B5
  8
0
 10
-184.8955332041926
 20
92.95362901447658
 30
-109.8440475639523
 70
   192
  0
VERTEX
  5
16B6
  8
0
 10
-187.946482249718
 20
90.42579580014127
 30
-110.9452638109693
 70
   192
  0
VERTEX
  5
16B7
  8
0
 10
-187.946482249718
 20
98.286176548643
 30
-102.9464822497182
 70
   192
  0
VERTEX
  5
16B8
  8
0
 10
-191.9061081319824
 20
97.23753345736965
 30
-102.9464822497182
 70
   192
  0
VERTEX
  5
16B9
  8
0
 10
0.0
 20
0.0
 30
0.0
 70
   128
 71
     1
 72
     2
 73
     3
  0
VERTEX
  5
16BA
  8
0
 10
0.0
 20
0.0
 30
0.0
 70
   128
 71
     3
 72
     4
 73
     1
  0
VERTEX
  5
16BB
  8
0
 10
0.0
 20
0.0
 30
0.0
 70
   128
 71
     5
 72
     6
 73
     7
  0
VERTEX
  5
16BC
  8
0
 10
0.0
 20
0.0
 30
0.0
 70
   128
 71
     7
 72
     8
 73
     5
  0
VERTEX
  5
16BD
  8
0
 10
0.0
 20
0.0
 30
0.0
 70
   128
 71
     9
 72
     1
 73
     4
  0
VERTEX
  5
16BE
  8
0
 10
0.0
 20
0.0
 30
0.0
 70
   128
 71
    10
 72
     9
 73
     4
  0
VERTEX
  5
16BF
  8
0
 10
0.0
 20
0.0
 30
0.0
 70
   128
 71
    11
 72
    10
 73
     4
  0
VERTEX
  5
16C0
  8
0
 10
0.0
 20
0.0
 30
0.0
 70
   128
 71
    10
 72
    11
 73
    12
  0
VERTEX
  5
16C1
  8
0
 10
0.0
 20
0.0
 30
0.0
 70
   128
 71
     8
 72
    10
 73
    12
  0
VERTEX
  5
16C2
  8
0
 10
0.0
 20
0.0
 30
0.0
 70
   128
 71
    12
 72
     5
 73
     8
  0
SEQEND
  5
18F0
  8
0
  0
POLYLINE
  5
16C3
  8
0
 66
     1
 10
0.0
 20
0.0
 30
0.0
 70
    64
 71
    10
 72
     8
  0
VERTEX
  5
16C4
  8
0
 10
-195.9931890499826
 20
87.6801606959315
 30
93.2907508551947
 70
   192
  0
VERTEX
  5
16C5
  8
0
 10
-181.559902686664
 20
92.2941871981862
 30
93.2907508551917
 70
   192
  0
VERTEX
  5
16C6
  8
0
 10
-181.5599026866641
 20
92.294187198186
 30
-93.29075085519159
 70
   192
  0
VERTEX
  5
16C7
  8
0
 10
-195.9931890499826
 20
87.6801606959315
 30
-93.2907508551916
 70
   192
  0
VERTEX
  5
16C8
  8
0
 10
-190.430398167225
 20
95.16064311135948
 30
-93.29075085519158
 70
   192
  0
VERTEX
  5
16C9
  8
0
 10
-190.4303981672253
 20
95.16064311135949
 30
93.29075085519328
 70
   192
  0
VERTEX
  5
16CA
  8
0
 10
-194.4139497010484
 20
92.3143740540124
 30
-93.29075085519159
 70
   192
  0
VERTEX
  5
16CB
  8
0
 10
-194.4139497010485
 20
92.31437405401235
 30
93.2907508551938
 70
   192
  0
VERTEX
  5
16CC
  8
0
 10
-185.5344946499003
 20
95.15295425676499
 30
-93.29075085519158
 70
   192
  0
VERTEX
  5
16CD
  8
0
 10
-185.5344946499007
 20
95.15295425676524
 30
93.29075085519325
 70
   192
  0
VERTEX
  5
16CE
  8
0
 10
0.0
 20
0.0
 30
0.0
 70
   128
 71
     4
 72
     7
 73
    -8
  0
VERTEX
  5
16CF
  8
0
 10
0.0
 20
0.0
 30
0.0
 70
   128
 71
     1
 72
    -4
 73
     8
  0
VERTEX
  5
16D0
  8
0
 10
0.0
 20
0.0
 30
0.0
 70
   128
 71
     7
 72
     5
 73
    -6
  0
VERTEX
  5
16D1
  8
0
 10
0.0
 20
0.0
 30
0.0
 70
   128
 71
     8
 72
    -7
 73
     6
  0
VERTEX
  5
16D2
  8
0
 10
0.0
 20
0.0
 30
0.0
 70
   128
 71
     5
 72
     9
 73
   -10
  0
VERTEX
  5
16D3
  8
0
 10
0.0
 20
0.0
 30
0.0
 70
   128
 71
     6
 72
    -5
 73
    10
  0
VERTEX
  5
16D4
  8
0
 10
0.0
 20
0.0
 30
0.0
 70
   128
 71
     9
 72
     3
 73
    -2
  0
VERTEX
  5
16D5
  8
0
 10
0.0
 20
0.0
 30
0.0
 70
   128
 71
    10
 72
    -9
 73
     2
  0
SEQEND
  5
18F1
  8
0
  0
POLYLINE
  5
16D6
  8
0
 66
     1
 10
0.0
 20
0.0
 30
0.0
 70
    64
 71
    16
 72
    14
  0
VERTEX
  5
16D7
  8
0
 10
-182.1613096444075
 20
95.0675285890277
 30
-100.176924416295
 70
   192
  0
VERTEX
  5
16D8
  8
0
 10
-156.7518458716341
 20
68.6751320598965
 30
-98.65802759747366
 70
   192
  0
VERTEX
  5
16D9
  8
0
 10
-127.8190133547841
 20
48.11727139149745
 30
-97.31469050608824
 70
   192
  0
VERTEX
  5
16DA
  8
0
 10
-96.01920405705202
 20
35.32391638627188
 30
-96.1423038332461
 70
   192
  0
VERTEX
  5
16DB
  8
0
 10
-96.01920405705208
 20
40.03723209837158
 30
-99.29164070584045
 70
   192
  0
VERTEX
  5
16DC
  8
0
 10
-96.01920405705211
 20
41.48048311446723
 30
-104.7734920576692
 70
   192
  0
VERTEX
  5
16DD
  8
0
 10
-96.01920405705206
 20
38.92902961244629
 30
-109.835483046009
 70
   192
  0
VERTEX
  5
16DE
  8
0
 10
-96.019204057052
 20
33.6639272030192
 30
-111.936045912779
 70
   192
  0
VERTEX
  5
16DF
  8
0
 10
-131.0155149516747
 20
44.55032224118229
 30
-111.7460231805536
 70
   192
  0
VERTEX
  5
16E0
  8
0
 10
-161.841180481231
 20
64.65130330388048
 30
-111.3951592509835
 70
   192
  0
VERTEX
  5
16E1
  8
0
 10
-187.946482249718
 20
90.42579580014127
 30
-110.9452638109693
 70
   192
  0
VERTEX
  5
16E2
  8
0
 10
-184.8955332041926
 20
92.95362901447658
 30
-109.8440475639523
 70
   192
  0
VERTEX
  5
16E3
  8
0
 10
-182.6507453900172
 20
94.77663342559799
 30
-106.9202673658278
 70
   192
  0
VERTEX
  5
16E4
  8
0
 10
-181.8052656875207
 20
95.41311122115378
 30
-102.9464822497182
 70
   192
  0
VERTEX
  5
16E5
  8
0
 10
-181.8397852019775
 20
95.36787607397547
 30
-102.005960532078
 70
   192
  0
VERTEX
  5
16E6
  8
0
 10
-181.9590178595276
 20
95.25214672417312
 30
-101.078485892134
 70
   192
  0
VERTEX
  5
16E7
  8
0
 10
0.0
 20
0.0
 30
0.0
 70
   128
 71
     9
 72
     8
 73
     7
  0
VERTEX
  5
16E8
  8
0
 10
0.0
 20
0.0
 30
0.0
 70
   128
 71
     7
 72
    12
 73
    10
  0
VERTEX
  5
16E9
  8
0
 10
0.0
 20
0.0
 30
0.0
 70
   128
 71
     7
 72
    10
 73
     9
  0
VERTEX
  5
16EA
  8
0
 10
0.0
 20
0.0
 30
0.0
 70
   128
 71
    12
 72
    11
 73
    10
  0
VERTEX
  5
16EB
  8
0
 10
0.0
 20
0.0
 30
0.0
 70
   128
 71
     7
 72
     6
 73
    13
  0
VERTEX
  5
16EC
  8
0
 10
0.0
 20
0.0
 30
0.0
 70
   128
 71
     7
 72
    13
 73
    12
  0
VERTEX
  5
16ED
  8
0
 10
0.0
 20
0.0
 30
0.0
 70
   128
 71
     6
 72
     5
 73
    14
  0
VERTEX
  5
16EE
  8
0
 10
0.0
 20
0.0
 30
0.0
 70
   128
 71
     6
 72
    14
 73
    13
  0
VERTEX
  5
16EF
  8
0
 10
0.0
 20
0.0
 30
0.0
 70
   128
 71
     5
 72
     4
 73
    15
  0
VERTEX
  5
16F0
  8
0
 10
0.0
 20
0.0
 30
0.0
 70
   128
 71
     5
 72
    15
 73
    14
  0
VERTEX
  5
16F1
  8
0
 10
0.0
 20
0.0
 30
0.0
 70
   128
 71
     4
 72
    16
 73
    15
  0
VERTEX
  5
16F2
  8
0
 10
0.0
 20
0.0
 30
0.0
 70
   128
 71
     2
 72
     1
 73
    16
  0
VERTEX
  5
16F3
  8
0
 10
0.0
 20
0.0
 30
0.0
 70
   128
 71
    16
 72
     3
 73
     2
  0
VERTEX
  5
16F4
  8
0
 10
0.0
 20
0.0
 30
0.0
 70
   128
 71
    16
 72
     4
 73
     3
  0
SEQEND
  5
18F2
  8
0
  0
POLYLINE
  5
16F5
  8
0
 66
     1
 10
0.0
 20
0.0
 30
0.0
 70
    64
 71
    14
 72
    12
  0
VERTEX
  5
16F6
  8
0
 10
-195.9931890499825
 20
87.6801606959315
 30
93.2907508551947
 70
   192
  0
VERTEX
  5
16F7
  8
0
 10
-195.9872282196928
 20
88.02165643451842
 30
96.66559905083245
 70
   192
  0
VERTEX
  5
16F8
  8
0
 10
-195.9706137535541
 20
88.97349856211011
 30
99.90242723446507
 70
   192
  0
VERTEX
  5
16F9
  8
0
 10
-195.9452638109692
 20
90.4257958001414
 30
102.9464822497182
 70
   192
  0
VERTEX
  5
16FA
  8
0
 10
-194.5208764829116
 20
94.27854611839179
 30
100.7468628087477
 70
   192
  0
VERTEX
  5
16FB
  8
0
 10
-190.8662399399811
 20
96.77695430524714
 30
99.2934261121091
 70
   192
  0
VERTEX
  5
16FC
  8
0
 10
-186.2211262419919
 20
97.0734787166373
 30
99.07922535019048
 70
   192
  0
VERTEX
  5
16FD
  8
0
 10
-182.1613096444075
 20
95.0675285890278
 30
100.176924416295
 70
   192
  0
VERTEX
  5
16FE
  8
0
 10
-181.907986520462
 20
93.69980161755711
 30
98.01581192018057
 70
   192
  0
VERTEX
  5
16FF
  8
0
 10
-181.7018665627684
 20
92.73665949989733
 30
95.70861203808438
 70
   192
  0
VERTEX
  5
1700
  8
0
 10
-181.5599026866644
 20
92.29418719818653
 30
93.29075085519379
 70
   192
  0
VERTEX
  5
1701
  8
0
 10
-185.5344946499007
 20
95.15295425676524
 30
93.29075085519325
 70
   192
  0
VERTEX
  5
1702
  8
0
 10
-190.4303981672253
 20
95.16064311135949
 30
93.29075085519328
 70
   192
  0
VERTEX
  5
1703
  8
0
 10
-194.4139497010485
 20
92.31437405401235
 30
93.2907508551938
 70
   192
  0
VERTEX
  5
1704
  8
0
 10
0.0
 20
0.0
 30
0.0
 70
   128
 71
     9
 72
     8
 73
     7
  0
VERTEX
  5
1705
  8
0
 10
0.0
 20
0.0
 30
0.0
 70
   128
 71
     7
 72
    10
 73
     9
  0
VERTEX
  5
1706
  8
0
 10
0.0
 20
0.0
 30
0.0
 70
   128
 71
     7
 72
    12
 73
    11
  0
VERTEX
  5
1707
  8
0
 10
0.0
 20
0.0
 30
0.0
 70
   128
 71
     7
 72
    11
 73
    10
  0
VERTEX
  5
1708
  8
0
 10
0.0
 20
0.0
 30
0.0
 70
   128
 71
     7
 72
     6
 73
    13
  0
VERTEX
  5
1709
  8
0
 10
0.0
 20
0.0
 30
0.0
 70
   128
 71
     7
 72
    13
 73
    12
  0
VERTEX
  5
170A
  8
0
 10
0.0
 20
0.0
 30
0.0
 70
   128
 71
     6
 72
     5
 73
    14
  0
VERTEX
  5
170B
  8
0
 10
0.0
 20
0.0
 30
0.0
 70
   128
 71
     6
 72
    14
 73
    13
  0
VERTEX
  5
170C
  8
0
 10
0.0
 20
0.0
 30
0.0
 70
   128
 71
     2
 72
     1
 73
    14
  0
VERTEX
  5
170D
  8
0
 10
0.0
 20
0.0
 30
0.0
 70
   128
 71
     2
 72
    14
 73
     5
  0
VERTEX
  5
170E
  8
0
 10
0.0
 20
0.0
 30
0.0
 70
   128
 71
     5
 72
     3
 73
     2
  0
VERTEX
  5
170F
  8
0
 10
0.0
 20
0.0
 30
0.0
 70
   128
 71
     5
 72
     4
 73
     3
  0
SEQEND
  5
18F3
  8
0
  0
POLYLINE
  5
1710
  8
0
 66
     1
 10
0.0
 20
0.0
 30
0.0
 70
    64
 71
     9
 72
     7
  0
VERTEX
  5
1711
  8
0
 10
-96.01920405705208
 20
40.03723209837158
 30
-99.29164070584045
 70
   192
  0
VERTEX
  5
1712
  8
0
 10
-96.01920405705211
 20
41.48048311446723
 30
-104.7734920576692
 70
   192
  0
VERTEX
  5
1713
  8
0
 10
180.2435803102991
 20
40.6610578596936
 30
-100.3224613488463
 70
   192
  0
VERTEX
  5
1714
  8
0
 10
-96.01920405705206
 20
38.92902961244629
 30
-109.835483046009
 70
   192
  0
VERTEX
  5
1715
  8
0
 10
-96.019204057052
 20
33.6639272030192
 30
-111.9360459127791
 70
   192
  0
VERTEX
  5
1716
  8
0
 10
180.243580310299
 20
33.66392720301928
 30
-111.936045912779
 70
   192
  0
VERTEX
  5
1717
  8
0
 10
180.243580310299
 20
39.75354294697657
 30
-108.956888976078
 70
   192
  0
VERTEX
  5
1718
  8
0
 10
180.243580310299
 20
35.32391638627185
 30
-96.14230383324609
 70
   192
  0
VERTEX
  5
1719
  8
0
 10
-96.01920405705202
 20
35.32391638627188
 30
-96.1423038332461
 70
   192
  0
VERTEX
  5
171A
  8
0
 10
0.0
 20
0.0
 30
0.0
 70
   128
 71
     1
 72
     2
 73
     3
  0
VERTEX
  5
171B
  8
0
 10
0.0
 20
0.0
 30
0.0
 70
   128
 71
     4
 72
     5
 73
     6
  0
VERTEX
  5
171C
  8
0
 10
0.0
 20
0.0
 30
0.0
 70
   128
 71
     4
 72
     7
 73
     3
  0
VERTEX
  5
171D
  8
0
 10
0.0
 20
0.0
 30
0.0
 70
   128
 71
     2
 72
     4
 73
     3
  0
VERTEX
  5
171E
  8
0
 10
0.0
 20
0.0
 30
0.0
 70
   128
 71
     3
 72
     8
 73
     9
  0
VERTEX
  5
171F
  8
0
 10
0.0
 20
0.0
 30
0.0
 70
   128
 71
     1
 72
     3
 73
     9
  0
VERTEX
  5
1720
  8
0
 10
0.0
 20
0.0
 30
0.0
 70
   128
 71
     4
 72
     6
 73
     7
  0
SEQEND
  5
18F4
  8
0
  0
POLYLINE
  5
1721
  8
0
 66
     1
 10
0.0
 20
0.0
 30
0.0
 70
    64
 71
    13
 72
    11
  0
VERTEX
  5
1722
  8
0
 10
-183.539255489594
 20
96.96272897372339
 30
102.9464822497182
 70
   192
  0
VERTEX
  5
1723
  8
0
 10
-181.9590178595276
 20
95.25214672417313
 30
101.078485892134
 70
   192
  0
VERTEX
  5
1724
  8
0
 10
-181.8397852019775
 20
95.36787607397548
 30
102.005960532078
 70
   192
  0
VERTEX
  5
1725
  8
0
 10
-181.8052656875207
 20
95.4131112211538
 30
102.9464822497182
 70
   192
  0
VERTEX
  5
1726
  8
0
 10
-185.6456584190698
 20
97.94817431034468
 30
102.9464822497182
 70
   192
  0
VERTEX
  5
1727
  8
0
 10
-194.8276754328809
 20
94.36651726676848
 30
102.9464822497182
 70
   192
  0
VERTEX
  5
1728
  8
0
 10
-195.9452638109691
 20
90.42579580014139
 30
102.9464822497182
 70
   192
  0
VERTEX
  5
1729
  8
0
 10
-194.5208764829116
 20
94.27854611839179
 30
100.7468628087477
 70
   192
  0
VERTEX
  5
172A
  8
0
 10
-182.1613096444076
 20
95.06752858902776
 30
100.1769244162951
 70
   192
  0
VERTEX
  5
172B
  8
0
 10
-186.2211262419919
 20
97.0734787166373
 30
99.07922535019048
 70
   192
  0
VERTEX
  5
172C
  8
0
 10
-187.946482249718
 20
98.286176548643
 30
102.9464822497182
 70
   192
  0
VERTEX
  5
172D
  8
0
 10
-190.8662399399811
 20
96.77695430524714
 30
99.2934261121091
 70
   192
  0
VERTEX
  5
172E
  8
0
 10
-191.9061081319824
 20
97.23753345736966
 30
102.9464822497182
 70
   192
  0
VERTEX
  5
172F
  8
0
 10
0.0
 20
0.0
 30
0.0
 70
   128
 71
     1
 72
     2
 73
     3
  0
VERTEX
  5
1730
  8
0
 10
0.0
 20
0.0
 30
0.0
 70
   128
 71
     3
 72
     4
 73
     1
  0
VERTEX
  5
1731
  8
0
 10
0.0
 20
0.0
 30
0.0
 70
   128
 71
     1
 72
     5
 73
     2
  0
VERTEX
  5
1732
  8
0
 10
0.0
 20
0.0
 30
0.0
 70
   128
 71
     6
 72
     7
 73
     8
  0
VERTEX
  5
1733
  8
0
 10
0.0
 20
0.0
 30
0.0
 70
   128
 71
     9
 72
     2
 73
     5
  0
VERTEX
  5
1734
  8
0
 10
0.0
 20
0.0
 30
0.0
 70
   128
 71
    10
 72
     9
 73
     5
  0
VERTEX
  5
1735
  8
0
 10
0.0
 20
0.0
 30
0.0
 70
   128
 71
    11
 72
    10
 73
     5
  0
VERTEX
  5
1736
  8
0
 10
0.0
 20
0.0
 30
0.0
 70
   128
 71
    12
 72
    10
 73
    11
  0
VERTEX
  5
1737
  8
0
 10
0.0
 20
0.0
 30
0.0
 70
   128
 71
    13
 72
    12
 73
    11
  0
VERTEX
  5
1738
  8
0
 10
0.0
 20
0.0
 30
0.0
 70
   128
 71
     8
 72
    12
 73
    13
  0
VERTEX
  5
1739
  8
0
 10
0.0
 20
0.0
 30
0.0
 70
   128
 71
     6
 72
     8
 73
    13
  0
SEQEND
  5
18F5
  8
0
  0
POLYLINE
  5
173A
  8
0
 66
     1
 10
0.0
 20
0.0
 30
0.0
 70
    64
 71
    12
 72
    10
  0
VERTEX
  5
173B
  8
0
 10
180.243580310299
 20
33.6639272030192
 30
-111.936045912779
 70
   192
  0
VERTEX
  5
173C
  8
0
 10
180.243580310299
 20
39.75354294697657
 30
-108.956888976078
 70
   192
  0
VERTEX
  5
173D
  8
0
 10
180.2435803102991
 20
40.6610578596936
 30
-100.3224613488463
 70
   192
  0
VERTEX
  5
173E
  8
0
 10
180.243580310299
 20
35.32391638627185
 30
-96.14230383324609
 70
   192
  0
VERTEX
  5
173F
  8
0
 10
183.9488070641791
 20
37.52528563816177
 30
-96.27949789582672
 70
   192
  0
VERTEX
  5
1740
  8
0
 10
186.1118161346471
 20
40.67368948057124
 30
-96.463608015362
 70
   192
  0
VERTEX
  5
1741
  8
0
 10
187.7076240825815
 20
43.8567614179128
 30
-96.6474718616461
 70
   192
  0
VERTEX
  5
1742
  8
0
 10
184.2835447174652
 20
46.06920625038182
 30
-101.55129182513
 70
   192
  0
VERTEX
  5
1743
  8
0
 10
185.8571363970095
 20
45.22515066883821
 30
-109.1921892224273
 70
   192
  0
VERTEX
  5
1744
  8
0
 10
190.8255748328865
 20
42.18433027330025
 30
-111.7873217239726
 70
   192
  0
VERTEX
  5
1745
  8
0
 10
188.3287089761423
 20
38.64873487787136
 30
-111.8490357711598
 70
   192
  0
VERTEX
  5
1746
  8
0
 10
184.9296984458942
 20
35.35629616896951
 30
-111.9065055025959
 70
   192
  0
VERTEX
  5
1747
  8
0
 10
0.0
 20
0.0
 30
0.0
 70
   128
 71
     8
 72
     7
 73
     6
  0
VERTEX
  5
1748
  8
0
 10
0.0
 20
0.0
 30
0.0
 70
   128
 71
     6
 72
    11
 73
     9
  0
VERTEX
  5
1749
  8
0
 10
0.0
 20
0.0
 30
0.0
 70
   128
 71
     6
 72
     9
 73
     8
  0
VERTEX
  5
174A
  8
0
 10
0.0
 20
0.0
 30
0.0
 70
   128
 71
    11
 72
    10
 73
     9
  0
VERTEX
  5
174B
  8
0
 10
0.0
 20
0.0
 30
0.0
 70
   128
 71
     6
 72
     5
 73
    12
  0
VERTEX
  5
174C
  8
0
 10
0.0
 20
0.0
 30
0.0
 70
   128
 71
     6
 72
    12
 73
    11
  0
VERTEX
  5
174D
  8
0
 10
0.0
 20
0.0
 30
0.0
 70
   128
 71
     2
 72
     1
 73
    12
  0
VERTEX
  5
174E
  8
0
 10
0.0
 20
0.0
 30
0.0
 70
   128
 71
    12
 72
     5
 73
     3
  0
VERTEX
  5
174F
  8
0
 10
0.0
 20
0.0
 30
0.0
 70
   128
 71
    12
 72
     3
 73
     2
  0
VERTEX
  5
1750
  8
0
 10
0.0
 20
0.0
 30
0.0
 70
   128
 71
     5
 72
     4
 73
     3
  0
SEQEND
  5
18F6
  8
0
  0
POLYLINE
  5
1751
  8
0
 66
     1
 10
0.0
 20
0.0
 30
0.0
 70
    64
 71
    18
 72
    16
  0
VERTEX
  5
1752
  8
0
 10
-187.946482249718
 20
90.4257958001413
 30
110.9452638109694
 70
   192
  0
VERTEX
  5
1753
  8
0
 10
-161.7966153658613
 20
64.6151494134605
 30
111.3957903194882
 70
   192
  0
VERTEX
  5
1754
  8
0
 10
-131.0279039814124
 20
44.55659192466232
 30
111.7459137428216
 70
   192
  0
VERTEX
  5
1755
  8
0
 10
-96.01920405705229
 20
33.66392720301945
 30
111.9360459127791
 70
   192
  0
VERTEX
  5
1756
  8
0
 10
-96.01920405705229
 20
37.60464866964656
 30
110.8184575346909
 70
   192
  0
VERTEX
  5
1757
  8
0
 10
-96.01920405705229
 20
40.47566486024778
 30
107.8968902337925
 70
   192
  0
VERTEX
  5
1758
  8
0
 10
-96.01920405705229
 20
41.52430795152116
 30
103.9372643515281
 70
   192
  0
VERTEX
  5
1759
  8
0
 10
-96.01920405705229
 20
40.73494124308488
 30
100.4721860645923
 70
   192
  0
VERTEX
  5
175A
  8
0
 10
-96.01920405705229
 20
38.52261606787287
 30
97.69091213811474
 70
   192
  0
VERTEX
  5
175B
  8
0
 10
-96.01920405705229
 20
35.3239163862721
 30
96.14230383324609
 70
   192
  0
VERTEX
  5
175C
  8
0
 10
-127.7914350249506
 20
48.10126336494915
 30
97.31350175172369
 70
   192
  0
VERTEX
  5
175D
  8
0
 10
-156.6657295865372
 20
68.60118810865063
 30
98.65358882304787
 70
   192
  0
VERTEX
  5
175E
  8
0
 10
-182.1613096444076
 20
95.06752858902769
 30
100.1769244162951
 70
   192
  0
VERTEX
  5
175F
  8
0
 10
-181.9590178595276
 20
95.25214672417313
 30
101.078485892134
 70
   192
  0
VERTEX
  5
1760
  8
0
 10
-181.8397852019775
 20
95.36787607397548
 30
102.005960532078
 70
   192
  0
VERTEX
  5
1761
  8
0
 10
-181.8052656875207
 20
95.4131112211538
 30
102.9464822497182
 70
   192
  0
VERTEX
  5
1762
  8
0
 10
-182.6507453900172
 20
94.77663342559799
 30
106.9202673658278
 70
   192
  0
VERTEX
  5
1763
  8
0
 10
-184.8955332041926
 20
92.95362901447658
 30
109.8440475639523
 70
   192
  0
VERTEX
  5
1764
  8
0
 10
0.0
 20
0.0
 30
0.0
 70
   128
 71
    11
 72
    10
 73
    14
  0
VERTEX
  5
1765
  8
0
 10
0.0
 20
0.0
 30
0.0
 70
   128
 71
    14
 72
    12
 73
    11
  0
VERTEX
  5
1766
  8
0
 10
0.0
 20
0.0
 30
0.0
 70
   128
 71
    14
 72
    13
 73
    12
  0
VERTEX
  5
1767
  8
0
 10
0.0
 20
0.0
 30
0.0
 70
   128
 71
    10
 72
     9
 73
    15
  0
VERTEX
  5
1768
  8
0
 10
0.0
 20
0.0
 30
0.0
 70
   128
 71
    10
 72
    15
 73
    14
  0
VERTEX
  5
1769
  8
0
 10
0.0
 20
0.0
 30
0.0
 70
   128
 71
     9
 72
    16
 73
    15
  0
VERTEX
  5
176A
  8
0
 10
0.0
 20
0.0
 30
0.0
 70
   128
 71
     8
 72
     7
 73
    17
  0
VERTEX
  5
176B
  8
0
 10
0.0
 20
0.0
 30
0.0
 70
   128
 71
    17
 72
    16
 73
     9
  0
VERTEX
  5
176C
  8
0
 10
0.0
 20
0.0
 30
0.0
 70
   128
 71
    17
 72
     9
 73
     8
  0
VERTEX
  5
176D
  8
0
 10
0.0
 20
0.0
 30
0.0
 70
   128
 71
     6
 72
     5
 73
    18
  0
VERTEX
  5
176E
  8
0
 10
0.0
 20
0.0
 30
0.0
 70
   128
 71
    18
 72
    17
 73
     7
  0
VERTEX
  5
176F
  8
0
 10
0.0
 20
0.0
 30
0.0
 70
   128
 71
    18
 72
     7
 73
     6
  0
VERTEX
  5
1770
  8
0
 10
0.0
 20
0.0
 30
0.0
 70
   128
 71
     2
 72
     1
 73
    18
  0
VERTEX
  5
1771
  8
0
 10
0.0
 20
0.0
 30
0.0
 70
   128
 71
     2
 72
    18
 73
     5
  0
VERTEX
  5
1772
  8
0
 10
0.0
 20
0.0
 30
0.0
 70
   128
 71
     5
 72
     3
 73
     2
  0
VERTEX
  5
1773
  8
0
 10
0.0
 20
0.0
 30
0.0
 70
   128
 71
     5
 72
     4
 73
     3
  0
SEQEND
  5
18F7
  8
0
  0
POLYLINE
  5
1774
  8
0
 66
     1
 10
0.0
 20
0.0
 30
0.0
 70
    64
 71
     9
 72
     7
  0
VERTEX
  5
1775
  8
0
 10
208.8379745483355
 20
115.9513569087266
 30
-106.5794571285841
 70
   192
  0
VERTEX
  5
1776
  8
0
 10
208.8379745483355
 20
117.0
 30
-102.6198312463196
 70
   192
  0
VERTEX
  5
1777
  8
0
 10
205.2558321450375
 20
116.0759604215544
 30
-101.5714802005857
 70
   192
  0
VERTEX
  5
1778
  8
0
 10
202.5012000808085
 20
113.5173039718509
 30
-100.7653086194426
 70
   192
  0
VERTEX
  5
1779
  8
0
 10
201.2104256184992
 20
109.9151056076824
 30
-100.3875501148888
 70
   192
  0
VERTEX
  5
177A
  8
0
 10
201.3449839595816
 20
109.9830525172445
 30
-105.2444645131181
 70
   192
  0
VERTEX
  5
177B
  8
0
 10
204.2440273460946
 20
109.6883092631655
 30
-109.1330393238543
 70
   192
  0
VERTEX
  5
177C
  8
0
 10
208.8379745483355
 20
109.1396192514983
 30
-110.6186128075707
 70
   192
  0
VERTEX
  5
177D
  8
0
 10
208.8379745483355
 20
113.0803407181254
 30
-109.5010244294825
 70
   192
  0
VERTEX
  5
177E
  8
0
 10
0.0
 20
0.0
 30
0.0
 70
   128
 71
     1
 72
     2
 73
     3
  0
VERTEX
  5
177F
  8
0
 10
0.0
 20
0.0
 30
0.0
 70
   128
 71
     4
 72
     5
 73
     6
  0
VERTEX
  5
1780
  8
0
 10
0.0
 20
0.0
 30
0.0
 70
   128
 71
     3
 72
     4
 73
     6
  0
VERTEX
  5
1781
  8
0
 10
0.0
 20
0.0
 30
0.0
 70
   128
 71
     7
 72
     8
 73
     9
  0
VERTEX
  5
1782
  8
0
 10
0.0
 20
0.0
 30
0.0
 70
   128
 71
     3
 72
     6
 73
     7
  0
VERTEX
  5
1783
  8
0
 10
0.0
 20
0.0
 30
0.0
 70
   128
 71
     1
 72
     3
 73
     7
  0
VERTEX
  5
1784
  8
0
 10
0.0
 20
0.0
 30
0.0
 70
   128
 71
     9
 72
     1
 73
     7
  0
SEQEND
  5
18F8
  8
0
  0
POLYLINE
  5
1785
  8
0
 66
     1
 10
0.0
 20
0.0
 30
0.0
 70
    64
 71
     8
 72
     6
  0
VERTEX
  5
1786
  8
0
 10
267.6198312463195
 20
113.0803407181254
 30
-109.5010244294825
 70
   192
  0
VERTEX
  5
1787
  8
0
 10
267.6198312463195
 20
115.9513569087266
 30
-106.5794571285841
 70
   192
  0
VERTEX
  5
1788
  8
0
 10
208.8379745483355
 20
115.9513569087266
 30
-106.5794571285841
 70
   192
  0
VERTEX
  5
1789
  8
0
 10
208.8379745483355
 20
113.0803407181254
 30
-109.5010244294825
 70
   192
  0
VERTEX
  5
178A
  8
0
 10
267.6198312463195
 20
117.0
 30
-102.6198312463196
 70
   192
  0
VERTEX
  5
178B
  8
0
 10
208.8379745483355
 20
117.0
 30
-102.6198312463196
 70
   192
  0
VERTEX
  5
178C
  8
0
 10
267.6198312463195
 20
109.1396192514982
 30
-110.6186128075706
 70
   192
  0
VERTEX
  5
178D
  8
0
 10
208.8379745483355
 20
109.1396192514982
 30
-110.6186128075707
 70
   192
  0
VERTEX
  5
178E
  8
0
 10
0.0
 20
0.0
 30
0.0
 70
   128
 71
     1
 72
     2
 73
    -3
  0
VERTEX
  5
178F
  8
0
 10
0.0
 20
0.0
 30
0.0
 70
   128
 71
     4
 72
    -1
 73
     3
  0
VERTEX
  5
1790
  8
0
 10
0.0
 20
0.0
 30
0.0
 70
   128
 71
     2
 72
     5
 73
    -6
  0
VERTEX
  5
1791
  8
0
 10
0.0
 20
0.0
 30
0.0
 70
   128
 71
     3
 72
    -2
 73
     6
  0
VERTEX
  5
1792
  8
0
 10
0.0
 20
0.0
 30
0.0
 70
   128
 71
     7
 72
     1
 73
    -4
  0
VERTEX
  5
1793
  8
0
 10
0.0
 20
0.0
 30
0.0
 70
   128
 71
     8
 72
    -7
 73
     4
  0
SEQEND
  5
18F9
  8
0
  0
POLYLINE
  5
1794
  8
0
 66
     1
 10
0.0
 20
0.0
 30
0.0
 70
    64
 71
    12
 72
    10
  0
VERTEX
  5
1795
  8
0
 10
208.8379745483355
 20
109.1396192514983
 30
110.6186128075707
 70
   192
  0
VERTEX
  5
1796
  8
0
 10
204.2440273460946
 20
109.6883092631654
 30
109.1330393238543
 70
   192
  0
VERTEX
  5
1797
  8
0
 10
201.3449839595816
 20
109.9830525172445
 30
105.2444645131181
 70
   192
  0
VERTEX
  5
1798
  8
0
 10
201.2104256184995
 20
109.9151056076824
 30
100.3875501148888
 70
   192
  0
VERTEX
  5
1799
  8
0
 10
197.5673385634755
 20
82.33187219349102
 30
98.83374281307375
 70
   192
  0
VERTEX
  5
179A
  8
0
 10
192.8920694824339
 20
59.53095952903745
 30
97.54269514044212
 70
   192
  0
VERTEX
  5
179B
  8
0
 10
187.7076240825815
 20
43.85676141791245
 30
96.6474718616461
 70
   192
  0
VERTEX
  5
179C
  8
0
 10
184.2835447204354
 20
46.06920625055808
 30
101.5512918277055
 70
   192
  0
VERTEX
  5
179D
  8
0
 10
185.8571363995807
 20
45.22515066922854
 30
109.1921892230651
 70
   192
  0
VERTEX
  5
179E
  8
0
 10
190.8255748328865
 20
42.18433027329995
 30
111.7873217239726
 70
   192
  0
VERTEX
  5
179F
  8
0
 10
197.9883633868717
 20
58.11443470440739
 30
111.5092607168143
 70
   192
  0
VERTEX
  5
17A0
  8
0
 10
204.2503381726153
 20
81.39130719097851
 30
111.1029613962354
 70
   192
  0
VERTEX
  5
17A1
  8
0
 10
0.0
 20
0.0
 30
0.0
 70
   128
 71
     8
 72
     7
 73
     6
  0
VERTEX
  5
17A2
  8
0
 10
0.0
 20
0.0
 30
0.0
 70
   128
 71
     6
 72
    11
 73
     9
  0
VERTEX
  5
17A3
  8
0
 10
0.0
 20
0.0
 30
0.0
 70
   128
 71
     6
 72
     9
 73
     8
  0
VERTEX
  5
17A4
  8
0
 10
0.0
 20
0.0
 30
0.0
 70
   128
 71
    11
 72
    10
 73
     9
  0
VERTEX
  5
17A5
  8
0
 10
0.0
 20
0.0
 30
0.0
 70
   128
 71
     6
 72
     5
 73
    12
  0
VERTEX
  5
17A6
  8
0
 10
0.0
 20
0.0
 30
0.0
 70
   128
 71
     6
 72
    12
 73
    11
  0
VERTEX
  5
17A7
  8
0
 10
0.0
 20
0.0
 30
0.0
 70
   128
 71
     2
 72
     1
 73
    12
  0
VERTEX
  5
17A8
  8
0
 10
0.0
 20
0.0
 30
0.0
 70
   128
 71
    12
 72
     5
 73
     3
  0
VERTEX
  5
17A9
  8
0
 10
0.0
 20
0.0
 30
0.0
 70
   128
 71
    12
 72
     3
 73
     2
  0
VERTEX
  5
17AA
  8
0
 10
0.0
 20
0.0
 30
0.0
 70
   128
 71
     5
 72
     4
 73
     3
  0
SEQEND
  5
18FA
  8
0
  0
POLYLINE
  5
17AB
  8
0
 66
     1
 10
0.0
 20
0.0
 30
0.0
 70
    64
 71
     9
 72
     7
  0
VERTEX
  5
17AC
  8
0
 10
271.579457128584
 20
115.9513569087266
 30
-102.6198312463196
 70
   192
  0
VERTEX
  5
17AD
  8
0
 10
267.6198312463195
 20
117.0
 30
-102.6198312463196
 70
   192
  0
VERTEX
  5
17AE
  8
0
 10
267.6198312463195
 20
115.9513569087266
 30
-106.5794571285841
 70
   192
  0
VERTEX
  5
17AF
  8
0
 10
267.6198312463195
 20
113.0803407181254
 30
-109.5010244294825
 70
   192
  0
VERTEX
  5
17B0
  8
0
 10
274.5461673492208
 20
109.1906969987791
 30
-106.6185188865715
 70
   192
  0
VERTEX
  5
17B1
  8
0
 10
275.6186128075706
 20
109.1396192514983
 30
-102.6198312463196
 70
   192
  0
VERTEX
  5
17B2
  8
0
 10
274.5010244294825
 20
113.0803407181254
 30
-102.6198312463196
 70
   192
  0
VERTEX
  5
17B3
  8
0
 10
271.6185188865715
 20
109.1906969987791
 30
-109.5461673492208
 70
   192
  0
VERTEX
  5
17B4
  8
0
 10
267.6198312463195
 20
109.1396192514982
 30
-110.6186128075707
 70
   192
  0
VERTEX
  5
17B5
  8
0
 10
0.0
 20
0.0
 30
0.0
 70
   128
 71
     1
 72
     2
 73
     3
  0
VERTEX
  5
17B6
  8
0
 10
0.0
 20
0.0
 30
0.0
 70
   128
 71
     3
 72
     4
 73
     1
  0
VERTEX
  5
17B7
  8
0
 10
0.0
 20
0.0
 30
0.0
 70
   128
 71
     5
 72
     6
 73
     7
  0
VERTEX
  5
17B8
  8
0
 10
0.0
 20
0.0
 30
0.0
 70
   128
 71
     8
 72
     5
 73
     7
  0
VERTEX
  5
17B9
  8
0
 10
0.0
 20
0.0
 30
0.0
 70
   128
 71
     8
 72
     7
 73
     1
  0
VERTEX
  5
17BA
  8
0
 10
0.0
 20
0.0
 30
0.0
 70
   128
 71
     9
 72
     8
 73
     1
  0
VERTEX
  5
17BB
  8
0
 10
0.0
 20
0.0
 30
0.0
 70
   128
 71
     4
 72
     9
 73
     1
  0
SEQEND
  5
18FB
  8
0
  0
POLYLINE
  5
17BC
  8
0
 66
     1
 10
0.0
 20
0.0
 30
0.0
 70
    64
 71
     9
 72
     7
  0
VERTEX
  5
17BD
  8
0
 10
205.2558321450375
 20
116.0759604215544
 30
101.5714802005857
 70
   192
  0
VERTEX
  5
17BE
  8
0
 10
208.8379745483355
 20
117.0
 30
102.6198312463196
 70
   192
  0
VERTEX
  5
17BF
  8
0
 10
208.8379745483355
 20
115.9513569087266
 30
106.5794571285841
 70
   192
  0
VERTEX
  5
17C0
  8
0
 10
208.8379745483355
 20
113.0803407181254
 30
109.5010244294825
 70
   192
  0
VERTEX
  5
17C1
  8
0
 10
208.8379745483355
 20
109.1396192514983
 30
110.6186128075707
 70
   192
  0
VERTEX
  5
17C2
  8
0
 10
202.5012000808085
 20
113.5173039718509
 30
100.7653086194426
 70
   192
  0
VERTEX
  5
17C3
  8
0
 10
201.2104256184993
 20
109.9151056076826
 30
100.3875501148887
 70
   192
  0
VERTEX
  5
17C4
  8
0
 10
201.3449839595816
 20
109.9830525172445
 30
105.2444645131181
 70
   192
  0
VERTEX
  5
17C5
  8
0
 10
204.2440273460946
 20
109.6883092631654
 30
109.1330393238543
 70
   192
  0
VERTEX
  5
17C6
  8
0
 10
0.0
 20
0.0
 30
0.0
 70
   128
 71
     1
 72
     2
 73
     3
  0
VERTEX
  5
17C7
  8
0
 10
0.0
 20
0.0
 30
0.0
 70
   128
 71
     3
 72
     4
 73
     1
  0
VERTEX
  5
17C8
  8
0
 10
0.0
 20
0.0
 30
0.0
 70
   128
 71
     1
 72
     4
 73
     5
  0
VERTEX
  5
17C9
  8
0
 10
0.0
 20
0.0
 30
0.0
 70
   128
 71
     6
 72
     1
 73
     5
  0
VERTEX
  5
17CA
  8
0
 10
0.0
 20
0.0
 30
0.0
 70
   128
 71
     7
 72
     6
 73
     5
  0
VERTEX
  5
17CB
  8
0
 10
0.0
 20
0.0
 30
0.0
 70
   128
 71
     8
 72
     7
 73
    -5
  0
VERTEX
  5
17CC
  8
0
 10
0.0
 20
0.0
 30
0.0
 70
   128
 71
     9
 72
    -8
 73
     5
  0
SEQEND
  5
18FC
  8
0
  0
POLYLINE
  5
17CD
  8
0
 66
     1
 10
0.0
 20
0.0
 30
0.0
 70
    64
 71
     8
 72
     6
  0
VERTEX
  5
17CE
  8
0
 10
274.5010244294825
 20
113.0803407181254
 30
102.6198312463196
 70
   192
  0
VERTEX
  5
17CF
  8
0
 10
271.579457128584
 20
115.9513569087266
 30
102.6198312463196
 70
   192
  0
VERTEX
  5
17D0
  8
0
 10
271.579457128584
 20
115.9513569087266
 30
-102.6198312463196
 70
   192
  0
VERTEX
  5
17D1
  8
0
 10
274.5010244294825
 20
113.0803407181254
 30
-102.6198312463196
 70
   192
  0
VERTEX
  5
17D2
  8
0
 10
267.6198312463195
 20
117.0
 30
102.6198312463196
 70
   192
  0
VERTEX
  5
17D3
  8
0
 10
267.6198312463195
 20
117.0
 30
-102.6198312463196
 70
   192
  0
VERTEX
  5
17D4
  8
0
 10
275.6186128075705
 20
109.1396192514982
 30
102.6198312463196
 70
   192
  0
VERTEX
  5
17D5
  8
0
 10
275.6186128075706
 20
109.1396192514982
 30
-102.6198312463196
 70
   192
  0
VERTEX
  5
17D6
  8
0
 10
0.0
 20
0.0
 30
0.0
 70
   128
 71
     1
 72
     2
 73
    -3
  0
VERTEX
  5
17D7
  8
0
 10
0.0
 20
0.0
 30
0.0
 70
   128
 71
     4
 72
    -1
 73
     3
  0
VERTEX
  5
17D8
  8
0
 10
0.0
 20
0.0
 30
0.0
 70
   128
 71
     2
 72
     5
 73
    -6
  0
VERTEX
  5
17D9
  8
0
 10
0.0
 20
0.0
 30
0.0
 70
   128
 71
     3
 72
    -2
 73
     6
  0
VERTEX
  5
17DA
  8
0
 10
0.0
 20
0.0
 30
0.0
 70
   128
 71
     7
 72
     1
 73
    -4
  0
VERTEX
  5
17DB
  8
0
 10
0.0
 20
0.0
 30
0.0
 70
   128
 71
     8
 72
    -7
 73
     4
  0
SEQEND
  5
18FD
  8
0
  0
POLYLINE
  5
17DC
  8
0
 66
     1
 10
0.0
 20
0.0
 30
0.0
 70
    64
 71
     8
 72
     6
  0
VERTEX
  5
17DD
  8
0
 10
208.8379745483355
 20
113.0803407181254
 30
109.5010244294825
 70
   192
  0
VERTEX
  5
17DE
  8
0
 10
208.8379745483355
 20
115.9513569087266
 30
106.5794571285841
 70
   192
  0
VERTEX
  5
17DF
  8
0
 10
267.6198312463195
 20
115.9513569087266
 30
106.5794571285841
 70
   192
  0
VERTEX
  5
17E0
  8
0
 10
267.6198312463195
 20
113.0803407181254
 30
109.5010244294825
 70
   192
  0
VERTEX
  5
17E1
  8
0
 10
208.8379745483355
 20
117.0
 30
102.6198312463196
 70
   192
  0
VERTEX
  5
17E2
  8
0
 10
267.6198312463195
 20
117.0
 30
102.6198312463196
 70
   192
  0
VERTEX
  5
17E3
  8
0
 10
208.8379745483355
 20
109.1396192514982
 30
110.6186128075707
 70
   192
  0
VERTEX
  5
17E4
  8
0
 10
267.6198312463195
 20
109.1396192514982
 30
110.6186128075707
 70
   192
  0
VERTEX
  5
17E5
  8
0
 10
0.0
 20
0.0
 30
0.0
 70
   128
 71
     1
 72
     2
 73
    -3
  0
VERTEX
  5
17E6
  8
0
 10
0.0
 20
0.0
 30
0.0
 70
   128
 71
     4
 72
    -1
 73
     3
  0
VERTEX
  5
17E7
  8
0
 10
0.0
 20
0.0
 30
0.0
 70
   128
 71
     2
 72
     5
 73
    -6
  0
VERTEX
  5
17E8
  8
0
 10
0.0
 20
0.0
 30
0.0
 70
   128
 71
     3
 72
    -2
 73
     6
  0
VERTEX
  5
17E9
  8
0
 10
0.0
 20
0.0
 30
0.0
 70
   128
 71
     7
 72
     1
 73
    -4
  0
VERTEX
  5
17EA
  8
0
 10
0.0
 20
0.0
 30
0.0
 70
   128
 71
     8
 72
    -7
 73
     4
  0
SEQEND
  5
18FE
  8
0
  0
POLYLINE
  5
17EB
  8
0
 66
     1
 10
0.0
 20
0.0
 30
0.0
 70
    64
 71
     9
 72
     7
  0
VERTEX
  5
17EC
  8
0
 10
274.5010244294825
 20
113.0803407181254
 30
102.6198312463196
 70
   192
  0
VERTEX
  5
17ED
  8
0
 10
275.6186128075706
 20
109.1396192514982
 30
102.6198312463196
 70
   192
  0
VERTEX
  5
17EE
  8
0
 10
274.5461673492208
 20
109.1906969987791
 30
106.6185188865715
 70
   192
  0
VERTEX
  5
17EF
  8
0
 10
271.6185188865714
 20
109.1906969987791
 30
109.5461673492208
 70
   192
  0
VERTEX
  5
17F0
  8
0
 10
267.6198312463195
 20
115.9513569087266
 30
106.5794571285841
 70
   192
  0
VERTEX
  5
17F1
  8
0
 10
267.6198312463195
 20
117.0
 30
102.6198312463196
 70
   192
  0
VERTEX
  5
17F2
  8
0
 10
271.579457128584
 20
115.9513569087266
 30
102.6198312463196
 70
   192
  0
VERTEX
  5
17F3
  8
0
 10
267.6198312463195
 20
109.1396192514983
 30
110.6186128075707
 70
   192
  0
VERTEX
  5
17F4
  8
0
 10
267.6198312463195
 20
113.0803407181254
 30
109.5010244294825
 70
   192
  0
VERTEX
  5
17F5
  8
0
 10
0.0
 20
0.0
 30
0.0
 70
   128
 71
     1
 72
     2
 73
     3
  0
VERTEX
  5
17F6
  8
0
 10
0.0
 20
0.0
 30
0.0
 70
   128
 71
     3
 72
     4
 73
     1
  0
VERTEX
  5
17F7
  8
0
 10
0.0
 20
0.0
 30
0.0
 70
   128
 71
     5
 72
     6
 73
     7
  0
VERTEX
  5
17F8
  8
0
 10
0.0
 20
0.0
 30
0.0
 70
   128
 71
     7
 72
     1
 73
     4
  0
VERTEX
  5
17F9
  8
0
 10
0.0
 20
0.0
 30
0.0
 70
   128
 71
     4
 72
     8
 73
     9
  0
VERTEX
  5
17FA
  8
0
 10
0.0
 20
0.0
 30
0.0
 70
   128
 71
     7
 72
     4
 73
     9
  0
VERTEX
  5
17FB
  8
0
 10
0.0
 20
0.0
 30
0.0
 70
   128
 71
     9
 72
     5
 73
     7
  0
SEQEND
  5
18FF
  8
0
  0
POLYLINE
  5
17FC
  8
0
 66
     1
 10
0.0
 20
0.0
 30
0.0
 70
    64
 71
    13
 72
    11
  0
VERTEX
  5
17FD
  8
0
 10
68.66043992287462
 20
-0.4019237886466733
 30
-6.612769660643868
 70
   192
  0
VERTEX
  5
17FE
  8
0
 10
68.19488869471468
 20
-0.1809221376423626
 30
-6.701543361661463
 70
   192
  0
VERTEX
  5
17FF
  8
0
 10
67.69871293503087
 20
-0.0455767409635603
 30
-6.796156705753542
 70
   192
  0
VERTEX
  5
1800
  8
0
 10
67.18698869320414
 20
-0.0000000000002753
 30
-6.893734914336529
 70
   192
  0
VERTEX
  5
1801
  8
0
 10
67.1869886932046
 20
-0.0000000000000139
 30
6.893734914338879
 70
   192
  0
VERTEX
  5
1802
  8
0
 10
67.69871293503074
 20
-0.0455767409645618
 30
6.796156705753335
 70
   192
  0
VERTEX
  5
1803
  8
0
 10
68.19488869471456
 20
-0.180922137642872
 30
6.701543361661411
 70
   192
  0
VERTEX
  5
1804
  8
0
 10
68.66043992287464
 20
-0.4019237886466769
 30
6.612769660643957
 70
   192
  0
VERTEX
  5
1805
  8
0
 10
68.26503060085838
 20
-0.3735285887558957
 30
4.429742244527003
 70
   192
  0
VERTEX
  5
1806
  8
0
 10
67.9415383774478
 20
-0.3085713058146271
 30
2.189320802209562
 70
   192
  0
VERTEX
  5
1807
  8
0
 10
67.8070409953859
 20
-0.2699705192850875
 30
-0.0000000000000005
 70
   192
  0
VERTEX
  5
1808
  8
0
 10
67.94512092947927
 20
-0.3095244513787617
 30
-2.220408391744587
 70
   192
  0
VERTEX
  5
1809
  8
0
 10
68.26380942888831
 20
-0.3733561307503181
 30
-4.422481428766918
 70
   192
  0
VERTEX
  5
180A
  8
0
 10
0.0
 20
0.0
 30
0.0
 70
   128
 71
     9
 72
     5
 73
     6
  0
VERTEX
  5
180B
  8
0
 10
0.0
 20
0.0
 30
0.0
 70
   128
 71
     6
 72
     7
 73
     9
  0
VERTEX
  5
180C
  8
0
 10
0.0
 20
0.0
 30
0.0
 70
   128
 71
     7
 72
     8
 73
     9
  0
VERTEX
  5
180D
  8
0
 10
0.0
 20
0.0
 30
0.0
 70
   128
 71
     9
 72
    10
 73
     5
  0
VERTEX
  5
180E
  8
0
 10
0.0
 20
0.0
 30
0.0
 70
   128
 71
    11
 72
     4
 73
     5
  0
VERTEX
  5
180F
  8
0
 10
0.0
 20
0.0
 30
0.0
 70
   128
 71
    10
 72
    11
 73
     5
  0
VERTEX
  5
1810
  8
0
 10
0.0
 20
0.0
 30
0.0
 70
   128
 71
    11
 72
    12
 73
     4
  0
VERTEX
  5
1811
  8
0
 10
0.0
 20
0.0
 30
0.0
 70
   128
 71
    12
 72
    13
 73
     4
  0
VERTEX
  5
1812
  8
0
 10
0.0
 20
0.0
 30
0.0
 70
   128
 71
    13
 72
     1
 73
     2
  0
VERTEX
  5
1813
  8
0
 10
0.0
 20
0.0
 30
0.0
 70
   128
 71
     2
 72
     3
 73
    13
  0
VERTEX
  5
1814
  8
0
 10
0.0
 20
0.0
 30
0.0
 70
   128
 71
     3
 72
     4
 73
    13
  0
SEQEND
  5
1900
  8
0
  0
POLYLINE
  5
1815
  8
0
 66
     1
 10
0.0
 20
0.0
 30
0.0
 70
    64
 71
    17
 72
    18
  0
VERTEX
  5
1816
  8
0
 10
79.59610623490342
 20
-0.0000000000000132
 30
28.12076416220584
 70
   192
  0
VERTEX
  5
1817
  8
0
 10
102.6027364792879
 20
-0.0000000000000113
 30
36.79647356557273
 70
   192
  0
VERTEX
  5
1818
  8
0
 10
102.6105746996034
 20
-0.025665415878565
 30
36.40497344551981
 70
   192
  0
VERTEX
  5
1819
  8
0
 10
67.18698869320407
 20
-0.0000000000017382
 30
6.893734914336159
 70
   192
  0
VERTEX
  5
181A
  8
0
 10
138.679580185465
 20
-0.0455767409633978
 30
8.217263998694541
 70
   192
  0
VERTEX
  5
181B
  8
0
 10
102.6182788057976
 20
-0.1022225211327945
 30
36.0201720010653
 70
   192
  0
VERTEX
  5
181C
  8
0
 10
68.19488869471456
 20
-0.180922137642872
 30
6.701543361661411
 70
   192
  0
VERTEX
  5
181D
  8
0
 10
102.625716978476
 20
-0.2283614024661489
 30
35.64865329161097
 70
   192
  0
VERTEX
  5
181E
  8
0
 10
125.0171353517251
 20
-0.4019237886466898
 30
27.86465693318789
 70
   192
  0
VERTEX
  5
181F
  8
0
 10
102.6327619484431
 20
-0.4019237886466916
 30
35.29677410528009
 70
   192
  0
VERTEX
  5
1820
  8
0
 10
80.5638039214566
 20
-0.4019237886466934
 30
26.97465719187557
 70
   192
  0
VERTEX
  5
1821
  8
0
 10
67.69871293503074
 20
-0.0455767409645618
 30
6.796156705753335
 70
   192
  0
VERTEX
  5
1822
  8
0
 10
138.1875890284722
 20
-0.180922137642304
 30
8.102866573815843
 70
   192
  0
VERTEX
  5
1823
  8
0
 10
68.66043992287466
 20
-0.4019237886466944
 30
6.612769660643822
 70
   192
  0
VERTEX
  5
1824
  8
0
 10
137.7259641245716
 20
-0.4019237886466995
 30
7.995529887951649
 70
   192
  0
VERTEX
  5
1825
  8
0
 10
125.938183558928
 20
-0.0000000000000095
 30
29.04857846775357
 70
   192
  0
VERTEX
  5
1826
  8
0
 10
139.1869886932046
 20
-0.0000000000000084
 30
8.33524625472079
 70
   192
  0
VERTEX
  5
1827
  8
0
 10
0.0
 20
0.0
 30
0.0
 70
   128
 71
     1
 72
     2
 73
     3
  0
VERTEX
  5
1828
  8
0
 10
0.0
 20
0.0
 30
0.0
 70
   128
 71
     3
 72
     4
 73
     1
  0
VERTEX
  5
1829
  8
0
 10
0.0
 20
0.0
 30
0.0
 70
   128
 71
     5
 72
     6
 73
     3
  0
VERTEX
  5
182A
  8
0
 10
0.0
 20
0.0
 30
0.0
 70
   128
 71
     7
 72
     6
 73
     8
  0
VERTEX
  5
182B
  8
0
 10
0.0
 20
0.0
 30
0.0
 70
   128
 71
     9
 72
    10
 73
     8
  0
VERTEX
  5
182C
  8
0
 10
0.0
 20
0.0
 30
0.0
 70
   128
 71
     8
 72
    10
 73
    11
  0
VERTEX
  5
182D
  8
0
 10
0.0
 20
0.0
 30
0.0
 70
   128
 71
     3
 72
     6
 73
     7
  0
VERTEX
  5
182E
  8
0
 10
0.0
 20
0.0
 30
0.0
 70
   128
 71
     3
 72
     7
 73
    12
  0
VERTEX
  5
182F
  8
0
 10
0.0
 20
0.0
 30
0.0
 70
   128
 71
    13
 72
     8
 73
     6
  0
VERTEX
  5
1830
  8
0
 10
0.0
 20
0.0
 30
0.0
 70
   128
 71
    13
 72
     6
 73
     5
  0
VERTEX
  5
1831
  8
0
 10
0.0
 20
0.0
 30
0.0
 70
   128
 71
     8
 72
    11
 73
    14
  0
VERTEX
  5
1832
  8
0
 10
0.0
 20
0.0
 30
0.0
 70
   128
 71
     8
 72
    14
 73
     7
  0
VERTEX
  5
1833
  8
0
 10
0.0
 20
0.0
 30
0.0
 70
   128
 71
    15
 72
     9
 73
     8
  0
VERTEX
  5
1834
  8
0
 10
0.0
 20
0.0
 30
0.0
 70
   128
 71
    15
 72
     8
 73
    13
  0
VERTEX
  5
1835
  8
0
 10
0.0
 20
0.0
 30
0.0
 70
   128
 71
     3
 72
    12
 73
     4
  0
VERTEX
  5
1836
  8
0
 10
0.0
 20
0.0
 30
0.0
 70
   128
 71
    16
 72
    17
 73
     5
  0
VERTEX
  5
1837
  8
0
 10
0.0
 20
0.0
 30
0.0
 70
   128
 71
    16
 72
     5
 73
     3
  0
VERTEX
  5
1838
  8
0
 10
0.0
 20
0.0
 30
0.0
 70
   128
 71
     3
 72
     2
 73
    16
  0
SEQEND
  5
1901
  8
0
  0
POLYLINE
  5
1839
  8
0
 66
     1
 10
0.0
 20
0.0
 30
0.0
 70
    64
 71
    17
 72
    18
  0
VERTEX
  5
183A
  8
0
 10
102.6105746996036
 20
-0.0256654158785636
 30
-36.40497344551981
 70
   192
  0
VERTEX
  5
183B
  8
0
 10
102.6027364792878
 20
-0.0000000000000113
 30
-36.79647356557273
 70
   192
  0
VERTEX
  5
183C
  8
0
 10
79.59610623490339
 20
-0.0000000000000132
 30
-28.12076416220581
 70
   192
  0
VERTEX
  5
183D
  8
0
 10
125.9381835589279
 20
-0.0000000000000095
 30
-29.04857846775364
 70
   192
  0
VERTEX
  5
183E
  8
0
 10
67.69871293503087
 20
-0.0455767409635603
 30
-6.796156705753542
 70
   192
  0
VERTEX
  5
183F
  8
0
 10
102.6182788057977
 20
-0.1022225211327883
 30
-36.02017200106532
 70
   192
  0
VERTEX
  5
1840
  8
0
 10
138.1875890284721
 20
-0.1809221376422312
 30
-8.102866573816012
 70
   192
  0
VERTEX
  5
1841
  8
0
 10
102.6257169784761
 20
-0.2283614024661356
 30
-35.64865329161101
 70
   192
  0
VERTEX
  5
1842
  8
0
 10
80.56380392145658
 20
-0.4019237886466934
 30
-26.97465719187556
 70
   192
  0
VERTEX
  5
1843
  8
0
 10
102.6327619484431
 20
-0.4019237886466916
 30
-35.2967741052801
 70
   192
  0
VERTEX
  5
1844
  8
0
 10
68.66043992287462
 20
-0.4019237886466733
 30
-6.612769660643868
 70
   192
  0
VERTEX
  5
1845
  8
0
 10
138.679580185465
 20
-0.0455767409633574
 30
-8.217263998694714
 70
   192
  0
VERTEX
  5
1846
  8
0
 10
68.19488869471468
 20
-0.1809221376423626
 30
-6.701543361661463
 70
   192
  0
VERTEX
  5
1847
  8
0
 10
125.0171353517251
 20
-0.4019237886466898
 30
-27.86465693318794
 70
   192
  0
VERTEX
  5
1848
  8
0
 10
137.7259641245716
 20
-0.4019237886466888
 30
-7.995529887951796
 70
   192
  0
VERTEX
  5
1849
  8
0
 10
139.1869886932044
 20
0.0000000000000098
 30
-8.335246254720868
 70
   192
  0
VERTEX
  5
184A
  8
0
 10
67.18698869320465
 20
-0.0000000000000142
 30
-6.893734914338875
 70
   192
  0
VERTEX
  5
184B
  8
0
 10
0.0
 20
0.0
 30
0.0
 70
   128
 71
     1
 72
     2
 73
     3
  0
VERTEX
  5
184C
  8
0
 10
0.0
 20
0.0
 30
0.0
 70
   128
 71
     4
 72
     2
 73
     1
  0
VERTEX
  5
184D
  8
0
 10
0.0
 20
0.0
 30
0.0
 70
   128
 71
     5
 72
     6
 73
     1
  0
VERTEX
  5
184E
  8
0
 10
0.0
 20
0.0
 30
0.0
 70
   128
 71
     7
 72
     6
 73
     8
  0
VERTEX
  5
184F
  8
0
 10
0.0
 20
0.0
 30
0.0
 70
   128
 71
     9
 72
    10
 73
     8
  0
VERTEX
  5
1850
  8
0
 10
0.0
 20
0.0
 30
0.0
 70
   128
 71
     8
 72
    11
 73
     9
  0
VERTEX
  5
1851
  8
0
 10
0.0
 20
0.0
 30
0.0
 70
   128
 71
     1
 72
     6
 73
     7
  0
VERTEX
  5
1852
  8
0
 10
0.0
 20
0.0
 30
0.0
 70
   128
 71
     1
 72
     7
 73
    12
  0
VERTEX
  5
1853
  8
0
 10
0.0
 20
0.0
 30
0.0
 70
   128
 71
     5
 72
    13
 73
     8
  0
VERTEX
  5
1854
  8
0
 10
0.0
 20
0.0
 30
0.0
 70
   128
 71
     5
 72
     8
 73
     6
  0
VERTEX
  5
1855
  8
0
 10
0.0
 20
0.0
 30
0.0
 70
   128
 71
    14
 72
    15
 73
     7
  0
VERTEX
  5
1856
  8
0
 10
0.0
 20
0.0
 30
0.0
 70
   128
 71
    14
 72
     7
 73
     8
  0
VERTEX
  5
1857
  8
0
 10
0.0
 20
0.0
 30
0.0
 70
   128
 71
     8
 72
    10
 73
    14
  0
VERTEX
  5
1858
  8
0
 10
0.0
 20
0.0
 30
0.0
 70
   128
 71
    13
 72
    11
 73
     8
  0
VERTEX
  5
1859
  8
0
 10
0.0
 20
0.0
 30
0.0
 70
   128
 71
     4
 72
     1
 73
    12
  0
VERTEX
  5
185A
  8
0
 10
0.0
 20
0.0
 30
0.0
 70
   128
 71
     4
 72
    12
 73
    16
  0
VERTEX
  5
185B
  8
0
 10
0.0
 20
0.0
 30
0.0
 70
   128
 71
     5
 72
     1
 73
     3
  0
VERTEX
  5
185C
  8
0
 10
0.0
 20
0.0
 30
0.0
 70
   128
 71
     5
 72
     3
 73
    17
  0
SEQEND
  5
1902
  8
0
  0
POLYLINE
  5
185D
  8
0
 66
     1
 10
0.0
 20
0.0
 30
0.0
 70
    64
 71
    15
 72
    13
  0
VERTEX
  5
185E
  8
0
 10
137.7259641245716
 20
-0.4019237886466995
 30
7.995529887951649
 70
   192
  0
VERTEX
  5
185F
  8
0
 10
138.1875890284722
 20
-0.180922137642304
 30
8.102866573815843
 70
   192
  0
VERTEX
  5
1860
  8
0
 10
138.679580185465
 20
-0.0455767409633978
 30
8.217263998694541
 70
   192
  0
VERTEX
  5
1861
  8
0
 10
139.1869886932044
 20
0.0000000000000062
 30
8.33524625472069
 70
   192
  0
VERTEX
  5
1862
  8
0
 10
140.0310389037406
 20
0.0014458052132419
 30
2.772114974682845
 70
   192
  0
VERTEX
  5
1863
  8
0
 10
140.0282135221883
 20
0.0014361700506734
 30
-2.814752645179952
 70
   192
  0
VERTEX
  5
1864
  8
0
 10
139.1869886932044
 20
-0.0000000000000278
 30
-8.335246254720868
 70
   192
  0
VERTEX
  5
1865
  8
0
 10
138.679580185465
 20
-0.0455767409633574
 30
-8.217263998694714
 70
   192
  0
VERTEX
  5
1866
  8
0
 10
138.1875890284721
 20
-0.1809221376422312
 30
-8.102866573816012
 70
   192
  0
VERTEX
  5
1867
  8
0
 10
137.7259641245715
 20
-0.4019237886465996
 30
-7.995529887951809
 70
   192
  0
VERTEX
  5
1868
  8
0
 10
138.2354578086322
 20
-0.4013083372322981
 30
-5.356378635478758
 70
   192
  0
VERTEX
  5
1869
  8
0
 10
138.5428954959346
 20
-0.400692885817909
 30
-2.68604591924652
 70
   192
  0
VERTEX
  5
186A
  8
0
 10
138.6464838960896
 20
-0.400077434403522
 30
0.0000000000129005
 70
   192
  0
VERTEX
  5
186B
  8
0
 10
138.5555524972873
 20
-0.4004364614411772
 30
2.52801869175002
 70
   192
  0
VERTEX
  5
186C
  8
0
 10
138.1665293123165
 20
-0.4014622137984951
 30
5.787279477591914
 70
   192
  0
VERTEX
  5
186D
  8
0
 10
0.0
 20
0.0
 30
0.0
 70
   128
 71
     9
 72
    10
 73
    11
  0
VERTEX
  5
186E
  8
0
 10
0.0
 20
0.0
 30
0.0
 70
   128
 71
    11
 72
    12
 73
     9
  0
VERTEX
  5
186F
  8
0
 10
0.0
 20
0.0
 30
0.0
 70
   128
 71
    12
 72
    13
 73
     9
  0
VERTEX
  5
1870
  8
0
 10
0.0
 20
0.0
 30
0.0
 70
   128
 71
     3
 72
     4
 73
     5
  0
VERTEX
  5
1871
  8
0
 10
0.0
 20
0.0
 30
0.0
 70
   128
 71
     6
 72
     8
 73
     3
  0
VERTEX
  5
1872
  8
0
 10
0.0
 20
0.0
 30
0.0
 70
   128
 71
     5
 72
     6
 73
     3
  0
VERTEX
  5
1873
  8
0
 10
0.0
 20
0.0
 30
0.0
 70
   128
 71
     6
 72
     7
 73
     8
  0
VERTEX
  5
1874
  8
0
 10
0.0
 20
0.0
 30
0.0
 70
   128
 71
     9
 72
     2
 73
    -3
  0
VERTEX
  5
1875
  8
0
 10
0.0
 20
0.0
 30
0.0
 70
   128
 71
     8
 72
    -9
 73
     3
  0
VERTEX
  5
1876
  8
0
 10
0.0
 20
0.0
 30
0.0
 70
   128
 71
    13
 72
    14
 73
     2
  0
VERTEX
  5
1877
  8
0
 10
0.0
 20
0.0
 30
0.0
 70
   128
 71
     9
 72
    13
 73
     2
  0
VERTEX
  5
1878
  8
0
 10
0.0
 20
0.0
 30
0.0
 70
   128
 71
    14
 72
    15
 73
     2
  0
VERTEX
  5
1879
  8
0
 10
0.0
 20
0.0
 30
0.0
 70
   128
 71
    15
 72
     1
 73
     2
  0
SEQEND
  5
1903
  8
0
  0
ENDBLK
  5
187B
  8
0
  0
ENDSEC
  0
SECTION
  2
ENTITIES
  0
INSERT
  5
BE
  8
0
  2
*X1
 10
0.0
 20
0.0
 30
0.0
  0
ENDSEC
  0
EOF
